999
DXF file: nac3fca.dxf
999
Pro/ENGINEER 2001040 by Parametric Technology Corporation
0
SECTION
2
HEADER
9
$ACADVER
1
AC1012
9
$EXTMAX
10
420.0000000000
20
297.0000000000
9
$EXTMIN
10
0.0000000000
20
0.0000000000
9
$LIMMIN
10
0.0000000000
20
0.0000000000
9
$LIMMAX
10
420.0000000000
20
297.0000000000
9
$VIEWCTR
10
210.0000000000
20
148.5000000000
9
$VIEWSIZE
40
297.0000000000
9
$CLAYER
8
0
9
$LTSCALE
40
23.1000000000
9
$CELTYPE
6
BYLAYER
9
$DIMSCALE
40
1
9
$DIMASZ
40
3.5000000000
9
$DIMEXO
40
2.6250000000
9
$DIMDLI
40
15.9600000000
9
$DIMEXE
40
7.5600000000
9
$DIMCEN
40
3.7800000000
9
$DIMTXT
40
4.7460937500
9
$DIMLFAC
40
1.0000000000
0
ENDSEC
0
SECTION
2
CLASSES
0
ENDSEC
0
SECTION
2
TABLES
0
TABLE
2
VPORT
5
1F4
100
AcDbSymbolTable
70
2
0
VPORT
5
1F5
100
AcDbSymbolTableRecord
100
AcDbViewportTableRecord
2
*ACTIVE
70
0
10
0.0
20
0.0
11
1.0
21
1.0
12
210.0000000000
22
148.5000000000
13
0.0
23
0.0
14
1.0
24
1.0
15
0.0
25
0.0
16
0.0
26
0.0
36
1.0
17
0.0
27
0.0
37
0.0
40
297.0000000000
41
1.4141414141
42
50.0
43
0.0
44
0.0
50
0.0
51
0.0
71
0
72
100
73
1
74
1
75
0
76
0
77
0
78
0
0
ENDTAB
0
TABLE
2
LTYPE
5
1F6
100
AcDbSymbolTable
70
6
0
LTYPE
5
1F7
100
AcDbSymbolTableRecord
100
AcDbLinetypeTableRecord
2
BYBLOCK
70
0
3

72
65
73
0
40
0.0
0
LTYPE
5
1F8
100
AcDbSymbolTableRecord
100
AcDbLinetypeTableRecord
2
BYLAYER
70
0
3

72
65
73
0
40
0.0
0
LTYPE
5
1F9
100
AcDbSymbolTableRecord
100
AcDbLinetypeTableRecord
2
CONTINUOUS
70
64
3
Solid line
72
65
73
0
40
0
0
LTYPE
5
1FA
100
AcDbSymbolTableRecord
100
AcDbLinetypeTableRecord
2
CENTER
70
64
3
____ _ ____ _ ____ _ ____ _ ____ _ ____ _ ____
72
65
73
4
40
0.6
49
0.375
74
0
49
-0.075
74
0
49
0.075
74
0
49
-0.075
74
0
0
LTYPE
5
1FB
100
AcDbSymbolTableRecord
100
AcDbLinetypeTableRecord
2
HIDDEN
70
64
3
- - - - - - - - - - - - - - - - - - - -
72
65
73
2
40
0.2
49
0.1
74
0
49
-0.1
74
0
0
LTYPE
5
1FC
100
AcDbSymbolTableRecord
100
AcDbLinetypeTableRecord
2
PHANTOM
70
64
3
_____ _ _ _____ _ _ _____ _ _ _____
72
65
73
6
40
0.8
49
0.45
74
0
49
-0.05
74
0
49
0.1
74
0
49
-0.05
74
0
49
0.1
74
0
49
-0.05
74
0
0
LTYPE
5
1FD
100
AcDbSymbolTableRecord
100
AcDbLinetypeTableRecord
2
DOT
70
64
3
. . . . . . . . . . . . . . . . . . . .
72
65
73
2
40
0.2
49
0.1
74
0
49
-0.1
74
0
0
LTYPE
5
1FE
100
AcDbSymbolTableRecord
100
AcDbLinetypeTableRecord
2
DASHED
70
64
3
- - - - - - - - - - - - - - - - - - - -
72
65
73
2
40
0.2
49
0.1
74
0
49
-0.1
74
0
0
ENDTAB
0
TABLE
2
LAYER
5
1FF
100
AcDbSymbolTable
70
36
0
LAYER
5
200
100
AcDbSymbolTableRecord
100
AcDbLayerTableRecord
2
0
70
0
62
7
6
CONTINUOUS
0
LAYER
5
201
100
AcDbSymbolTableRecord
100
AcDbLayerTableRecord
2
DEFAULT_1
70
0
62
7
6
CENTER
0
LAYER
5
202
100
AcDbSymbolTableRecord
100
AcDbLayerTableRecord
2
DEFAULT_2
70
0
62
8
6
HIDDEN
0
LAYER
5
203
100
AcDbSymbolTableRecord
100
AcDbLayerTableRecord
2
DEFAULT_3
70
0
62
7
6
PHANTOM
0
LAYER
5
204
100
AcDbSymbolTableRecord
100
AcDbLayerTableRecord
2
0
70
0
62
7
6
CONTINUOUS
0
LAYER
5
205
100
AcDbSymbolTableRecord
100
AcDbLayerTableRecord
2
010
70
0
62
7
6
CONTINUOUS
0
LAYER
5
206
100
AcDbSymbolTableRecord
100
AcDbLayerTableRecord
2
025
70
0
62
7
6
CONTINUOUS
0
LAYER
5
207
100
AcDbSymbolTableRecord
100
AcDbLayerTableRecord
2
035
70
0
62
7
6
CONTINUOUS
0
LAYER
5
208
100
AcDbSymbolTableRecord
100
AcDbLayerTableRecord
2
05
70
0
62
7
6
CONTINUOUS
0
LAYER
5
209
100
AcDbSymbolTableRecord
100
AcDbLayerTableRecord
2
BEM1
70
0
62
7
6
CONTINUOUS
0
LAYER
5
20A
100
AcDbSymbolTableRecord
100
AcDbLayerTableRecord
2
DEFPOINTS
70
0
62
7
6
CONTINUOUS
0
LAYER
5
20B
100
AcDbSymbolTableRecord
100
AcDbLayerTableRecord
2
MITTE
70
0
62
7
6
CONTINUOUS
0
LAYER
5
20C
100
AcDbSymbolTableRecord
100
AcDbLayerTableRecord
2
RAHMEN
70
0
62
7
6
CONTINUOUS
0
LAYER
5
20D
100
AcDbSymbolTableRecord
100
AcDbLayerTableRecord
2
SCHRAFFIERT
70
0
62
7
6
CONTINUOUS
0
ENDTAB
0
TABLE
2
STYLE
5
20E
100
AcDbSymbolTable
70
1
0
STYLE
5
20F
100
AcDbSymbolTableRecord
100
AcDbTextStyleTableRecord
2
STANDARD
70
0
40
0.0
41
0.80
50
0.0
71
0
42
0.2
3
txt
4

0
ENDTAB
0
TABLE
2
VIEW
5
210
100
AcDbSymbolTable
70
0
0
ENDTAB
0
TABLE
2
UCS
5
211
100
AcDbSymbolTable
70
0
0
ENDTAB
0
TABLE
2
APPID
5
212
100
AcDbSymbolTable
70
1
0
APPID
5
213
100
AcDbSymbolTableRecord
100
AcDbRegAppTableRecord
2
ACAD
70
0
0
ENDTAB
0
TABLE
2
DIMSTYLE
5
214
100
AcDbSymbolTable
0
DIMSTYLE
105
215
100
AcDbSymbolTableRecord
100
AcDbDimStyleTableRecord
2
STANDARD
70
0
3

4

5

6

7

40
1.0
41
0.18
42
0.0625
43
0.38
44
0.18
45
0.0
46
0.0
47
0.0
48
0.0
140
0.18
141
0.09
142
0.0
143
25.4
144
1.0
145
0.0
146
1.0
147
0.09
71
0
72
0
73
1
74
1
75
0
76
0
77
0
78
0
170
0
171
2
172
0
173
0
174
0
175
0
176
0
177
0
178
0
270
2
271
4
272
4
273
2
274
2
340
20F
275
0
280
0
281
0
282
0
283
1
284
0
285
0
286
0
287
3
288
0
0
ENDTAB
0
TABLE
2
BLOCK_RECORD
5
216
100
AcDbSymbolTable
70
0
0
BLOCK_RECORD
5
217
100
AcDbSymbolTableRecord
100
AcDbBlockTableRecord
2
*MODEL_SPACE
0
BLOCK_RECORD
5
218
100
AcDbSymbolTableRecord
100
AcDbBlockTableRecord
2
*PAPER_SPACE
0
ENDTAB
0
ENDSEC
0
SECTION
2
BLOCKS
0
BLOCK
5
219
100
AcDbEntity
8
0
100
AcDbBlockBegin
2
*MODEL_SPACE
70
0
10
0.0000000000
20
0.0000000000
3
*MODEL_SPACE
1

3
*MODEL_SPACE
1

0
ENDBLK
5
21A
100
AcDbEntity
8
0
100
AcDbBlockEnd
0
BLOCK
5
21B
100
AcDbEntity
8
0
100
AcDbBlockBegin
2
*PAPER_SPACE
70
0
10
0.0000000000
20
0.0000000000
3
*PAPER_SPACE
1

3
*PAPER_SPACE
1

0
ENDBLK
5
21C
100
AcDbEntity
8
0
100
AcDbBlockEnd
0
ENDSEC
0
SECTION
2
ENTITIES
0
LINE
5
21D
100
AcDbEntity
8
0
100
AcDbLine
62
7
6
CONTINUOUS
10
0.0000000000
20
0.0000000000
11
420.0000000000
21
0.0000000000
0
LINE
5
21E
100
AcDbEntity
8
0
100
AcDbLine
62
7
6
CONTINUOUS
10
420.0000000000
20
0.0000000000
11
420.0000000000
21
297.0000000000
0
LINE
5
21F
100
AcDbEntity
8
0
100
AcDbLine
62
7
6
CONTINUOUS
10
0.0000000000
20
297.0000000000
11
420.0000000000
21
297.0000000000
0
LINE
5
220
100
AcDbEntity
8
0
100
AcDbLine
62
7
6
CONTINUOUS
10
0.0000000000
20
0.0000000000
11
0.0000000000
21
297.0000000000
0
ARC
5
221
100
AcDbEntity
8
010
100
AcDbCircle
62
7
6
CONTINUOUS
10
102.1554500000
20
202.7403070000
40
4.0109030000
100
AcDbArc
50
180.0000000000
51
284.0388770000
0
ARC
5
222
100
AcDbEntity
8
010
100
AcDbCircle
62
7
6
CONTINUOUS
10
102.1554500000
20
202.7403070000
40
4.0109030000
100
AcDbArc
50
309.0778980000
51
330.8817060000
0
ARC
5
223
100
AcDbEntity
8
010
100
AcDbCircle
62
7
6
CONTINUOUS
10
102.1554500000
20
202.7403070000
40
4.0109030000
100
AcDbArc
50
0.0000000000
51
120.4715850000
0
ARC
5
224
100
AcDbEntity
8
010
100
AcDbCircle
62
7
6
CONTINUOUS
10
102.1554500000
20
202.7403070000
40
4.0109030000
100
AcDbArc
50
133.6264400000
51
156.2122420000
0
LINE
5
225
100
AcDbEntity
8
010
100
AcDbLine
62
7
6
CONTINUOUS
10
276.9227113997
20
220.5327379986
11
261.2546428596
21
220.5327379986
0
LINE
5
226
100
AcDbEntity
8
010
100
AcDbLine
62
7
6
CONTINUOUS
10
267.3038319543
20
215.6909316694
11
286.1223887147
21
215.6909316694
0
LINE
5
227
100
AcDbEntity
8
010
100
AcDbLine
62
7
6
CONTINUOUS
10
258.0241130968
20
220.5327379986
11
250.5938984202
21
220.5327379986
0
LINE
5
228
100
AcDbEntity
8
010
100
AcDbLine
62
7
6
CONTINUOUS
10
246.8695084001
20
215.6909316694
11
264.8455673449
21
215.6909316694
0
LINE
5
229
100
AcDbEntity
8
010
100
AcDbLine
62
7
6
CONTINUOUS
10
240.8774833549
20
215.6909316694
11
243.3357479644
21
215.6909316694
0
LINE
5
22A
100
AcDbEntity
8
010
100
AcDbLine
62
7
6
CONTINUOUS
10
239.1255201908
20
220.5327379986
11
237.5102553094
21
220.5327379986
0
LINE
5
22B
100
AcDbEntity
8
010
100
AcDbLine
62
7
6
CONTINUOUS
10
235.4501286985
20
215.6909316694
11
238.1119376931
21
215.6909316694
0
LINE
5
22C
100
AcDbEntity
8
010
100
AcDbLine
62
7
6
CONTINUOUS
10
246.7172616254
20
220.5327379986
11
242.3560499536
21
220.5327379986
0
LINE
5
22D
100
AcDbEntity
8
010
100
AcDbLine
62
7
6
CONTINUOUS
10
285.8066641998
20
220.5327379986
11
283.3837682269
21
220.5327379986
0
LINE
5
22E
100
AcDbEntity
8
010
100
AcDbLine
62
7
6
CONTINUOUS
10
282.4146103774
20
220.5327379986
11
279.3456046741
21
220.5327379986
0
LINE
5
22F
100
AcDbEntity
8
010
100
AcDbLine
62
7
6
CONTINUOUS
10
276.9227113997
20
184.9478770000
11
261.2546428596
21
184.9478770000
0
LINE
5
230
100
AcDbEntity
8
010
100
AcDbLine
62
7
6
CONTINUOUS
10
259.6393752798
20
184.9478770000
11
252.2091606031
21
184.9478770000
0
LINE
5
231
100
AcDbEntity
8
010
100
AcDbLine
62
7
6
CONTINUOUS
10
240.9023118302
20
184.9478770000
11
239.2870469488
21
184.9478770000
0
LINE
5
232
100
AcDbEntity
8
010
100
AcDbLine
62
7
6
CONTINUOUS
10
249.3016870547
20
184.9478770000
11
244.9404753829
21
184.9478770000
0
LINE
5
233
100
AcDbEntity
8
010
100
AcDbLine
62
7
6
CONTINUOUS
10
285.8066641998
20
184.9478770000
11
283.3837682269
21
184.9478770000
0
LINE
5
234
100
AcDbEntity
8
010
100
AcDbLine
62
7
6
CONTINUOUS
10
283.5898329681
20
189.7896833292
11
286.1223887147
21
189.7896833292
0
LINE
5
235
100
AcDbEntity
8
010
100
AcDbLine
62
7
6
CONTINUOUS
10
281.4454471311
20
184.9478770000
11
278.3764441262
21
184.9478770000
0
LINE
5
236
100
AcDbEntity
8
010
100
AcDbLine
62
7
6
CONTINUOUS
10
275.7541162120
20
189.7896833292
11
279.5951523032
21
189.7896833292
0
LINE
5
237
100
AcDbEntity
8
025
100
AcDbLine
62
7
6
CONTINUOUS
10
205.5945420000
20
227.8516960000
11
227.5921920000
21
228.3016670000
0
LINE
5
238
100
AcDbEntity
8
025
100
AcDbLine
62
7
6
CONTINUOUS
10
200.5950760000
20
215.2981460000
11
227.5921920000
21
215.7085200000
0
LINE
5
239
100
AcDbEntity
8
025
100
AcDbLine
62
7
6
CONTINUOUS
10
200.5950760000
20
218.8843550000
11
227.5921920000
21
219.4119210000
0
LINE
5
23A
100
AcDbEntity
8
025
100
AcDbLine
62
7
6
CONTINUOUS
10
200.5950760000
20
221.9800350000
11
227.5921920000
21
222.6087630000
0
LINE
5
23B
100
AcDbEntity
8
025
100
AcDbLine
62
7
6
CONTINUOUS
10
227.5921920000
20
178.3680370000
11
205.5945420000
21
177.6289170000
0
LINE
5
23C
100
AcDbEntity
8
025
100
AcDbLine
62
7
6
CONTINUOUS
10
205.5945420000
20
177.6289170000
11
227.5921920000
21
177.1789460000
0
LINE
5
23D
100
AcDbEntity
8
025
100
AcDbLine
62
7
6
CONTINUOUS
10
200.5950760000
20
207.1015970000
11
227.5921920000
21
207.2441200000
0
LINE
5
23E
100
AcDbEntity
8
025
100
AcDbLine
62
7
6
CONTINUOUS
10
200.5950760000
20
211.3303740000
11
227.5921920000
21
211.6110870000
0
LINE
5
23F
100
AcDbEntity
8
025
100
AcDbLine
62
7
6
CONTINUOUS
10
200.5950760000
20
198.3790160000
11
227.5921920000
21
198.2364940000
0
LINE
5
240
100
AcDbEntity
8
025
100
AcDbLine
62
7
6
CONTINUOUS
10
200.5950760000
20
194.1502390000
11
227.5921920000
21
193.8695260000
0
LINE
5
241
100
AcDbEntity
8
025
100
AcDbLine
62
7
6
CONTINUOUS
10
200.5950760000
20
190.1824670000
11
227.5921920000
21
189.7720930000
0
LINE
5
242
100
AcDbEntity
8
025
100
AcDbLine
62
7
6
CONTINUOUS
10
200.5950760000
20
186.5962590000
11
227.5921920000
21
186.0686930000
0
LINE
5
243
100
AcDbEntity
8
025
100
AcDbLine
62
7
6
CONTINUOUS
10
200.5950760000
20
183.5005790000
11
227.5921920000
21
182.8718510000
0
LINE
5
244
100
AcDbEntity
8
025
100
AcDbLine
62
7
6
CONTINUOUS
10
200.5950760000
20
179.1392860000
11
205.5945420000
21
177.6289170000
0
LINE
5
245
100
AcDbEntity
8
025
100
AcDbLine
62
7
6
CONTINUOUS
10
205.5945420000
20
177.6289170000
11
200.5950760000
21
178.0061880000
0
LINE
5
246
100
AcDbEntity
8
010
100
AcDbLine
62
7
6
CONTINUOUS
10
200.5950760000
20
211.3303740000
11
205.5945420000
21
213.7272080000
0
LINE
5
247
100
AcDbEntity
8
010
100
AcDbLine
62
7
6
CONTINUOUS
10
200.6554540000
20
202.5202360000
11
205.5945420000
21
200.4744990000
0
LINE
5
248
100
AcDbEntity
8
010
100
AcDbLine
62
7
6
CONTINUOUS
10
200.5950760000
20
198.3790160000
11
205.5945420000
21
196.0117300000
0
LINE
5
249
100
AcDbEntity
8
010
100
AcDbLine
62
7
6
CONTINUOUS
10
205.5945420000
20
200.4744990000
11
200.5950760000
21
198.3790160000
0
LINE
5
24A
100
AcDbEntity
8
010
100
AcDbLine
62
7
6
CONTINUOUS
10
203.2955300000
20
204.0538790000
11
205.5945420000
21
205.0061140000
0
LINE
5
24B
100
AcDbEntity
8
010
100
AcDbLine
62
7
6
CONTINUOUS
10
205.5945420000
20
209.4688830000
11
200.5950760000
21
211.3303740000
0
LINE
5
24C
100
AcDbEntity
8
010
100
AcDbLine
62
7
6
CONTINUOUS
10
200.5950760000
20
207.1015970000
11
205.5945420000
21
209.4688830000
0
LINE
5
24D
100
AcDbEntity
8
010
100
AcDbLine
62
7
6
CONTINUOUS
10
205.5945420000
20
205.0061140000
11
200.5950760000
21
207.1015970000
0
LINE
5
24E
100
AcDbEntity
8
010
100
AcDbLine
62
7
6
CONTINUOUS
10
200.9965180000
20
203.1016440000
11
201.9344580000
21
203.4901330000
0
LINE
5
24F
100
AcDbEntity
8
025
100
AcDbLine
62
7
6
CONTINUOUS
10
205.5945420000
20
227.8516960000
11
200.5950760000
21
227.4744250000
0
LINE
5
250
100
AcDbEntity
8
025
100
AcDbLine
62
7
6
CONTINUOUS
10
200.5950760000
20
226.3413280000
11
205.5945420000
21
227.8516960000
0
LINE
5
251
100
AcDbEntity
8
025
100
AcDbLine
62
7
6
CONTINUOUS
10
262.3356670000
20
212.3302820000
11
262.3356670000
21
210.9779750000
0
LINE
5
252
100
AcDbEntity
8
025
100
AcDbLine
62
7
6
CONTINUOUS
10
244.3376070000
20
210.8500070000
11
244.3376070000
21
212.2817780000
0
LINE
5
253
100
AcDbEntity
8
025
100
AcDbLine
62
7
6
CONTINUOUS
10
250.3369600000
20
208.7381500000
11
250.3369600000
21
212.3533690000
0
LINE
5
254
100
AcDbEntity
8
025
100
AcDbLine
62
7
6
CONTINUOUS
10
244.3376070000
20
195.2437040000
11
244.3376070000
21
209.3466550000
0
LINE
5
255
100
AcDbEntity
8
025
100
AcDbLine
62
7
6
CONTINUOUS
10
250.3369600000
20
193.2772900000
11
250.3369600000
21
207.3421690000
0
LINE
5
256
100
AcDbEntity
8
025
100
AcDbLine
62
7
6
CONTINUOUS
10
244.3376070000
20
193.5953570000
11
244.3376070000
21
194.7714610000
0
LINE
5
257
100
AcDbEntity
8
025
100
AcDbLine
62
7
6
CONTINUOUS
10
256.3363140000
20
193.4888470000
11
256.3363140000
21
194.3446230000
0
LINE
5
258
100
AcDbEntity
8
025
100
AcDbLine
62
7
6
CONTINUOUS
10
256.3363140000
20
195.2437040000
11
256.3363140000
21
199.7160260000
0
LINE
5
259
100
AcDbEntity
8
025
100
AcDbLine
62
7
6
CONTINUOUS
10
262.3356670000
20
193.2632170000
11
262.3356670000
21
195.8673380000
0
LINE
5
25A
100
AcDbEntity
8
025
100
AcDbLine
62
7
6
CONTINUOUS
10
262.3356670000
20
197.1407990000
11
262.3356670000
21
199.6491830000
0
LINE
5
25B
100
AcDbEntity
8
010
100
AcDbLine
62
7
6
CONTINUOUS
10
269.3967700000
20
192.1660110000
11
269.3967700000
21
191.3995540000
0
LINE
5
25C
100
AcDbEntity
8
010
100
AcDbLine
62
7
6
CONTINUOUS
10
269.3967700000
20
190.9361160000
11
269.3967700000
21
190.3149900000
0
LINE
5
25D
100
AcDbEntity
8
010
100
AcDbLine
62
7
6
CONTINUOUS
10
269.3967700000
20
197.5408670000
11
269.3967700000
21
192.4512060000
0
LINE
5
25E
100
AcDbEntity
8
025
100
AcDbLine
62
7
6
CONTINUOUS
10
268.3350200000
20
193.5124200000
11
268.3350200000
21
194.8191090000
0
LINE
5
25F
100
AcDbEntity
8
025
100
AcDbLine
62
7
6
CONTINUOUS
10
268.3350200000
20
196.2459420000
11
268.3350200000
21
199.5154960000
0
LINE
5
260
100
AcDbEntity
8
025
100
AcDbLine
62
7
6
CONTINUOUS
10
262.3356670000
20
209.8888270000
11
262.3356670000
21
205.8314310000
0
LINE
5
261
100
AcDbEntity
8
025
100
AcDbLine
62
7
6
CONTINUOUS
10
268.3350200000
20
206.0732470000
11
268.3350200000
21
211.5147170000
0
LINE
5
262
100
AcDbEntity
8
010
100
AcDbLine
62
7
6
CONTINUOUS
10
269.3967700000
20
213.6022230000
11
269.3967700000
21
215.1418280000
0
LINE
5
263
100
AcDbEntity
8
010
100
AcDbLine
62
7
6
CONTINUOUS
10
302.4883550000
20
193.9827940000
11
303.6697870000
21
193.9827940000
0
LINE
5
264
100
AcDbEntity
8
010
100
AcDbLine
62
7
6
CONTINUOUS
10
302.4883550000
20
194.9221970000
11
303.6697870000
21
194.9221970000
0
LINE
5
265
100
AcDbEntity
8
010
100
AcDbLine
62
7
6
CONTINUOUS
10
302.4883550000
20
194.0782630000
11
303.6697870000
21
194.0782630000
0
LINE
5
266
100
AcDbEntity
8
010
100
AcDbLine
62
7
6
CONTINUOUS
10
302.4883550000
20
194.8267280000
11
303.6697870000
21
194.8267280000
0
LINE
5
267
100
AcDbEntity
8
010
100
AcDbLine
62
7
6
CONTINUOUS
10
302.4883550000
20
193.8873250000
11
303.6697870000
21
193.8873250000
0
LINE
5
268
100
AcDbEntity
8
010
100
AcDbLine
62
7
6
CONTINUOUS
10
302.4883550000
20
195.0176660000
11
303.6697870000
21
195.0176660000
0
LINE
5
269
100
AcDbEntity
8
010
100
AcDbLine
62
7
6
CONTINUOUS
10
297.7872150000
20
212.5876950000
11
298.6434090000
21
212.8993240000
0
ARC
5
26A
100
AcDbEntity
8
010
100
AcDbCircle
62
7
6
CONTINUOUS
10
298.7435890219
20
212.6240803863
40
0.2929079781
100
AcDbArc
50
359.9999244338
51
109.9999153184
0
LINE
5
26B
100
AcDbEntity
8
010
100
AcDbLine
62
7
6
CONTINUOUS
10
299.0364970000
20
212.6240800000
11
299.0364970000
21
210.8364730000
0
LINE
5
26C
100
AcDbEntity
8
010
100
AcDbLine
62
7
6
CONTINUOUS
10
299.0364970000
20
210.8364730000
11
297.4142360000
21
210.2460180000
0
LINE
5
26D
100
AcDbEntity
8
010
100
AcDbLine
62
7
6
CONTINUOUS
10
297.4142360000
20
210.2460180000
11
297.4142360000
21
209.7185140000
0
LINE
5
26E
100
AcDbEntity
8
010
100
AcDbLine
62
7
6
CONTINUOUS
10
297.4142360000
20
209.7185140000
11
299.0364970000
21
210.3089690000
0
LINE
5
26F
100
AcDbEntity
8
010
100
AcDbLine
62
7
6
CONTINUOUS
10
299.0364970000
20
210.3089690000
11
299.0364970000
21
209.5873660000
0
LINE
5
270
100
AcDbEntity
8
010
100
AcDbLine
62
7
6
CONTINUOUS
10
299.0364970000
20
209.5873660000
11
297.1313820000
21
208.8939600000
0
ARC
5
271
100
AcDbEntity
8
010
100
AcDbCircle
62
7
6
CONTINUOUS
10
297.0312014781
20
209.1692039638
40
0.2929084781
100
AcDbArc
50
179.9999929177
51
289.9999838023
0
LINE
5
272
100
AcDbEntity
8
010
100
AcDbLine
62
7
6
CONTINUOUS
10
296.7382930000
20
209.1692040000
11
296.7382930000
21
210.7193180000
0
LINE
5
273
100
AcDbEntity
8
010
100
AcDbLine
62
7
6
CONTINUOUS
10
296.7382930000
20
210.7193180000
11
297.5944870000
21
211.0309470000
0
LINE
5
274
100
AcDbEntity
8
010
100
AcDbLine
62
7
6
CONTINUOUS
10
297.5944870000
20
211.0309470000
11
297.5944870000
21
211.2571790000
0
LINE
5
275
100
AcDbEntity
8
010
100
AcDbLine
62
7
6
CONTINUOUS
10
297.5944870000
20
211.2571790000
11
296.7382930000
21
211.4865960000
0
LINE
5
276
100
AcDbEntity
8
010
100
AcDbLine
62
7
6
CONTINUOUS
10
296.7382930000
20
211.4865960000
11
296.7382930000
21
212.2059180000
0
LINE
5
277
100
AcDbEntity
8
010
100
AcDbLine
62
7
6
CONTINUOUS
10
296.7382930000
20
212.2059180000
11
297.5944870000
21
211.9765020000
0
LINE
5
278
100
AcDbEntity
8
010
100
AcDbLine
62
7
6
CONTINUOUS
10
297.5944870000
20
211.9765020000
11
297.5944870000
21
212.3124510000
0
ARC
5
279
100
AcDbEntity
8
010
100
AcDbCircle
62
7
6
CONTINUOUS
10
297.8873954243
20
212.3124510580
40
0.2929084243
100
AcDbArc
50
109.9999673299
51
180.0000113401
0
LINE
5
27A
100
AcDbEntity
8
010
100
AcDbLine
62
7
6
CONTINUOUS
10
302.5838250000
20
195.0176660000
11
302.5838250000
21
193.8873250000
0
LINE
5
27B
100
AcDbEntity
8
010
100
AcDbLine
62
7
6
CONTINUOUS
10
302.6792940000
20
195.0176660000
11
302.6792940000
21
193.8873250000
0
LINE
5
27C
100
AcDbEntity
8
010
100
AcDbLine
62
7
6
CONTINUOUS
10
302.4883550000
20
195.0176660000
11
302.4883550000
21
193.8873250000
0
ARC
5
27D
100
AcDbEntity
8
010
100
AcDbCircle
62
7
6
CONTINUOUS
10
299.0934906649
20
205.4204439427
40
1.5405433351
100
AcDbArc
50
0.0000393232
51
28.3015049015
0
ARC
5
27E
100
AcDbEntity
8
010
100
AcDbCircle
62
7
6
CONTINUOUS
10
298.5525690983
20
205.1291704391
40
2.1549018583
100
AcDbArc
50
28.3014796527
51
52.4313056560
0
ARC
5
27F
100
AcDbEntity
8
010
100
AcDbCircle
62
7
6
CONTINUOUS
10
298.2003076764
20
204.6712247077
40
2.7326582104
100
AcDbArc
50
52.4314024950
51
72.3268514393
0
ARC
5
280
100
AcDbEntity
8
010
100
AcDbCircle
62
7
6
CONTINUOUS
10
297.9704405173
20
203.9497991839
40
3.4898198161
100
AcDbArc
50
72.3267985927
51
89.9999756570
0
ARC
5
281
100
AcDbEntity
8
010
100
AcDbCircle
62
7
6
CONTINUOUS
10
297.9704429827
20
203.9497959677
40
3.4898230323
100
AcDbArc
50
90.0000161340
51
107.6731931983
0
ARC
5
282
100
AcDbEntity
8
010
100
AcDbCircle
62
7
6
CONTINUOUS
10
297.7405758236
20
204.6712275585
40
2.7326556459
100
AcDbArc
50
107.6731766961
51
127.5686256403
0
ARC
5
283
100
AcDbEntity
8
010
100
AcDbCircle
62
7
6
CONTINUOUS
10
297.3883144017
20
205.1291680999
40
2.1549034076
100
AcDbArc
50
127.5686458837
51
151.6984718870
0
ARC
5
284
100
AcDbEntity
8
010
100
AcDbCircle
62
7
6
CONTINUOUS
10
296.8473928351
20
205.4204459258
40
1.5405428351
100
AcDbArc
50
151.6985688557
51
180.0000344340
0
ARC
5
285
100
AcDbEntity
8
010
100
AcDbCircle
62
7
6
CONTINUOUS
10
296.8473948182
20
205.4204435742
40
1.5405448182
100
AcDbArc
50
179.9999469701
51
208.3014125484
0
ARC
5
286
100
AcDbEntity
8
010
100
AcDbCircle
62
7
6
CONTINUOUS
10
297.3883144017
20
205.7117209001
40
2.1549034076
100
AcDbArc
50
208.3015281130
51
232.4313541163
0
ARC
5
287
100
AcDbEntity
8
010
100
AcDbCircle
62
7
6
CONTINUOUS
10
297.7405758236
20
206.1696614415
40
2.7326556459
100
AcDbArc
50
232.4313743597
51
252.3268233039
0
ARC
5
288
100
AcDbEntity
8
010
100
AcDbCircle
62
7
6
CONTINUOUS
10
297.9704429827
20
206.8910930323
40
3.4898230323
100
AcDbArc
50
252.3268068017
51
269.9999838660
0
ARC
5
289
100
AcDbEntity
8
010
100
AcDbCircle
62
7
6
CONTINUOUS
10
297.9704405173
20
206.8910898161
40
3.4898198161
100
AcDbArc
50
270.0000243430
51
287.6732014073
0
ARC
5
28A
100
AcDbEntity
8
010
100
AcDbCircle
62
7
6
CONTINUOUS
10
298.2003076764
20
206.1696642923
40
2.7326582104
100
AcDbArc
50
287.6731485607
51
307.5685975050
0
ARC
5
28B
100
AcDbEntity
8
010
100
AcDbCircle
62
7
6
CONTINUOUS
10
298.5525690983
20
205.7117185609
40
2.1549018583
100
AcDbArc
50
307.5686943440
51
331.6985203473
0
ARC
5
28C
100
AcDbEntity
8
010
100
AcDbCircle
62
7
6
CONTINUOUS
10
299.0934886818
20
205.4204455573
40
1.5405453182
100
AcDbArc
50
331.6985136945
51
359.9999792728
0
ARC
5
28D
100
AcDbEntity
8
010
100
AcDbCircle
62
7
6
CONTINUOUS
10
299.0934912948
20
205.4204440365
40
1.6694267052
100
AcDbArc
50
0.0000330687
51
28.3014986471
0
ARC
5
28E
100
AcDbEntity
8
010
100
AcDbCircle
62
7
6
CONTINUOUS
10
298.5525688149
20
205.1291670849
40
2.2837876673
100
AcDbArc
50
28.3015418071
51
52.4313678103
0
ARC
5
28F
100
AcDbEntity
8
010
100
AcDbCircle
62
7
6
CONTINUOUS
10
298.2003064105
20
204.6712286844
40
2.8615388077
100
AcDbArc
50
52.4313426482
51
72.3267915924
0
ARC
5
290
100
AcDbEntity
8
010
100
AcDbCircle
62
7
6
CONTINUOUS
10
297.9704402682
20
203.9497975382
40
3.6187054618
100
AcDbArc
50
72.3267955158
51
89.9999725801
0
ARC
5
291
100
AcDbEntity
8
010
100
AcDbCircle
62
7
6
CONTINUOUS
10
297.9704437318
20
203.9497975382
40
3.6187054618
100
AcDbArc
50
90.0000274199
51
107.6732044842
0
ARC
5
292
100
AcDbEntity
8
010
100
AcDbCircle
62
7
6
CONTINUOUS
10
297.7405770895
20
204.6712258336
40
2.8615413722
100
AcDbArc
50
107.6731815394
51
127.5686304837
0
ARC
5
293
100
AcDbEntity
8
010
100
AcDbCircle
62
7
6
CONTINUOUS
10
297.3883146851
20
205.1291694241
40
2.2837861180
100
AcDbArc
50
127.5686779151
51
151.6985039184
0
ARC
5
294
100
AcDbEntity
8
010
100
AcDbCircle
62
7
6
CONTINUOUS
10
296.8473927052
20
205.4204440365
40
1.6694267052
100
AcDbArc
50
151.6985013529
51
179.9999669313
0
ARC
5
295
100
AcDbEntity
8
010
100
AcDbCircle
62
7
6
CONTINUOUS
10
296.8473946884
20
205.4204454635
40
1.6694286884
100
AcDbArc
50
180.0000159084
51
208.3014814867
0
ARC
5
296
100
AcDbEntity
8
010
100
AcDbCircle
62
7
6
CONTINUOUS
10
297.3883146851
20
205.7117195759
40
2.2837861180
100
AcDbArc
50
208.3014960816
51
232.4313220849
0
ARC
5
297
100
AcDbEntity
8
010
100
AcDbCircle
62
7
6
CONTINUOUS
10
297.7405770895
20
206.1696631664
40
2.8615413722
100
AcDbArc
50
232.4313695163
51
252.3268184606
0
ARC
5
298
100
AcDbEntity
8
010
100
AcDbCircle
62
7
6
CONTINUOUS
10
297.9704437318
20
206.8910914618
40
3.6187054618
100
AcDbArc
50
252.3267955158
51
269.9999725801
0
ARC
5
299
100
AcDbEntity
8
010
100
AcDbCircle
62
7
6
CONTINUOUS
10
297.9704402682
20
206.8910914618
40
3.6187054618
100
AcDbArc
50
270.0000274199
51
287.6732044842
0
ARC
5
29A
100
AcDbEntity
8
010
100
AcDbCircle
62
7
6
CONTINUOUS
10
298.2003064105
20
206.1696603156
40
2.8615388077
100
AcDbArc
50
287.6732084076
51
307.5686573518
0
ARC
5
29B
100
AcDbEntity
8
010
100
AcDbCircle
62
7
6
CONTINUOUS
10
298.5525688149
20
205.7117219151
40
2.2837876673
100
AcDbArc
50
307.5686321897
51
331.6984581929
0
ARC
5
29C
100
AcDbEntity
8
010
100
AcDbCircle
62
7
6
CONTINUOUS
10
299.0934893116
20
205.4204454635
40
1.6694286884
100
AcDbArc
50
331.6985185133
51
359.9999840916
0
LINE
5
29D
100
AcDbEntity
8
010
100
AcDbLine
62
7
6
CONTINUOUS
10
298.1352410000
20
211.2277650000
11
298.1352410000
21
211.9950430000
0
LINE
5
29E
100
AcDbEntity
8
010
100
AcDbLine
62
7
6
CONTINUOUS
10
298.1352410000
20
211.9950430000
11
298.4957440000
21
212.1262550000
0
LINE
5
29F
100
AcDbEntity
8
010
100
AcDbLine
62
7
6
CONTINUOUS
10
298.4957440000
20
212.1262550000
11
298.4957440000
21
211.3589770000
0
LINE
5
2A0
100
AcDbEntity
8
010
100
AcDbLine
62
7
6
CONTINUOUS
10
298.4957440000
20
211.3589770000
11
298.1352410000
21
211.2277650000
0
LINE
5
2A1
100
AcDbEntity
8
010
100
AcDbLine
62
7
6
CONTINUOUS
10
300.1671450000
20
205.6352500000
11
300.1671450000
21
205.2056390000
0
LINE
5
2A2
100
AcDbEntity
8
010
100
AcDbLine
62
7
6
CONTINUOUS
10
298.4486980000
20
205.6352500000
11
298.4486980000
21
205.2056390000
0
LINE
5
2A3
100
AcDbEntity
8
010
100
AcDbLine
62
7
6
CONTINUOUS
10
299.0931160000
20
206.2796680000
11
299.0931160000
21
204.5612210000
0
LINE
5
2A4
100
AcDbEntity
8
010
100
AcDbLine
62
7
6
CONTINUOUS
10
299.5227270000
20
206.2796680000
11
299.5227270000
21
204.5612210000
0
LINE
5
2A5
100
AcDbEntity
8
010
100
AcDbLine
62
7
6
CONTINUOUS
10
299.5227270000
20
204.5612210000
11
299.0931160000
21
204.5612210000
0
LINE
5
2A6
100
AcDbEntity
8
010
100
AcDbLine
62
7
6
CONTINUOUS
10
299.5227270000
20
206.2796680000
11
299.0931160000
21
206.2796680000
0
LINE
5
2A7
100
AcDbEntity
8
010
100
AcDbLine
62
7
6
CONTINUOUS
10
299.3079220000
20
206.2796680000
11
299.3079220000
21
204.5612210000
0
LINE
5
2A8
100
AcDbEntity
8
010
100
AcDbLine
62
7
6
CONTINUOUS
10
300.1671450000
20
205.2056390000
11
298.4486980000
21
205.2056390000
0
LINE
5
2A9
100
AcDbEntity
8
010
100
AcDbLine
62
7
6
CONTINUOUS
10
300.1671450000
20
205.6352500000
11
298.4486980000
21
205.6352500000
0
LINE
5
2AA
100
AcDbEntity
8
010
100
AcDbLine
62
7
6
CONTINUOUS
10
300.1671450000
20
205.4204450000
11
298.4486980000
21
205.4204450000
0
LINE
5
2AB
100
AcDbEntity
8
010
100
AcDbLine
62
7
6
CONTINUOUS
10
303.5743180000
20
195.0176660000
11
303.5743180000
21
193.8873250000
0
LINE
5
2AC
100
AcDbEntity
8
010
100
AcDbLine
62
7
6
CONTINUOUS
10
303.4788490000
20
195.0176660000
11
303.4788490000
21
193.8873250000
0
LINE
5
2AD
100
AcDbEntity
8
010
100
AcDbLine
62
7
6
CONTINUOUS
10
303.6697870000
20
195.0176660000
11
303.6697870000
21
193.8873250000
0
LINE
5
2AE
100
AcDbEntity
8
025
100
AcDbLine
62
7
6
CONTINUOUS
10
227.5921920000
20
136.8257500000
11
205.5945420000
21
137.0971100000
0
LINE
5
2AF
100
AcDbEntity
8
025
100
AcDbLine
62
7
6
CONTINUOUS
10
205.5945420000
20
136.3102030000
11
227.5921920000
21
136.7601740000
0
LINE
5
2B0
100
AcDbEntity
8
025
100
AcDbLine
62
7
6
CONTINUOUS
10
200.5950760000
20
123.7566530000
11
227.5921920000
21
124.1670270000
0
LINE
5
2B1
100
AcDbEntity
8
025
100
AcDbLine
62
7
6
CONTINUOUS
10
200.5950760000
20
127.3428620000
11
227.5921920000
21
127.8704280000
0
LINE
5
2B2
100
AcDbEntity
8
025
100
AcDbLine
62
7
6
CONTINUOUS
10
200.5950760000
20
130.4385420000
11
227.5921920000
21
131.0672700000
0
LINE
5
2B3
100
AcDbEntity
8
025
100
AcDbLine
62
7
6
CONTINUOUS
10
227.5921920000
20
86.8265440000
11
205.5945420000
21
86.0874240000
0
LINE
5
2B4
100
AcDbEntity
8
025
100
AcDbLine
62
7
6
CONTINUOUS
10
205.5945420000
20
86.0874240000
11
227.5921920000
21
85.6374530000
0
LINE
5
2B5
100
AcDbEntity
8
025
100
AcDbLine
62
7
6
CONTINUOUS
10
227.5921920000
20
85.5718770000
11
205.5945420000
21
85.3005180000
0
LINE
5
2B6
100
AcDbEntity
8
025
100
AcDbLine
62
7
6
CONTINUOUS
10
200.5950760000
20
115.5601040000
11
227.5921920000
21
115.7026270000
0
LINE
5
2B7
100
AcDbEntity
8
025
100
AcDbLine
62
7
6
CONTINUOUS
10
200.5950760000
20
119.7888810000
11
227.5921920000
21
120.0695940000
0
LINE
5
2B8
100
AcDbEntity
8
025
100
AcDbLine
62
7
6
CONTINUOUS
10
200.5950760000
20
106.8375230000
11
227.5921920000
21
106.6950000000
0
LINE
5
2B9
100
AcDbEntity
8
025
100
AcDbLine
62
7
6
CONTINUOUS
10
200.5950760000
20
102.6087460000
11
227.5921920000
21
102.3280330000
0
LINE
5
2BA
100
AcDbEntity
8
025
100
AcDbLine
62
7
6
CONTINUOUS
10
200.5950760000
20
98.6409740000
11
227.5921920000
21
98.2306000000
0
LINE
5
2BB
100
AcDbEntity
8
025
100
AcDbLine
62
7
6
CONTINUOUS
10
200.5950760000
20
95.0547650000
11
227.5921920000
21
94.5272000000
0
LINE
5
2BC
100
AcDbEntity
8
025
100
AcDbLine
62
7
6
CONTINUOUS
10
200.5950760000
20
91.9590860000
11
227.5921920000
21
91.3303580000
0
LINE
5
2BD
100
AcDbEntity
8
010
100
AcDbLine
62
7
6
CONTINUOUS
10
200.5950760000
20
115.5601040000
11
205.5945420000
21
117.9273900000
0
LINE
5
2BE
100
AcDbEntity
8
025
100
AcDbLine
62
7
6
CONTINUOUS
10
200.5950760000
20
87.5977930000
11
205.5945420000
21
86.0874240000
0
LINE
5
2BF
100
AcDbEntity
8
025
100
AcDbLine
62
7
6
CONTINUOUS
10
205.5945420000
20
86.0874240000
11
200.5950760000
21
86.4646950000
0
LINE
5
2C0
100
AcDbEntity
8
025
100
AcDbLine
62
7
6
CONTINUOUS
10
200.5950760000
20
86.4646950000
11
205.5945420000
21
85.3005180000
0
LINE
5
2C1
100
AcDbEntity
8
010
100
AcDbLine
62
7
6
CONTINUOUS
10
200.6554540000
20
110.9787420000
11
205.5945420000
21
108.9330060000
0
LINE
5
2C2
100
AcDbEntity
8
010
100
AcDbLine
62
7
6
CONTINUOUS
10
200.5950760000
20
106.8375230000
11
205.5945420000
21
104.4702370000
0
LINE
5
2C3
100
AcDbEntity
8
010
100
AcDbLine
62
7
6
CONTINUOUS
10
205.5945420000
20
108.9330060000
11
200.5950760000
21
106.8375230000
0
LINE
5
2C4
100
AcDbEntity
8
010
100
AcDbLine
62
7
6
CONTINUOUS
10
203.2955300000
20
112.5123860000
11
205.5945420000
21
113.4646210000
0
LINE
5
2C5
100
AcDbEntity
8
010
100
AcDbLine
62
7
6
CONTINUOUS
10
205.5945420000
20
113.4646210000
11
200.5950760000
21
115.5601040000
0
LINE
5
2C6
100
AcDbEntity
8
010
100
AcDbLine
62
7
6
CONTINUOUS
10
200.9965180000
20
111.5601510000
11
201.9344580000
21
111.9486390000
0
LINE
5
2C7
100
AcDbEntity
8
010
100
AcDbLine
62
7
6
CONTINUOUS
10
200.5950760000
20
119.7888810000
11
205.5945420000
21
122.1857150000
0
LINE
5
2C8
100
AcDbEntity
8
010
100
AcDbLine
62
7
6
CONTINUOUS
10
205.5945420000
20
117.9273900000
11
200.5950760000
21
119.7888810000
0
LINE
5
2C9
100
AcDbEntity
8
025
100
AcDbLine
62
7
6
CONTINUOUS
10
200.5950760000
20
135.9329320000
11
205.5945420000
21
137.0971100000
0
LINE
5
2CA
100
AcDbEntity
8
025
100
AcDbLine
62
7
6
CONTINUOUS
10
205.5945420000
20
136.3102030000
11
200.5950760000
21
135.9329320000
0
LINE
5
2CB
100
AcDbEntity
8
025
100
AcDbLine
62
7
6
CONTINUOUS
10
200.5950760000
20
134.7998350000
11
205.5945420000
21
136.3102030000
0
LINE
5
2CC
100
AcDbEntity
8
010
100
AcDbLine
62
7
6
CONTINUOUS
10
295.9513740000
20
200.2202030000
11
295.9513740000
21
193.1858890000
0
LINE
5
2CD
100
AcDbEntity
8
010
100
AcDbLine
62
7
6
CONTINUOUS
10
296.2927950000
20
200.3616250000
11
299.6685310000
21
196.9858890000
0
LINE
5
2CE
100
AcDbEntity
8
010
100
AcDbLine
62
7
6
CONTINUOUS
10
299.6685310000
20
196.4202030000
11
296.2927950000
21
193.0444680000
0
ARC
5
2CF
100
AcDbEntity
8
010
100
AcDbCircle
62
7
6
CONTINUOUS
10
296.1513740000
20
200.2202030000
40
0.2000000000
100
AcDbArc
50
45.0000000000
51
180.0000000000
0
ARC
5
2D0
100
AcDbEntity
8
010
100
AcDbCircle
62
7
6
CONTINUOUS
10
296.1513740000
20
193.1858890000
40
0.2000000000
100
AcDbArc
50
180.0000000000
51
315.0000000000
0
ARC
5
2D1
100
AcDbEntity
8
010
100
AcDbCircle
62
7
6
CONTINUOUS
10
299.3856880000
20
196.7030460000
40
0.4000000000
100
AcDbArc
50
315.0000000000
51
45.0000000000
0
LINE
5
2D2
100
AcDbEntity
8
010
100
AcDbLine
62
7
6
CONTINUOUS
10
296.2520840000
20
200.2184880000
11
299.6261050000
21
196.8444680000
0
LINE
5
2D3
100
AcDbEntity
8
010
100
AcDbLine
62
7
6
CONTINUOUS
10
299.6261050000
20
196.5616250000
11
296.2520840000
21
193.1876050000
0
LINE
5
2D4
100
AcDbEntity
8
010
100
AcDbLine
62
7
6
CONTINUOUS
10
296.0813740000
20
200.1477770000
11
296.0813740000
21
193.2583150000
0
ARC
5
2D5
100
AcDbEntity
8
010
100
AcDbCircle
62
7
6
CONTINUOUS
10
296.1813740000
20
200.1477770000
40
0.1000000000
100
AcDbArc
50
45.0000000000
51
180.0000000000
0
ARC
5
2D6
100
AcDbEntity
8
010
100
AcDbCircle
62
7
6
CONTINUOUS
10
296.1813740000
20
193.2583150000
40
0.1000000000
100
AcDbArc
50
180.0000000000
51
315.0000000000
0
ARC
5
2D7
100
AcDbEntity
8
010
100
AcDbCircle
62
7
6
CONTINUOUS
10
299.4846830000
20
196.7030460000
40
0.2000000000
100
AcDbArc
50
315.0000000000
51
45.0000000000
0
LINE
5
2D8
100
AcDbEntity
8
MITTE
100
AcDbLine
62
4
6
CENTER
10
130.4325620000
20
202.7403070000
11
73.8783370000
21
202.7403070000
0
LINE
5
2D9
100
AcDbEntity
8
MITTE
100
AcDbLine
62
4
6
CENTER
10
102.1554500000
20
175.2407190000
11
102.1554500000
21
230.2398960000
0
ARC
5
2DA
100
AcDbEntity
8
MITTE
100
AcDbCircle
62
4
6
CENTER
10
102.1554500000
20
202.7403070000
40
6.4174450000
100
AcDbArc
50
346.3181750000
51
23.6818250000
0
ARC
5
2DB
100
AcDbEntity
8
MITTE
100
AcDbCircle
62
4
6
CENTER
10
102.1554500000
20
202.7403070000
40
11.6316190000
100
AcDbArc
50
264.8612300000
51
285.1387700000
0
ARC
5
2DC
100
AcDbEntity
8
MITTE
100
AcDbCircle
62
4
6
CENTER
10
102.1554500000
20
202.7403070000
40
11.6316190000
100
AcDbArc
50
84.8612300000
51
105.1387700000
0
LINE
5
2DD
100
AcDbEntity
8
MITTE
100
AcDbLine
62
4
6
CENTER
10
183.3403250000
20
202.7403070000
11
327.1128420000
21
202.7403070000
0
LINE
5
2DE
100
AcDbEntity
8
MITTE
100
AcDbLine
62
4
6
CENTER
10
183.3403250000
20
111.1988140000
11
327.1128420000
21
111.1988140000
0
LINE
5
2DF
100
AcDbEntity
8
RAHMEN
100
AcDbLine
62
2
6
CONTINUOUS
10
10.0000000000
20
10.0000000000
11
410.0000000000
21
10.0000000000
0
LINE
5
2E0
100
AcDbEntity
8
RAHMEN
100
AcDbLine
62
2
6
CONTINUOUS
10
410.0000000000
20
10.0000000000
11
410.0000000000
21
287.0000000000
0
LINE
5
2E1
100
AcDbEntity
8
RAHMEN
100
AcDbLine
62
2
6
CONTINUOUS
10
410.0000000000
20
287.0000000000
11
10.0000000000
21
287.0000000000
0
LINE
5
2E2
100
AcDbEntity
8
RAHMEN
100
AcDbLine
62
2
6
CONTINUOUS
10
10.0000000000
20
287.0000000000
11
10.0000000000
21
10.0000000000
0
LINE
5
2E3
100
AcDbEntity
8
05
100
AcDbLine
62
2
6
CONTINUOUS
10
359.0000000000
20
10.0000000000
11
359.0000000000
21
56.0000000000
0
LINE
5
2E4
100
AcDbEntity
8
05
100
AcDbLine
62
2
6
CONTINUOUS
10
393.0000000000
20
19.0000000000
11
393.0000000000
21
56.0000000000
0
LINE
5
2E5
100
AcDbEntity
8
05
100
AcDbLine
62
2
6
CONTINUOUS
10
378.0000000000
20
36.0000000000
11
378.0000000000
21
56.0000000000
0
LINE
5
2E6
100
AcDbEntity
8
05
100
AcDbLine
62
2
6
CONTINUOUS
10
277.0000000000
20
51.0000000000
11
318.0000000000
21
51.0000000000
0
LINE
5
2E7
100
AcDbEntity
8
05
100
AcDbLine
62
2
6
CONTINUOUS
10
265.0000000000
20
10.0000000000
11
265.0000000000
21
56.0000000000
0
LINE
5
2E8
100
AcDbEntity
8
05
100
AcDbLine
62
2
6
CONTINUOUS
10
252.0000000000
20
10.0000000000
11
252.0000000000
21
56.0000000000
0
LINE
5
2E9
100
AcDbEntity
8
05
100
AcDbLine
62
2
6
CONTINUOUS
10
210.0000000000
20
16.0000000000
11
277.0000000000
21
16.0000000000
0
LINE
5
2EA
100
AcDbEntity
8
05
100
AcDbLine
62
2
6
CONTINUOUS
10
277.0000000000
20
43.0000000000
11
318.0000000000
21
43.0000000000
0
LINE
5
2EB
100
AcDbEntity
8
05
100
AcDbLine
62
2
6
CONTINUOUS
10
219.0000000000
20
10.0000000000
11
219.0000000000
21
56.0000000000
0
LINE
5
2EC
100
AcDbEntity
8
05
100
AcDbLine
62
2
6
CONTINUOUS
10
277.0000000000
20
10.0000000000
11
277.0000000000
21
56.0000000000
0
LINE
5
2ED
100
AcDbEntity
8
05
100
AcDbLine
62
2
6
CONTINUOUS
10
318.0000000000
20
36.0000000000
11
318.0000000000
21
56.0000000000
0
LINE
5
2EE
100
AcDbEntity
8
05
100
AcDbLine
62
2
6
CONTINUOUS
10
341.0000000000
20
36.0000000000
11
341.0000000000
21
56.0000000000
0
LINE
5
2EF
100
AcDbEntity
8
05
100
AcDbLine
62
2
6
CONTINUOUS
10
410.0000000000
20
10.0000000000
11
410.0000000000
21
56.0000000000
0
LINE
5
2F0
100
AcDbEntity
8
05
100
AcDbLine
62
2
6
CONTINUOUS
10
210.0000000000
20
56.0000000000
11
210.0000000000
21
10.0000000000
0
LINE
5
2F1
100
AcDbEntity
8
05
100
AcDbLine
62
2
6
CONTINUOUS
10
410.0000000000
20
19.0000000000
11
277.0000000000
21
19.0000000000
0
LINE
5
2F2
100
AcDbEntity
8
05
100
AcDbLine
62
2
6
CONTINUOUS
10
410.0000000000
20
28.0000000000
11
359.0000000000
21
28.0000000000
0
LINE
5
2F3
100
AcDbEntity
8
05
100
AcDbLine
62
2
6
CONTINUOUS
10
410.0000000000
20
36.0000000000
11
277.0000000000
21
36.0000000000
0
LINE
5
2F4
100
AcDbEntity
8
05
100
AcDbLine
62
2
6
CONTINUOUS
10
410.0000000000
20
41.0000000000
11
359.0000000000
21
41.0000000000
0
LINE
5
2F5
100
AcDbEntity
8
05
100
AcDbLine
62
2
6
CONTINUOUS
10
410.0000000000
20
46.0000000000
11
359.0000000000
21
46.0000000000
0
LINE
5
2F6
100
AcDbEntity
8
05
100
AcDbLine
62
2
6
CONTINUOUS
10
410.0000000000
20
51.0000000000
11
359.0000000000
21
51.0000000000
0
LINE
5
2F7
100
AcDbEntity
8
05
100
AcDbLine
62
2
6
CONTINUOUS
10
410.0000000000
20
56.0000000000
11
210.0000000000
21
56.0000000000
0
ARC
5
2F8
100
AcDbEntity
8
05
100
AcDbCircle
62
2
6
CONTINUOUS
10
102.1554500000
20
202.7403070000
40
25.8703250000
100
AcDbArc
50
217.3614550000
51
142.6385450000
0
ARC
5
2F9
100
AcDbEntity
8
05
100
AcDbCircle
62
2
6
CONTINUOUS
10
73.6232240000
20
180.9561720000
40
10.0272580000
100
AcDbArc
50
37.3614550000
51
77.7083050000
0
ARC
5
2FA
100
AcDbEntity
8
05
100
AcDbCircle
62
2
6
CONTINUOUS
10
102.1554500000
20
202.7403070000
40
19.7536980000
100
AcDbArc
50
204.9961920000
51
235.0038080000
0
ARC
5
2FB
100
AcDbEntity
8
05
100
AcDbCircle
62
2
6
CONTINUOUS
10
103.3789560000
20
188.7555650000
40
2.0054520000
100
AcDbArc
50
26.4075830000
51
56.3751670000
0
ARC
5
2FC
100
AcDbEntity
8
05
100
AcDbCircle
62
2
6
CONTINUOUS
10
102.1554500000
20
202.7403070000
40
12.5340720000
100
AcDbArc
50
145.0000000000
51
280.7319680000
0
LINE
5
2FD
100
AcDbEntity
8
05
100
AcDbLine
62
2
6
CONTINUOUS
10
105.2169780000
20
191.3321060000
11
105.3605000000
21
189.6916340000
0
ARC
5
2FE
100
AcDbEntity
8
05
100
AcDbCircle
62
2
6
CONTINUOUS
10
103.1692120000
20
191.1529500000
40
2.0555880000
100
AcDbArc
50
5.0000000000
51
185.0000510000
0
ARC
5
2FF
100
AcDbEntity
8
05
100
AcDbCircle
62
2
6
CONTINUOUS
10
102.1554500000
20
202.7403070000
40
13.4365250000
100
AcDbArc
50
282.9874590000
51
325.0000000000
0
ARC
5
300
100
AcDbEntity
8
05
100
AcDbCircle
62
2
6
CONTINUOUS
10
102.1554500000
20
202.7403070000
40
17.6981100000
100
AcDbArc
50
232.2072590000
51
122.4788690000
0
LINE
5
301
100
AcDbEntity
8
05
100
AcDbLine
62
2
6
CONTINUOUS
10
90.8262700000
20
186.5582720000
11
92.4633790000
21
187.9319700000
0
ARC
5
302
100
AcDbEntity
8
05
100
AcDbCircle
62
2
6
CONTINUOUS
10
102.1554500000
20
202.7403070000
40
13.4365250000
100
AcDbArc
50
102.9874590000
51
145.0000000000
0
LINE
5
303
100
AcDbEntity
8
05
100
AcDbLine
62
2
6
CONTINUOUS
10
93.2492560000
20
218.0341880000
11
91.9105080000
21
219.6296450000
0
LINE
5
304
100
AcDbEntity
8
05
100
AcDbLine
62
2
6
CONTINUOUS
10
74.1794010000
20
192.7130490000
11
74.1794010000
21
212.7675640000
0
ARC
5
305
100
AcDbEntity
8
05
100
AcDbCircle
62
2
6
CONTINUOUS
10
102.0416160000
20
202.9313960000
40
17.6364880000
100
AcDbArc
50
137.1121570000
51
207.9032960000
0
ARC
5
306
100
AcDbEntity
8
05
100
AcDbCircle
62
2
6
CONTINUOUS
10
76.1848520000
20
192.7130490000
40
2.0054520000
100
AcDbArc
50
180.0000000000
51
257.7083050000
0
LINE
5
307
100
AcDbEntity
8
05
100
AcDbLine
62
2
6
CONTINUOUS
10
85.9159150000
20
195.7894440000
11
84.2519650000
21
194.3932230000
0
LINE
5
308
100
AcDbEntity
8
05
100
AcDbLine
62
2
6
CONTINUOUS
10
91.1488920000
20
210.4471810000
11
91.8881390000
21
209.9295550000
0
ARC
5
309
100
AcDbEntity
8
05
100
AcDbCircle
62
2
6
CONTINUOUS
10
73.6232240000
20
224.5244410000
40
10.0272580000
100
AcDbArc
50
282.2916950000
51
322.6385450000
0
ARC
5
30A
100
AcDbEntity
8
05
100
AcDbCircle
62
2
6
CONTINUOUS
10
76.1848520000
20
212.7675640000
40
2.0054520000
100
AcDbArc
50
102.2916950000
51
180.0000000000
0
LINE
5
30B
100
AcDbEntity
8
05
100
AcDbLine
62
2
6
CONTINUOUS
10
88.5435200000
20
214.2824800000
11
87.3017130000
21
215.7624070000
0
ARC
5
30C
100
AcDbEntity
8
05
100
AcDbCircle
62
2
6
CONTINUOUS
10
102.1554500000
20
202.7403070000
40
19.7536980000
100
AcDbArc
50
121.2406740000
51
138.7593260000
0
ARC
5
30D
100
AcDbEntity
8
05
100
AcDbCircle
62
2
6
CONTINUOUS
10
102.1554500000
20
202.7403070000
40
12.5340720000
100
AcDbArc
50
325.0000000000
51
100.7319680000
0
LINE
5
30E
100
AcDbEntity
8
05
100
AcDbLine
62
2
6
CONTINUOUS
10
108.7276310000
20
201.2518580000
11
107.4327180000
21
201.1385680000
0
ARC
5
30F
100
AcDbEntity
8
05
100
AcDbCircle
62
2
6
CONTINUOUS
10
108.5484740000
20
203.2996240000
40
2.0555880000
100
AcDbArc
50
275.0000100000
51
94.9999790000
0
ARC
5
310
100
AcDbEntity
8
05
100
AcDbCircle
62
2
6
CONTINUOUS
10
102.1554500000
20
202.7403070000
40
5.5149920000
100
AcDbArc
50
250.0000000000
51
21.2136330000
0
ARC
5
311
100
AcDbEntity
8
05
100
AcDbCircle
62
2
6
CONTINUOUS
10
95.7624250000
20
202.1809900000
40
2.0555880000
100
AcDbArc
50
94.9999500000
51
275.0000000000
0
ARC
5
312
100
AcDbEntity
8
05
100
AcDbCircle
62
2
6
CONTINUOUS
10
102.1554500000
20
202.7403070000
40
5.5149920000
100
AcDbArc
50
70.0000000000
51
201.2136330000
0
ARC
5
313
100
AcDbEntity
8
05
100
AcDbCircle
62
2
6
CONTINUOUS
10
98.1598090000
20
202.3907340000
40
2.0054520000
100
AcDbArc
50
235.1615600000
51
270.8424080000
0
LINE
5
314
100
AcDbEntity
8
05
100
AcDbLine
62
2
6
CONTINUOUS
10
95.9415810000
20
200.1332240000
11
97.2364930000
21
200.2465140000
0
LINE
5
315
100
AcDbEntity
8
05
100
AcDbLine
62
2
6
CONTINUOUS
10
98.2211450000
20
200.3326600000
11
97.2364930000
21
200.2465140000
0
LINE
5
316
100
AcDbEntity
8
05
100
AcDbLine
62
2
6
CONTINUOUS
10
100.5778680000
20
198.4059380000
11
100.2692110000
21
197.5579100000
0
ARC
5
317
100
AcDbEntity
8
05
100
AcDbCircle
62
2
6
CONTINUOUS
10
102.1554500000
20
202.7403070000
40
4.6125390000
100
AcDbArc
50
210.6986870000
51
250.0000000000
0
LINE
5
318
100
AcDbEntity
8
05
100
AcDbLine
62
2
6
CONTINUOUS
10
101.1214460000
20
190.9737930000
11
101.1853090000
21
190.2438360000
0
LINE
5
319
100
AcDbEntity
8
05
100
AcDbLine
62
2
6
CONTINUOUS
10
95.5832670000
20
204.2287550000
11
96.8781810000
21
204.3420450000
0
ARC
5
31A
100
AcDbEntity
8
05
100
AcDbCircle
62
2
6
CONTINUOUS
10
106.1510900000
20
203.0898800000
40
2.0054520000
100
AcDbArc
50
55.1615600000
51
90.8424080000
0
LINE
5
31B
100
AcDbEntity
8
05
100
AcDbLine
62
2
6
CONTINUOUS
10
108.3693190000
20
205.3473900000
11
107.0744060000
21
205.2341000000
0
LINE
5
31C
100
AcDbEntity
8
05
100
AcDbLine
62
2
6
CONTINUOUS
10
106.0897540000
20
205.1479540000
11
107.0744060000
21
205.2341000000
0
ARC
5
31D
100
AcDbEntity
8
05
100
AcDbCircle
62
2
6
CONTINUOUS
10
102.1554500000
20
202.7403070000
40
4.6125390000
100
AcDbArc
50
30.6986870000
51
70.0000000000
0
LINE
5
31E
100
AcDbEntity
8
05
100
AcDbLine
62
2
6
CONTINUOUS
10
104.0416880000
20
207.9227040000
11
103.7330310000
21
207.0746750000
0
LINE
5
31F
100
AcDbEntity
8
05
100
AcDbLine
62
2
6
CONTINUOUS
10
112.4227600000
20
195.5510580000
11
113.1620070000
21
195.0334320000
0
ARC
5
320
100
AcDbEntity
8
05
100
AcDbCircle
62
2
6
CONTINUOUS
10
101.1416870000
20
214.3276640000
40
2.0555880000
100
AcDbArc
50
185.0000000000
51
5.0000000000
0
ARC
5
321
100
AcDbEntity
8
05
100
AcDbCircle
62
2
6
CONTINUOUS
10
100.9319430000
20
216.7250480000
40
2.0054520000
100
AcDbArc
50
206.4075830000
51
236.3751670000
0
LINE
5
322
100
AcDbEntity
8
05
100
AcDbLine
62
2
6
CONTINUOUS
10
98.9503990000
20
215.7889800000
11
99.0939210000
21
214.1485080000
0
LINE
5
323
100
AcDbEntity
8
05
100
AcDbLine
62
2
6
CONTINUOUS
10
103.1255900000
20
215.2367780000
11
103.1894530000
21
214.5068200000
0
LINE
5
324
100
AcDbEntity
8
05
100
AcDbLine
62
2
6
CONTINUOUS
10
234.5914450000
20
176.9430620000
11
285.9859560000
21
176.9430620000
0
LINE
5
325
100
AcDbEntity
8
05
100
AcDbLine
62
2
6
CONTINUOUS
10
234.5914450000
20
228.5375520000
11
285.9859560000
21
228.5375520000
0
LINE
5
326
100
AcDbEntity
8
05
100
AcDbLine
62
2
6
CONTINUOUS
10
227.5921920000
20
228.7375300000
11
205.5945420000
21
228.7375300000
0
LINE
5
327
100
AcDbEntity
8
05
100
AcDbLine
62
2
6
CONTINUOUS
10
227.5921920000
20
176.7430830000
11
205.5945420000
21
176.7430830000
0
LINE
5
328
100
AcDbEntity
8
05
100
AcDbLine
62
2
6
CONTINUOUS
10
200.5950760000
20
186.3124460000
11
187.0303680000
21
190.3160830000
0
LINE
5
329
100
AcDbEntity
8
05
100
AcDbLine
62
2
6
CONTINUOUS
10
200.5950760000
20
219.1681680000
11
200.5950760000
21
186.3124460000
0
LINE
5
32A
100
AcDbEntity
8
05
100
AcDbLine
62
2
6
CONTINUOUS
10
185.5966770000
20
181.9472660000
11
185.5966770000
21
202.7403070000
0
LINE
5
32B
100
AcDbEntity
8
05
100
AcDbLine
62
2
6
CONTINUOUS
10
205.5945420000
20
176.7430830000
11
187.2492050000
21
179.9778610000
0
ARC
5
32C
100
AcDbEntity
8
05
100
AcDbCircle
62
2
6
CONTINUOUS
10
187.5964640000
20
181.9472660000
40
1.9997860000
100
AcDbArc
50
180.0000000000
51
260.0000000000
0
LINE
5
32D
100
AcDbEntity
8
05
100
AcDbLine
62
2
6
CONTINUOUS
10
185.5966770000
20
223.5333470000
11
185.5966770000
21
202.7403070000
0
ARC
5
32E
100
AcDbEntity
8
05
100
AcDbCircle
62
2
6
CONTINUOUS
10
187.5964640000
20
192.2340720000
40
1.9997860000
100
AcDbArc
50
208.6546580000
51
253.5559830000
0
LINE
5
32F
100
AcDbEntity
8
05
100
AcDbLine
62
2
6
CONTINUOUS
10
187.0303680000
20
215.1645310000
11
200.5950760000
21
219.1681680000
0
LINE
5
330
100
AcDbEntity
8
05
100
AcDbLine
62
2
6
CONTINUOUS
10
205.5945420000
20
228.7375300000
11
187.2492050000
21
225.5027520000
0
ARC
5
331
100
AcDbEntity
8
05
100
AcDbCircle
62
2
6
CONTINUOUS
10
187.5964640000
20
213.2465420000
40
1.9997860000
100
AcDbArc
50
106.4440170000
51
148.2399120000
0
ARC
5
332
100
AcDbEntity
8
05
100
AcDbCircle
62
2
6
CONTINUOUS
10
187.5964640000
20
223.5333470000
40
1.9997860000
100
AcDbArc
50
100.0000000000
51
180.0000000000
0
LINE
5
333
100
AcDbEntity
8
05
100
AcDbLine
62
2
6
CONTINUOUS
10
229.5919790000
20
178.7428700000
11
229.5919790000
21
202.7403070000
0
LINE
5
334
100
AcDbEntity
8
05
100
AcDbLine
62
2
6
CONTINUOUS
10
234.5914450000
20
176.9430620000
11
234.5914450000
21
228.5375520000
0
ARC
5
335
100
AcDbEntity
8
05
100
AcDbCircle
62
2
6
CONTINUOUS
10
227.5921920000
20
178.7428700000
40
1.9997860000
100
AcDbArc
50
270.0000000000
51
360.0000000000
0
LINE
5
336
100
AcDbEntity
8
05
100
AcDbLine
62
2
6
CONTINUOUS
10
229.5919790000
20
179.2428160000
11
234.5914450000
21
179.2428160000
0
LINE
5
337
100
AcDbEntity
8
05
100
AcDbLine
62
2
6
CONTINUOUS
10
229.5919790000
20
226.7377440000
11
229.5919790000
21
202.7403070000
0
LINE
5
338
100
AcDbEntity
8
05
100
AcDbLine
62
2
6
CONTINUOUS
10
229.5919790000
20
226.2377970000
11
234.5914450000
21
226.2377970000
0
ARC
5
339
100
AcDbEntity
8
05
100
AcDbCircle
62
2
6
CONTINUOUS
10
227.5921920000
20
226.7377440000
40
1.9997860000
100
AcDbArc
50
0.0000000000
51
90.0000000000
0
LINE
5
33A
100
AcDbEntity
8
05
100
AcDbLine
62
2
6
CONTINUOUS
10
315.4348650000
20
193.2579070000
11
316.1554890000
21
187.7152360000
0
LINE
5
33B
100
AcDbEntity
8
05
100
AcDbLine
62
2
6
CONTINUOUS
10
286.9858490000
20
227.5376580000
11
286.9858490000
21
207.9397460000
0
LINE
5
33C
100
AcDbEntity
8
05
100
AcDbLine
62
2
6
CONTINUOUS
10
324.9817910000
20
218.8385870000
11
324.9817910000
21
186.6420260000
0
LINE
5
33D
100
AcDbEntity
8
05
100
AcDbLine
62
2
6
CONTINUOUS
10
286.9858490000
20
185.0421970000
11
323.3819620000
21
185.0421970000
0
ARC
5
33E
100
AcDbEntity
8
05
100
AcDbCircle
62
2
6
CONTINUOUS
10
285.9859560000
20
177.9429550000
40
0.9998930000
100
AcDbArc
50
270.0000000000
51
360.0000000000
0
LINE
5
33F
100
AcDbEntity
8
05
100
AcDbLine
62
2
6
CONTINUOUS
10
317.1036210000
20
186.8722670000
11
323.3819620000
21
186.8722670000
0
ARC
5
340
100
AcDbEntity
8
05
100
AcDbCircle
62
2
6
CONTINUOUS
10
317.1036210000
20
187.8269600000
40
0.9546930000
100
AcDbArc
50
186.7205040000
51
270.0000000000
0
ARC
5
341
100
AcDbEntity
8
05
100
AcDbCircle
62
2
6
CONTINUOUS
10
323.3819620000
20
186.6420260000
40
1.5998290000
100
AcDbArc
50
270.0000000000
51
360.0000000000
0
ARC
5
342
100
AcDbEntity
8
05
100
AcDbCircle
62
2
6
CONTINUOUS
10
323.4019590000
20
188.4520990000
40
1.5798310000
100
AcDbArc
50
269.6978970000
51
0.0000480000
0
LINE
5
343
100
AcDbEntity
8
05
100
AcDbLine
62
2
6
CONTINUOUS
10
286.9858490000
20
220.4384170000
11
323.3819620000
21
220.4384170000
0
ARC
5
344
100
AcDbEntity
8
05
100
AcDbCircle
62
2
6
CONTINUOUS
10
285.9859560000
20
227.5376580000
40
0.9998930000
100
AcDbArc
50
0.0000000000
51
90.0000000000
0
LINE
5
345
100
AcDbEntity
8
05
100
AcDbLine
62
2
6
CONTINUOUS
10
323.3470720000
20
195.7401080000
11
315.8167420000
21
195.7401080000
0
LINE
5
346
100
AcDbEntity
8
05
100
AcDbLine
62
2
6
CONTINUOUS
10
315.4348650000
20
194.1128520000
11
315.4348650000
21
195.3582310000
0
ARC
5
347
100
AcDbEntity
8
05
100
AcDbCircle
62
2
6
CONTINUOUS
10
315.8167420000
20
195.3582310000
40
0.3818770000
100
AcDbArc
50
90.0000000000
51
180.0000000000
0
LINE
5
348
100
AcDbEntity
8
05
100
AcDbLine
62
2
6
CONTINUOUS
10
315.4348650000
20
194.1128520000
11
315.4348650000
21
193.2579070000
0
ARC
5
349
100
AcDbEntity
8
05
100
AcDbCircle
62
2
6
CONTINUOUS
10
323.3470720000
20
194.1402780000
40
1.5998290000
100
AcDbArc
50
3.7546200000
51
90.0000000000
0
ARC
5
34A
100
AcDbEntity
8
05
100
AcDbCircle
62
2
6
CONTINUOUS
10
323.3470727681
20
217.9821074865
40
1.5998275135
100
AcDbArc
50
4.2794025334
51
90.0000275074
0
LINE
5
34B
100
AcDbEntity
8
05
100
AcDbLine
62
2
6
CONTINUOUS
10
323.3470720000
20
219.5819350000
11
318.5824740000
21
219.5819350000
0
ARC
5
34C
100
AcDbEntity
8
05
100
AcDbCircle
62
2
6
CONTINUOUS
10
318.5824728048
20
217.9821071952
40
1.5998278048
100
AcDbArc
50
89.9999571957
51
180.0000428043
0
ARC
5
34D
100
AcDbEntity
8
05
100
AcDbCircle
62
2
6
CONTINUOUS
10
318.5824740000
20
215.8497040000
40
1.5998290000
100
AcDbArc
50
180.0000000000
51
270.0000000000
0
LINE
5
34E
100
AcDbEntity
8
05
100
AcDbLine
62
2
6
CONTINUOUS
10
316.9826450000
20
217.9821060000
11
316.9826450000
21
215.8497040000
0
LINE
5
34F
100
AcDbEntity
8
05
100
AcDbLine
62
2
6
CONTINUOUS
10
318.5824740000
20
214.2498750000
11
323.3470720000
21
214.2498750000
0
ARC
5
350
100
AcDbEntity
8
05
100
AcDbCircle
62
2
6
CONTINUOUS
10
323.3819620000
20
218.8385870000
40
1.5998290000
100
AcDbArc
50
0.0000000000
51
90.0000000000
0
ARC
5
351
100
AcDbEntity
8
05
100
AcDbCircle
62
2
6
CONTINUOUS
10
323.3470720000
20
215.8497040000
40
1.5998290000
100
AcDbArc
50
270.0000000000
51
344.5874070000
0
LINE
5
352
100
AcDbEntity
8
05
100
AcDbLine
62
2
6
CONTINUOUS
10
286.9858490000
20
197.5408670000
11
286.9858490000
21
177.9429550000
0
LINE
5
353
100
AcDbEntity
8
05
100
AcDbLine
62
2
6
CONTINUOUS
10
227.5921920000
20
137.1960370000
11
205.5945420000
21
137.1960370000
0
LINE
5
354
100
AcDbEntity
8
05
100
AcDbLine
62
2
6
CONTINUOUS
10
227.5921920000
20
85.2015900000
11
205.5945420000
21
85.2015900000
0
LINE
5
355
100
AcDbEntity
8
05
100
AcDbLine
62
2
6
CONTINUOUS
10
185.5966770000
20
131.9918540000
11
185.5966770000
21
111.1988140000
0
LINE
5
356
100
AcDbEntity
8
05
100
AcDbLine
62
2
6
CONTINUOUS
10
200.5950760000
20
127.6266750000
11
200.5950760000
21
94.7709530000
0
LINE
5
357
100
AcDbEntity
8
05
100
AcDbLine
62
2
6
CONTINUOUS
10
185.5966770000
20
90.4057730000
11
185.5966770000
21
111.1988140000
0
LINE
5
358
100
AcDbEntity
8
05
100
AcDbLine
62
2
6
CONTINUOUS
10
205.5945420000
20
85.2015900000
11
187.2492050000
21
88.4363680000
0
ARC
5
359
100
AcDbEntity
8
05
100
AcDbCircle
62
2
6
CONTINUOUS
10
187.5964640000
20
90.4057730000
40
1.9997860000
100
AcDbArc
50
180.0000000000
51
260.0000000000
0
LINE
5
35A
100
AcDbEntity
8
05
100
AcDbLine
62
2
6
CONTINUOUS
10
200.5950760000
20
94.7709530000
11
187.0303680000
21
98.7745900000
0
ARC
5
35B
100
AcDbEntity
8
05
100
AcDbCircle
62
2
6
CONTINUOUS
10
187.5964640000
20
100.6925780000
40
1.9997860000
100
AcDbArc
50
208.6546580000
51
253.5559830000
0
LINE
5
35C
100
AcDbEntity
8
05
100
AcDbLine
62
2
6
CONTINUOUS
10
205.5945420000
20
137.1960370000
11
187.2492050000
21
133.9612590000
0
LINE
5
35D
100
AcDbEntity
8
05
100
AcDbLine
62
2
6
CONTINUOUS
10
187.0303680000
20
123.6230380000
11
200.5950760000
21
127.6266750000
0
ARC
5
35E
100
AcDbEntity
8
05
100
AcDbCircle
62
2
6
CONTINUOUS
10
187.5964640000
20
121.7050490000
40
1.9997860000
100
AcDbArc
50
106.4440170000
51
148.2399120000
0
ARC
5
35F
100
AcDbEntity
8
05
100
AcDbCircle
62
2
6
CONTINUOUS
10
187.5964640000
20
131.9918540000
40
1.9997860000
100
AcDbArc
50
100.0000000000
51
180.0000000000
0
LINE
5
360
100
AcDbEntity
8
05
100
AcDbLine
62
2
6
CONTINUOUS
10
234.5914450000
20
136.9960580000
11
285.9859560000
21
136.9960580000
0
LINE
5
361
100
AcDbEntity
8
05
100
AcDbLine
62
2
6
CONTINUOUS
10
234.5914450000
20
85.4015690000
11
285.9859560000
21
85.4015690000
0
LINE
5
362
100
AcDbEntity
8
05
100
AcDbLine
62
2
6
CONTINUOUS
10
229.5919790000
20
135.1962510000
11
229.5919790000
21
111.1988140000
0
LINE
5
363
100
AcDbEntity
8
05
100
AcDbLine
62
2
6
CONTINUOUS
10
234.5914450000
20
85.4015690000
11
234.5914450000
21
136.9960580000
0
LINE
5
364
100
AcDbEntity
8
05
100
AcDbLine
62
2
6
CONTINUOUS
10
229.5919790000
20
87.2013770000
11
229.5919790000
21
111.1988140000
0
LINE
5
365
100
AcDbEntity
8
05
100
AcDbLine
62
2
6
CONTINUOUS
10
229.5919790000
20
87.7013230000
11
234.5914450000
21
87.7013230000
0
ARC
5
366
100
AcDbEntity
8
05
100
AcDbCircle
62
2
6
CONTINUOUS
10
227.5921920000
20
87.2013770000
40
1.9997860000
100
AcDbArc
50
270.0000000000
51
360.0000000000
0
LINE
5
367
100
AcDbEntity
8
05
100
AcDbLine
62
2
6
CONTINUOUS
10
229.5919790000
20
134.6963040000
11
234.5914450000
21
134.6963040000
0
ARC
5
368
100
AcDbEntity
8
05
100
AcDbCircle
62
2
6
CONTINUOUS
10
227.5921920000
20
135.1962510000
40
1.9997860000
100
AcDbArc
50
0.0000000000
51
90.0000000000
0
LINE
5
369
100
AcDbEntity
8
05
100
AcDbLine
62
2
6
CONTINUOUS
10
324.9817910000
20
127.2970940000
11
324.9817910000
21
95.1005330000
0
LINE
5
36A
100
AcDbEntity
8
05
100
AcDbLine
62
2
6
CONTINUOUS
10
286.9858490000
20
93.5007040000
11
323.3819620000
21
93.5007040000
0
LINE
5
36B
100
AcDbEntity
8
05
100
AcDbLine
62
2
6
CONTINUOUS
10
286.9858490000
20
135.9961650000
11
286.9858490000
21
86.4014620000
0
ARC
5
36C
100
AcDbEntity
8
05
100
AcDbCircle
62
2
6
CONTINUOUS
10
285.9859560000
20
86.4014620000
40
0.9998930000
100
AcDbArc
50
270.0000000000
51
360.0000000000
0
ARC
5
36D
100
AcDbEntity
8
05
100
AcDbCircle
62
2
6
CONTINUOUS
10
323.3819620000
20
95.1005330000
40
1.5998290000
100
AcDbArc
50
270.0000000000
51
360.0000000000
0
LINE
5
36E
100
AcDbEntity
8
05
100
AcDbLine
62
2
6
CONTINUOUS
10
286.9858490000
20
128.8969230000
11
323.3819620000
21
128.8969230000
0
ARC
5
36F
100
AcDbEntity
8
05
100
AcDbCircle
62
2
6
CONTINUOUS
10
285.9859560000
20
135.9961650000
40
0.9998930000
100
AcDbArc
50
0.0000000000
51
90.0000000000
0
ARC
5
370
100
AcDbEntity
8
05
100
AcDbCircle
62
2
6
CONTINUOUS
10
323.3819620000
20
127.2970940000
40
1.5998290000
100
AcDbArc
50
0.0000000000
51
90.0000000000
0
LINE
5
371
100
AcDbEntity
8
05
100
AcDbLine
62
2
6
CONTINUOUS
10
241.5914450000
20
126.1988140000
11
259.5914450000
21
126.1988140000
0
LINE
5
372
100
AcDbEntity
8
05
100
AcDbLine
62
2
6
CONTINUOUS
10
262.5914450000
20
123.1988140000
11
262.5914450000
21
99.1988140000
0
LINE
5
373
100
AcDbEntity
8
05
100
AcDbLine
62
2
6
CONTINUOUS
10
259.5914450000
20
96.1988140000
11
241.5914450000
21
96.1988140000
0
LINE
5
374
100
AcDbEntity
8
05
100
AcDbLine
62
2
6
CONTINUOUS
10
238.5914450000
20
99.1988140000
11
238.5914450000
21
123.1988140000
0
ARC
5
375
100
AcDbEntity
8
05
100
AcDbCircle
62
2
6
CONTINUOUS
10
241.5914450000
20
123.1988140000
40
3.0000000000
100
AcDbArc
50
90.0000000000
51
180.0000000000
0
ARC
5
376
100
AcDbEntity
8
05
100
AcDbCircle
62
2
6
CONTINUOUS
10
241.5914450000
20
99.1988140000
40
3.0000000000
100
AcDbArc
50
180.0000000000
51
270.0000000000
0
ARC
5
377
100
AcDbEntity
8
05
100
AcDbCircle
62
2
6
CONTINUOUS
10
259.5914450000
20
99.1988140000
40
3.0000000000
100
AcDbArc
50
270.0000000000
51
360.0000000000
0
ARC
5
378
100
AcDbEntity
8
05
100
AcDbCircle
62
2
6
CONTINUOUS
10
259.5914450000
20
123.1988140000
40
3.0000000000
100
AcDbArc
50
0.0000000000
51
90.0000000000
0
LINE
5
379
100
AcDbEntity
8
05
100
AcDbLine
62
2
6
CONTINUOUS
10
96.8781810000
20
204.3420450000
11
89.7789820000
21
204.7217210000
0
LINE
5
37A
100
AcDbEntity
8
05
100
AcDbLine
62
2
6
CONTINUOUS
10
93.7623280000
20
201.7065900000
11
89.6391670000
21
202.0727440000
0
LINE
5
37B
100
AcDbEntity
8
0
100
AcDbLine
62
7
6
CONTINUOUS
10
0.0000000000
20
0.0000000000
11
420.0000000000
21
0.0000000000
0
LINE
5
37C
100
AcDbEntity
8
0
100
AcDbLine
62
7
6
CONTINUOUS
10
420.0000000000
20
0.0000000000
11
420.0000000000
21
297.0000000000
0
LINE
5
37D
100
AcDbEntity
8
0
100
AcDbLine
62
7
6
CONTINUOUS
10
420.0000000000
20
297.0000000000
11
0.0000000000
21
297.0000000000
0
LINE
5
37E
100
AcDbEntity
8
0
100
AcDbLine
62
7
6
CONTINUOUS
10
0.0000000000
20
297.0000000000
11
0.0000000000
21
0.0000000000
0
LINE
5
37F
100
AcDbEntity
8
0
100
AcDbLine
62
7
6
CONTINUOUS
10
230.0000000000
20
0.0000000000
11
230.0000000000
21
2.0000000000
0
LINE
5
380
100
AcDbEntity
8
0
100
AcDbLine
62
7
6
CONTINUOUS
10
20.0000000000
20
0.0000000000
11
20.0000000000
21
2.0000000000
0
LINE
5
381
100
AcDbEntity
8
0
100
AcDbLine
62
7
6
CONTINUOUS
10
230.0000000000
20
295.0000000000
11
230.0000000000
21
297.0000000000
0
LINE
5
382
100
AcDbEntity
8
0
100
AcDbLine
62
7
6
CONTINUOUS
10
20.0000000000
20
295.0000000000
11
20.0000000000
21
297.0000000000
0
LINE
5
383
100
AcDbEntity
8
05
100
AcDbLine
62
7
6
CONTINUOUS
10
302.5761270000
20
13.2089520000
11
302.8594800000
21
13.4923040000
0
LINE
5
384
100
AcDbEntity
8
05
100
AcDbLine
62
7
6
CONTINUOUS
10
304.6202690000
20
15.2530940000
11
305.0602470000
21
15.6930720000
0
LINE
5
385
100
AcDbEntity
8
05
100
AcDbLine
62
7
6
CONTINUOUS
10
303.5024150000
20
14.1352400000
11
303.7923930000
21
14.4252180000
0
LINE
5
386
100
AcDbEntity
8
05
100
AcDbLine
62
7
6
CONTINUOUS
10
302.2579290000
20
13.2089520000
11
302.9501160000
21
13.9011390000
0
LINE
5
387
100
AcDbEntity
8
05
100
AcDbLine
62
7
6
CONTINUOUS
10
304.3020710000
20
15.2530940000
11
304.7420490000
21
15.6930720000
0
LINE
5
388
100
AcDbEntity
8
05
100
AcDbLine
62
7
6
CONTINUOUS
10
303.1842170000
20
14.1352400000
11
303.4741950000
21
14.4252180000
0
LINE
5
389
100
AcDbEntity
8
05
100
AcDbLine
62
7
6
CONTINUOUS
10
301.9397310000
20
13.2089520000
11
303.1559970000
21
14.4252180000
0
LINE
5
38A
100
AcDbEntity
8
05
100
AcDbLine
62
7
6
CONTINUOUS
10
303.9838730000
20
15.2530940000
11
304.4238510000
21
15.6930720000
0
LINE
5
38B
100
AcDbEntity
8
05
100
AcDbLine
62
7
6
CONTINUOUS
10
301.6215330000
20
13.2089520000
11
303.1313890000
21
14.7188080000
0
LINE
5
38C
100
AcDbEntity
8
05
100
AcDbLine
62
7
6
CONTINUOUS
10
303.6656750000
20
15.2530940000
11
304.1056530000
21
15.6930720000
0
LINE
5
38D
100
AcDbEntity
8
05
100
AcDbLine
62
7
6
CONTINUOUS
10
301.3033350000
20
13.2089520000
11
303.2220250000
21
15.1276420000
0
LINE
5
38E
100
AcDbEntity
8
05
100
AcDbLine
62
7
6
CONTINUOUS
10
303.3474770000
20
15.2530940000
11
303.7874550000
21
15.6930720000
0
LINE
5
38F
100
AcDbEntity
8
05
100
AcDbLine
62
7
6
CONTINUOUS
10
301.1183660000
20
13.3421810000
11
303.4692570000
21
15.6930720000
0
LINE
5
390
100
AcDbEntity
8
05
100
AcDbLine
62
7
6
CONTINUOUS
10
301.2090020000
20
13.7510150000
11
303.1510590000
21
15.6930720000
0
LINE
5
391
100
AcDbEntity
8
05
100
AcDbLine
62
7
6
CONTINUOUS
10
301.2996390000
20
14.1598500000
11
302.8328610000
21
15.6930720000
0
LINE
5
392
100
AcDbEntity
8
05
100
AcDbLine
62
7
6
CONTINUOUS
10
301.3902750000
20
14.5686840000
11
302.5146630000
21
15.6930720000
0
LINE
5
393
100
AcDbEntity
8
05
100
AcDbLine
62
7
6
CONTINUOUS
10
301.4809110000
20
14.9775190000
11
302.1964650000
21
15.6930720000
0
LINE
5
394
100
AcDbEntity
8
05
100
AcDbLine
62
7
6
CONTINUOUS
10
301.5715480000
20
15.3863530000
11
301.8782670000
21
15.6930720000
0
LINE
5
395
100
AcDbEntity
8
05
100
AcDbLine
62
7
6
CONTINUOUS
10
300.9390390000
20
15.0720420000
11
300.9639990000
21
15.0970020000
0
LINE
5
396
100
AcDbEntity
8
05
100
AcDbLine
62
7
6
CONTINUOUS
10
298.7577510000
20
13.2089520000
11
298.9600800000
21
13.4112820000
0
LINE
5
397
100
AcDbEntity
8
05
100
AcDbLine
62
7
6
CONTINUOUS
10
300.6208410000
20
15.0720420000
11
301.0546360000
21
15.5058370000
0
LINE
5
398
100
AcDbEntity
8
05
100
AcDbLine
62
7
6
CONTINUOUS
10
298.4395530000
20
13.2089520000
11
299.0507170000
21
13.8201160000
0
LINE
5
399
100
AcDbEntity
8
05
100
AcDbLine
62
7
6
CONTINUOUS
10
300.3026430000
20
15.0720420000
11
300.9236730000
21
15.6930720000
0
LINE
5
39A
100
AcDbEntity
8
05
100
AcDbLine
62
7
6
CONTINUOUS
10
298.1213550000
20
13.2089520000
11
299.1413530000
21
14.2289510000
0
LINE
5
39B
100
AcDbEntity
8
05
100
AcDbLine
62
7
6
CONTINUOUS
10
299.9844450000
20
15.0720420000
11
300.6054740000
21
15.6930720000
0
LINE
5
39C
100
AcDbEntity
8
05
100
AcDbLine
62
7
6
CONTINUOUS
10
297.8031570000
20
13.2089520000
11
299.2319900000
21
14.6377850000
0
LINE
5
39D
100
AcDbEntity
8
05
100
AcDbLine
62
7
6
CONTINUOUS
10
299.6662460000
20
15.0720420000
11
300.2872760000
21
15.6930720000
0
LINE
5
39E
100
AcDbEntity
8
05
100
AcDbLine
62
7
6
CONTINUOUS
10
297.4849590000
20
13.2089520000
11
299.3226260000
21
15.0466200000
0
LINE
5
39F
100
AcDbEntity
8
05
100
AcDbLine
62
7
6
CONTINUOUS
10
299.3480480000
20
15.0720420000
11
299.9690780000
21
15.6930720000
0
LINE
5
3A0
100
AcDbEntity
8
05
100
AcDbLine
62
7
6
CONTINUOUS
10
297.2189660000
20
13.2611580000
11
299.6508800000
21
15.6930720000
0
LINE
5
3A1
100
AcDbEntity
8
05
100
AcDbLine
62
7
6
CONTINUOUS
10
297.3096030000
20
13.6699920000
11
299.3326820000
21
15.6930720000
0
LINE
5
3A2
100
AcDbEntity
8
05
100
AcDbLine
62
7
6
CONTINUOUS
10
297.4002390000
20
14.0788270000
11
299.0144840000
21
15.6930720000
0
LINE
5
3A3
100
AcDbEntity
8
05
100
AcDbLine
62
7
6
CONTINUOUS
10
297.4908760000
20
14.4876610000
11
298.6962860000
21
15.6930720000
0
LINE
5
3A4
100
AcDbEntity
8
05
100
AcDbLine
62
7
6
CONTINUOUS
10
297.5815120000
20
14.8964960000
11
298.3780880000
21
15.6930720000
0
LINE
5
3A5
100
AcDbEntity
8
05
100
AcDbLine
62
7
6
CONTINUOUS
10
297.4388600000
20
15.0720420000
11
298.0598900000
21
15.6930720000
0
LINE
5
3A6
100
AcDbEntity
8
05
100
AcDbLine
62
7
6
CONTINUOUS
10
297.1206620000
20
15.0720420000
11
297.7416920000
21
15.6930720000
0
LINE
5
3A7
100
AcDbEntity
8
05
100
AcDbLine
62
7
6
CONTINUOUS
10
296.8024640000
20
15.0720420000
11
297.4234940000
21
15.6930720000
0
LINE
5
3A8
100
AcDbEntity
8
05
100
AcDbLine
62
7
6
CONTINUOUS
10
294.8883760000
20
13.4761520000
11
295.3685390000
21
13.9563150000
0
LINE
5
3A9
100
AcDbEntity
8
05
100
AcDbLine
62
7
6
CONTINUOUS
10
296.4842660000
20
15.0720420000
11
297.1052960000
21
15.6930720000
0
LINE
5
3AA
100
AcDbEntity
8
05
100
AcDbLine
62
7
6
CONTINUOUS
10
294.4054660000
20
13.3114400000
11
295.4591750000
21
14.3651490000
0
LINE
5
3AB
100
AcDbEntity
8
05
100
AcDbLine
62
7
6
CONTINUOUS
10
296.1660680000
20
15.0720420000
11
296.7870980000
21
15.6930720000
0
LINE
5
3AC
100
AcDbEntity
8
05
100
AcDbLine
62
7
6
CONTINUOUS
10
294.0027690000
20
13.2269410000
11
295.5498110000
21
14.7739840000
0
LINE
5
3AD
100
AcDbEntity
8
05
100
AcDbLine
62
7
6
CONTINUOUS
10
296.1305160000
20
15.3546880000
11
296.4689000000
21
15.6930720000
0
LINE
5
3AE
100
AcDbEntity
8
05
100
AcDbLine
62
7
6
CONTINUOUS
10
293.6368590000
20
13.1792300000
11
295.6404480000
21
15.1828180000
0
LINE
5
3AF
100
AcDbEntity
8
05
100
AcDbLine
62
7
6
CONTINUOUS
10
293.2894110000
20
13.1499790000
11
295.7310840000
21
15.5916520000
0
LINE
5
3B0
100
AcDbEntity
8
05
100
AcDbLine
62
7
6
CONTINUOUS
10
292.9558910000
20
13.1346570000
11
295.5143060000
21
15.6930720000
0
LINE
5
3B1
100
AcDbEntity
8
05
100
AcDbLine
62
7
6
CONTINUOUS
10
292.6346880000
20
13.1316520000
11
293.3351190000
21
13.8320840000
0
LINE
5
3B2
100
AcDbEntity
8
05
100
AcDbLine
62
7
6
CONTINUOUS
10
293.7236060000
20
14.2205700000
11
295.1961080000
21
15.6930720000
0
LINE
5
3B3
100
AcDbEntity
8
05
100
AcDbLine
62
7
6
CONTINUOUS
10
292.3245180000
20
13.1396810000
11
292.9444690000
21
13.7596310000
0
LINE
5
3B4
100
AcDbEntity
8
05
100
AcDbLine
62
7
6
CONTINUOUS
10
293.8142420000
20
14.6294040000
11
294.8779100000
21
15.6930720000
0
LINE
5
3B5
100
AcDbEntity
8
05
100
AcDbLine
62
7
6
CONTINUOUS
10
292.0243430000
20
13.1577030000
11
292.6233120000
21
13.7566730000
0
LINE
5
3B6
100
AcDbEntity
8
05
100
AcDbLine
62
7
6
CONTINUOUS
10
293.9048780000
20
15.0382390000
11
294.5597110000
21
15.6930720000
0
LINE
5
3B7
100
AcDbEntity
8
05
100
AcDbLine
62
7
6
CONTINUOUS
10
291.7333060000
20
13.1848640000
11
292.3407990000
21
13.7923570000
0
LINE
5
3B8
100
AcDbEntity
8
05
100
AcDbLine
62
7
6
CONTINUOUS
10
293.9955150000
20
15.4470730000
11
294.2415130000
21
15.6930720000
0
LINE
5
3B9
100
AcDbEntity
8
05
100
AcDbLine
62
7
6
CONTINUOUS
10
291.4520070000
20
13.2217640000
11
292.0972290000
21
13.8669850000
0
LINE
5
3BA
100
AcDbEntity
8
05
100
AcDbLine
62
7
6
CONTINUOUS
10
291.1841710000
20
13.2721250000
11
291.9024090000
21
13.9903630000
0
LINE
5
3BB
100
AcDbEntity
8
05
100
AcDbLine
62
7
6
CONTINUOUS
10
290.9287580000
20
13.3349100000
11
291.8448360000
21
14.2509890000
0
LINE
5
3BC
100
AcDbEntity
8
05
100
AcDbLine
62
7
6
CONTINUOUS
10
290.6873210000
20
13.4116710000
11
291.9354730000
21
14.6598230000
0
LINE
5
3BD
100
AcDbEntity
8
05
100
AcDbLine
62
7
6
CONTINUOUS
10
290.4667180000
20
13.5092670000
11
292.0261090000
21
15.0686580000
0
LINE
5
3BE
100
AcDbEntity
8
05
100
AcDbLine
62
7
6
CONTINUOUS
10
290.2651030000
20
13.6258500000
11
292.1167450000
21
15.4774920000
0
LINE
5
3BF
100
AcDbEntity
8
05
100
AcDbLine
62
7
6
CONTINUOUS
10
290.1018940000
20
13.7808390000
11
292.0141270000
21
15.6930720000
0
LINE
5
3C0
100
AcDbEntity
8
05
100
AcDbLine
62
7
6
CONTINUOUS
10
290.1092480000
20
14.1063910000
11
291.6959290000
21
15.6930720000
0
LINE
5
3C1
100
AcDbEntity
8
05
100
AcDbLine
62
7
6
CONTINUOUS
10
288.8936110000
20
13.2089520000
11
289.2024780000
21
13.5178190000
0
LINE
5
3C2
100
AcDbEntity
8
05
100
AcDbLine
62
7
6
CONTINUOUS
10
290.1998850000
20
14.5152260000
11
291.3777310000
21
15.6930720000
0
LINE
5
3C3
100
AcDbEntity
8
05
100
AcDbLine
62
7
6
CONTINUOUS
10
288.5754130000
20
13.2089520000
11
289.0153920000
21
13.6489310000
0
LINE
5
3C4
100
AcDbEntity
8
05
100
AcDbLine
62
7
6
CONTINUOUS
10
290.2905210000
20
14.9240600000
11
291.0595330000
21
15.6930720000
0
LINE
5
3C5
100
AcDbEntity
8
05
100
AcDbLine
62
7
6
CONTINUOUS
10
288.2572150000
20
13.2089520000
11
288.6971940000
21
13.6489310000
0
LINE
5
3C6
100
AcDbEntity
8
05
100
AcDbLine
62
7
6
CONTINUOUS
10
290.3811580000
20
15.3328950000
11
290.7413350000
21
15.6930720000
0
LINE
5
3C7
100
AcDbEntity
8
05
100
AcDbLine
62
7
6
CONTINUOUS
10
287.9390170000
20
13.2089520000
11
288.3789960000
21
13.6489310000
0
LINE
5
3C8
100
AcDbEntity
8
05
100
AcDbLine
62
7
6
CONTINUOUS
10
289.0360880000
20
14.3060230000
11
289.1751650000
21
14.4451000000
0
LINE
5
3C9
100
AcDbEntity
8
05
100
AcDbLine
62
7
6
CONTINUOUS
10
287.6208190000
20
13.2089520000
11
288.0607970000
21
13.6489310000
0
LINE
5
3CA
100
AcDbEntity
8
05
100
AcDbLine
62
7
6
CONTINUOUS
10
288.7178900000
20
14.3060230000
11
289.0078680000
21
14.5960010000
0
LINE
5
3CB
100
AcDbEntity
8
05
100
AcDbLine
62
7
6
CONTINUOUS
10
287.3026210000
20
13.2089520000
11
287.7425990000
21
13.6489310000
0
LINE
5
3CC
100
AcDbEntity
8
05
100
AcDbLine
62
7
6
CONTINUOUS
10
289.3467620000
20
15.2530940000
11
289.6556600000
21
15.5619910000
0
LINE
5
3CD
100
AcDbEntity
8
05
100
AcDbLine
62
7
6
CONTINUOUS
10
288.3996920000
20
14.3060230000
11
288.6896700000
21
14.5960010000
0
LINE
5
3CE
100
AcDbEntity
8
05
100
AcDbLine
62
7
6
CONTINUOUS
10
286.9844230000
20
13.2089520000
11
287.4244010000
21
13.6489310000
0
LINE
5
3CF
100
AcDbEntity
8
05
100
AcDbLine
62
7
6
CONTINUOUS
10
289.0285640000
20
15.2530940000
11
289.4685430000
21
15.6930720000
0
LINE
5
3D0
100
AcDbEntity
8
05
100
AcDbLine
62
7
6
CONTINUOUS
10
288.0814940000
20
14.3060230000
11
288.3714720000
21
14.5960010000
0
LINE
5
3D1
100
AcDbEntity
8
05
100
AcDbLine
62
7
6
CONTINUOUS
10
286.6662250000
20
13.2089520000
11
287.1062030000
21
13.6489310000
0
LINE
5
3D2
100
AcDbEntity
8
05
100
AcDbLine
62
7
6
CONTINUOUS
10
288.7103660000
20
15.2530940000
11
289.1503450000
21
15.6930720000
0
LINE
5
3D3
100
AcDbEntity
8
05
100
AcDbLine
62
7
6
CONTINUOUS
10
287.7632960000
20
14.3060230000
11
288.0532740000
21
14.5960010000
0
LINE
5
3D4
100
AcDbEntity
8
05
100
AcDbLine
62
7
6
CONTINUOUS
10
286.3480270000
20
13.2089520000
11
286.7880050000
21
13.6489310000
0
LINE
5
3D5
100
AcDbEntity
8
05
100
AcDbLine
62
7
6
CONTINUOUS
10
288.3921680000
20
15.2530940000
11
288.8321470000
21
15.6930720000
0
LINE
5
3D6
100
AcDbEntity
8
05
100
AcDbLine
62
7
6
CONTINUOUS
10
287.4450970000
20
14.3060230000
11
287.7350760000
21
14.5960010000
0
LINE
5
3D7
100
AcDbEntity
8
05
100
AcDbLine
62
7
6
CONTINUOUS
10
286.0298290000
20
13.2089520000
11
286.4698070000
21
13.6489310000
0
LINE
5
3D8
100
AcDbEntity
8
05
100
AcDbLine
62
7
6
CONTINUOUS
10
288.0739700000
20
15.2530940000
11
288.5139480000
21
15.6930720000
0
LINE
5
3D9
100
AcDbEntity
8
05
100
AcDbLine
62
7
6
CONTINUOUS
10
287.1268990000
20
14.3060230000
11
287.4168780000
21
14.5960010000
0
LINE
5
3DA
100
AcDbEntity
8
05
100
AcDbLine
62
7
6
CONTINUOUS
10
285.7116310000
20
13.2089520000
11
286.3186940000
21
13.8160160000
0
LINE
5
3DB
100
AcDbEntity
8
05
100
AcDbLine
62
7
6
CONTINUOUS
10
287.7557720000
20
15.2530940000
11
288.1957500000
21
15.6930720000
0
LINE
5
3DC
100
AcDbEntity
8
05
100
AcDbLine
62
7
6
CONTINUOUS
10
286.8087010000
20
14.3060230000
11
287.0986800000
21
14.5960010000
0
LINE
5
3DD
100
AcDbEntity
8
05
100
AcDbLine
62
7
6
CONTINUOUS
10
285.3934330000
20
13.2089520000
11
286.4093310000
21
14.2248500000
0
LINE
5
3DE
100
AcDbEntity
8
05
100
AcDbLine
62
7
6
CONTINUOUS
10
287.4375740000
20
15.2530940000
11
287.8775520000
21
15.6930720000
0
LINE
5
3DF
100
AcDbEntity
8
05
100
AcDbLine
62
7
6
CONTINUOUS
10
286.4905030000
20
14.3060230000
11
286.7804820000
21
14.5960010000
0
LINE
5
3E0
100
AcDbEntity
8
05
100
AcDbLine
62
7
6
CONTINUOUS
10
285.0752350000
20
13.2089520000
11
286.4999670000
21
14.6336850000
0
LINE
5
3E1
100
AcDbEntity
8
05
100
AcDbLine
62
7
6
CONTINUOUS
10
287.1193760000
20
15.2530940000
11
287.5593540000
21
15.6930720000
0
LINE
5
3E2
100
AcDbEntity
8
05
100
AcDbLine
62
7
6
CONTINUOUS
10
284.7570370000
20
13.2089520000
11
286.5906030000
21
15.0425190000
0
LINE
5
3E3
100
AcDbEntity
8
05
100
AcDbLine
62
7
6
CONTINUOUS
10
286.8011780000
20
15.2530940000
11
287.2411560000
21
15.6930720000
0
LINE
5
3E4
100
AcDbEntity
8
05
100
AcDbLine
62
7
6
CONTINUOUS
10
284.4869440000
20
13.2570570000
11
286.9229580000
21
15.6930720000
0
LINE
5
3E5
100
AcDbEntity
8
05
100
AcDbLine
62
7
6
CONTINUOUS
10
284.5775800000
20
13.6658920000
11
286.6047600000
21
15.6930720000
0
LINE
5
3E6
100
AcDbEntity
8
05
100
AcDbLine
62
7
6
CONTINUOUS
10
284.6682170000
20
14.0747260000
11
286.2865620000
21
15.6930720000
0
LINE
5
3E7
100
AcDbEntity
8
05
100
AcDbLine
62
7
6
CONTINUOUS
10
283.4842440000
20
13.2089520000
11
283.6617050000
21
13.3864130000
0
LINE
5
3E8
100
AcDbEntity
8
05
100
AcDbLine
62
7
6
CONTINUOUS
10
284.7588530000
20
14.4835610000
11
285.9683640000
21
15.6930720000
0
LINE
5
3E9
100
AcDbEntity
8
05
100
AcDbLine
62
7
6
CONTINUOUS
10
283.1660460000
20
13.2089520000
11
283.7523410000
21
13.7952470000
0
LINE
5
3EA
100
AcDbEntity
8
05
100
AcDbLine
62
7
6
CONTINUOUS
10
284.8494890000
20
14.8923950000
11
285.6501660000
21
15.6930720000
0
LINE
5
3EB
100
AcDbEntity
8
05
100
AcDbLine
62
7
6
CONTINUOUS
10
282.8478480000
20
13.2089520000
11
283.8429780000
21
14.2040820000
0
LINE
5
3EC
100
AcDbEntity
8
05
100
AcDbLine
62
7
6
CONTINUOUS
10
284.9401260000
20
15.3012300000
11
285.3319680000
21
15.6930720000
0
LINE
5
3ED
100
AcDbEntity
8
05
100
AcDbLine
62
7
6
CONTINUOUS
10
282.5296500000
20
13.2089520000
11
283.9336140000
21
14.6129160000
0
LINE
5
3EE
100
AcDbEntity
8
05
100
AcDbLine
62
7
6
CONTINUOUS
10
282.2114520000
20
13.2089520000
11
284.0242510000
21
15.0217510000
0
LINE
5
3EF
100
AcDbEntity
8
05
100
AcDbLine
62
7
6
CONTINUOUS
10
281.8932540000
20
13.2089520000
11
284.1148870000
21
15.4305850000
0
LINE
5
3F0
100
AcDbEntity
8
05
100
AcDbLine
62
7
6
CONTINUOUS
10
281.6255330000
20
13.2594290000
11
284.0591760000
21
15.6930720000
0
LINE
5
3F1
100
AcDbEntity
8
05
100
AcDbLine
62
7
6
CONTINUOUS
10
281.4580220000
20
13.4101170000
11
283.7409780000
21
15.6930720000
0
LINE
5
3F2
100
AcDbEntity
8
05
100
AcDbLine
62
7
6
CONTINUOUS
10
281.2905120000
20
13.5608040000
11
283.4227800000
21
15.6930720000
0
LINE
5
3F3
100
AcDbEntity
8
05
100
AcDbLine
62
7
6
CONTINUOUS
10
281.1230020000
20
13.7114920000
11
282.1030810000
21
14.6915710000
0
LINE
5
3F4
100
AcDbEntity
8
05
100
AcDbLine
62
7
6
CONTINUOUS
10
282.2831370000
20
14.8716270000
11
283.1045820000
21
15.6930720000
0
LINE
5
3F5
100
AcDbEntity
8
05
100
AcDbLine
62
7
6
CONTINUOUS
10
280.9554910000
20
13.8621800000
11
281.9163070000
21
14.8229950000
0
LINE
5
3F6
100
AcDbEntity
8
05
100
AcDbLine
62
7
6
CONTINUOUS
10
282.3737730000
20
15.2804620000
11
282.7863840000
21
15.6930720000
0
LINE
5
3F7
100
AcDbEntity
8
05
100
AcDbLine
62
7
6
CONTINUOUS
10
280.7879810000
20
14.0128680000
11
281.7295320000
21
14.9544190000
0
LINE
5
3F8
100
AcDbEntity
8
05
100
AcDbLine
62
7
6
CONTINUOUS
10
282.4644100000
20
15.6892960000
11
282.4681860000
21
15.6930720000
0
LINE
5
3F9
100
AcDbEntity
8
05
100
AcDbLine
62
7
6
CONTINUOUS
10
279.6658680000
20
13.2089520000
11
279.8620460000
21
13.4051310000
0
LINE
5
3FA
100
AcDbEntity
8
05
100
AcDbLine
62
7
6
CONTINUOUS
10
280.6204710000
20
14.1635550000
11
281.5427580000
21
15.0858420000
0
LINE
5
3FB
100
AcDbEntity
8
05
100
AcDbLine
62
7
6
CONTINUOUS
10
279.3476700000
20
13.2089520000
11
279.9526830000
21
13.8139650000
0
LINE
5
3FC
100
AcDbEntity
8
05
100
AcDbLine
62
7
6
CONTINUOUS
10
280.4529600000
20
14.3142430000
11
281.3559830000
21
15.2172660000
0
LINE
5
3FD
100
AcDbEntity
8
05
100
AcDbLine
62
7
6
CONTINUOUS
10
279.0294720000
20
13.2089520000
11
280.0433190000
21
14.2228000000
0
LINE
5
3FE
100
AcDbEntity
8
05
100
AcDbLine
62
7
6
CONTINUOUS
10
280.2854500000
20
14.4649310000
11
281.1692090000
21
15.3486900000
0
LINE
5
3FF
100
AcDbEntity
8
05
100
AcDbLine
62
7
6
CONTINUOUS
10
278.7112740000
20
13.2089520000
11
280.9824350000
21
15.4801130000
0
LINE
5
400
100
AcDbEntity
8
05
100
AcDbLine
62
7
6
CONTINUOUS
10
278.3930760000
20
13.2089520000
11
280.7956600000
21
15.6115370000
0
LINE
5
401
100
AcDbEntity
8
05
100
AcDbLine
62
7
6
CONTINUOUS
10
278.1209320000
20
13.2550070000
11
280.5589970000
21
15.6930720000
0
LINE
5
402
100
AcDbEntity
8
05
100
AcDbLine
62
7
6
CONTINUOUS
10
278.2115690000
20
13.6638420000
11
280.2407990000
21
15.6930720000
0
LINE
5
403
100
AcDbEntity
8
05
100
AcDbLine
62
7
6
CONTINUOUS
10
278.3022050000
20
14.0726760000
11
279.9226010000
21
15.6930720000
0
LINE
5
404
100
AcDbEntity
8
05
100
AcDbLine
62
7
6
CONTINUOUS
10
278.3928420000
20
14.4815110000
11
279.6044030000
21
15.6930720000
0
LINE
5
405
100
AcDbEntity
8
05
100
AcDbLine
62
7
6
CONTINUOUS
10
278.4834780000
20
14.8903450000
11
279.2862050000
21
15.6930720000
0
LINE
5
406
100
AcDbEntity
8
05
100
AcDbLine
62
7
6
CONTINUOUS
10
278.5741150000
20
15.2991800000
11
278.9680070000
21
15.6930720000
0
LINE
5
407
100
AcDbEntity
8
05
100
AcDbLine
62
7
6
CONTINUOUS
10
303.8206130000
20
14.1352400000
11
304.1105910000
21
14.4252180000
0
LINE
5
408
100
AcDbEntity
8
05
100
AcDbLine
62
7
6
CONTINUOUS
10
304.8666600000
20
15.1812870000
11
305.3784450000
21
15.6930720000
0
LINE
5
409
100
AcDbEntity
8
05
100
AcDbLine
62
7
6
CONTINUOUS
10
304.1388110000
20
14.1352400000
11
304.4292410000
21
14.4256700000
0
LINE
5
40A
100
AcDbEntity
8
05
100
AcDbLine
62
7
6
CONTINUOUS
10
304.9467390000
20
14.9431670000
11
305.6966430000
21
15.6930720000
0
LINE
5
40B
100
AcDbEntity
8
05
100
AcDbLine
62
7
6
CONTINUOUS
10
304.4562560000
20
14.1344860000
11
306.0146710000
21
15.6929020000
0
LINE
5
40C
100
AcDbEntity
8
05
100
AcDbLine
62
7
6
CONTINUOUS
10
304.6305160000
20
13.9905480000
11
306.2989430000
21
15.6589760000
0
LINE
5
40D
100
AcDbEntity
8
05
100
AcDbLine
62
7
6
CONTINUOUS
10
304.6130000000
20
13.6548350000
11
306.5351130000
21
15.5769480000
0
LINE
5
40E
100
AcDbEntity
8
05
100
AcDbLine
62
7
6
CONTINUOUS
10
304.6052610000
20
13.3288970000
11
306.7250750000
21
15.4487110000
0
LINE
5
40F
100
AcDbEntity
8
05
100
AcDbLine
62
7
6
CONTINUOUS
10
304.8035140000
20
13.2089520000
11
306.8509000000
21
15.2563380000
0
LINE
5
410
100
AcDbEntity
8
05
100
AcDbLine
62
7
6
CONTINUOUS
10
305.1217120000
20
13.2089520000
11
306.2212130000
21
14.3084530000
0
LINE
5
411
100
AcDbEntity
8
05
100
AcDbLine
62
7
6
CONTINUOUS
10
306.2660830000
20
14.3533230000
11
306.8342290000
21
14.9214690000
0
LINE
5
412
100
AcDbEntity
8
05
100
AcDbLine
62
7
6
CONTINUOUS
10
305.4399100000
20
13.2089520000
11
306.3457580000
21
14.1148000000
0
LINE
5
413
100
AcDbEntity
8
05
100
AcDbLine
62
7
6
CONTINUOUS
10
307.6292330000
20
15.3982750000
11
307.9240300000
21
15.6930720000
0
LINE
5
414
100
AcDbEntity
8
05
100
AcDbLine
62
7
6
CONTINUOUS
10
305.7581080000
20
13.2089520000
11
306.3299420000
21
13.7807860000
0
LINE
5
415
100
AcDbEntity
8
05
100
AcDbLine
62
7
6
CONTINUOUS
10
307.5385960000
20
14.9894400000
11
308.2422280000
21
15.6930720000
0
LINE
5
416
100
AcDbEntity
8
05
100
AcDbLine
62
7
6
CONTINUOUS
10
306.0763060000
20
13.2089520000
11
306.3071930000
21
13.4398390000
0
LINE
5
417
100
AcDbEntity
8
05
100
AcDbLine
62
7
6
CONTINUOUS
10
307.4479600000
20
14.5806060000
11
308.5604260000
21
15.6930720000
0
LINE
5
418
100
AcDbEntity
8
05
100
AcDbLine
62
7
6
CONTINUOUS
10
307.3573230000
20
14.1717720000
11
308.8786240000
21
15.6930720000
0
LINE
5
419
100
AcDbEntity
8
05
100
AcDbLine
62
7
6
CONTINUOUS
10
307.2666870000
20
13.7629370000
11
309.1968220000
21
15.6930720000
0
LINE
5
41A
100
AcDbEntity
8
05
100
AcDbLine
62
7
6
CONTINUOUS
10
307.1760510000
20
13.3541030000
11
309.3703470000
21
15.5483990000
0
LINE
5
41B
100
AcDbEntity
8
05
100
AcDbLine
62
7
6
CONTINUOUS
10
307.3490980000
20
13.2089520000
11
309.2797100000
21
15.1395640000
0
LINE
5
41C
100
AcDbEntity
8
05
100
AcDbLine
62
7
6
CONTINUOUS
10
307.6672960000
20
13.2089520000
11
309.1890740000
21
14.7307300000
0
LINE
5
41D
100
AcDbEntity
8
05
100
AcDbLine
62
7
6
CONTINUOUS
10
307.9854940000
20
13.2089520000
11
309.0984370000
21
14.3218950000
0
LINE
5
41E
100
AcDbEntity
8
05
100
AcDbLine
62
7
6
CONTINUOUS
10
310.3950670000
20
15.6185250000
11
310.4696140000
21
15.6930720000
0
LINE
5
41F
100
AcDbEntity
8
05
100
AcDbLine
62
7
6
CONTINUOUS
10
308.3036920000
20
13.2089520000
11
309.0078010000
21
13.9130610000
0
LINE
5
420
100
AcDbEntity
8
05
100
AcDbLine
62
7
6
CONTINUOUS
10
310.3044300000
20
15.2096900000
11
310.7878120000
21
15.6930720000
0
LINE
5
421
100
AcDbEntity
8
05
100
AcDbLine
62
7
6
CONTINUOUS
10
308.6218900000
20
13.2089520000
11
308.9171640000
21
13.5042260000
0
LINE
5
422
100
AcDbEntity
8
05
100
AcDbLine
62
7
6
CONTINUOUS
10
310.2137940000
20
14.8008560000
11
311.1060100000
21
15.6930720000
0
LINE
5
423
100
AcDbEntity
8
05
100
AcDbLine
62
7
6
CONTINUOUS
10
310.1231580000
20
14.3920210000
11
311.4242080000
21
15.6930720000
0
LINE
5
424
100
AcDbEntity
8
05
100
AcDbLine
62
7
6
CONTINUOUS
10
310.0325210000
20
13.9831870000
11
311.7424060000
21
15.6930720000
0
LINE
5
425
100
AcDbEntity
8
05
100
AcDbLine
62
7
6
CONTINUOUS
10
309.9418850000
20
13.5743520000
11
312.0364400000
21
15.6689080000
0
LINE
5
426
100
AcDbEntity
8
05
100
AcDbLine
62
7
6
CONTINUOUS
10
309.8946830000
20
13.2089520000
11
311.9458040000
21
15.2600730000
0
LINE
5
427
100
AcDbEntity
8
05
100
AcDbLine
62
7
6
CONTINUOUS
10
310.2128810000
20
13.2089520000
11
311.8577180000
21
14.8537890000
0
LINE
5
428
100
AcDbEntity
8
05
100
AcDbLine
62
7
6
CONTINUOUS
10
310.5310790000
20
13.2089520000
11
312.4121960000
21
15.0900700000
0
LINE
5
429
100
AcDbEntity
8
05
100
AcDbLine
62
7
6
CONTINUOUS
10
310.8492770000
20
13.2089520000
11
312.9666750000
21
15.3263510000
0
LINE
5
42A
100
AcDbEntity
8
05
100
AcDbLine
62
7
6
CONTINUOUS
10
311.1674750000
20
13.2089520000
11
311.5832580000
21
13.6247350000
0
LINE
5
42B
100
AcDbEntity
8
05
100
AcDbLine
62
7
6
CONTINUOUS
10
311.9071250000
20
13.9486020000
11
313.5211540000
21
15.5626310000
0
LINE
5
42C
100
AcDbEntity
8
05
100
AcDbLine
62
7
6
CONTINUOUS
10
311.4856730000
20
13.2089520000
11
311.4926210000
21
13.2159010000
0
LINE
5
42D
100
AcDbEntity
8
05
100
AcDbLine
62
7
6
CONTINUOUS
10
312.3871300000
20
14.1104090000
11
313.9697930000
21
15.6930720000
0
LINE
5
42E
100
AcDbEntity
8
05
100
AcDbLine
62
7
6
CONTINUOUS
10
312.5451590000
20
13.9502400000
11
314.2879910000
21
15.6930720000
0
LINE
5
42F
100
AcDbEntity
8
05
100
AcDbLine
62
7
6
CONTINUOUS
10
312.7031880000
20
13.7900710000
11
314.6061890000
21
15.6930720000
0
LINE
5
430
100
AcDbEntity
8
05
100
AcDbLine
62
7
6
CONTINUOUS
10
312.8612170000
20
13.6299020000
11
314.0334790000
21
14.8021650000
0
LINE
5
431
100
AcDbEntity
8
05
100
AcDbLine
62
7
6
CONTINUOUS
10
314.1250400000
20
14.8937250000
11
314.9243870000
21
15.6930720000
0
LINE
5
432
100
AcDbEntity
8
05
100
AcDbLine
62
7
6
CONTINUOUS
10
313.0192460000
20
13.4697330000
11
314.1915080000
21
14.6419950000
0
LINE
5
433
100
AcDbEntity
8
05
100
AcDbLine
62
7
6
CONTINUOUS
10
314.6795190000
20
15.1300060000
11
315.2425850000
21
15.6930720000
0
LINE
5
434
100
AcDbEntity
8
05
100
AcDbLine
62
7
6
CONTINUOUS
10
313.1772750000
20
13.3095640000
11
314.3495370000
21
14.4818260000
0
LINE
5
435
100
AcDbEntity
8
05
100
AcDbLine
62
7
6
CONTINUOUS
10
315.2339980000
20
15.3662870000
11
315.5607830000
21
15.6930720000
0
LINE
5
436
100
AcDbEntity
8
05
100
AcDbLine
62
7
6
CONTINUOUS
10
313.3948610000
20
13.2089520000
11
314.5075660000
21
14.3216570000
0
LINE
5
437
100
AcDbEntity
8
05
100
AcDbLine
62
7
6
CONTINUOUS
10
315.7884760000
20
15.6025670000
11
315.8789810000
21
15.6930720000
0
LINE
5
438
100
AcDbEntity
8
05
100
AcDbLine
62
7
6
CONTINUOUS
10
313.7130590000
20
13.2089520000
11
314.6655950000
21
14.1614880000
0
LINE
5
439
100
AcDbEntity
8
05
100
AcDbLine
62
7
6
CONTINUOUS
10
314.0312570000
20
13.2089520000
11
314.8236240000
21
14.0013190000
0
LINE
5
43A
100
AcDbEntity
8
05
100
AcDbLine
62
7
6
CONTINUOUS
10
314.3494550000
20
13.2089520000
11
314.9816530000
21
13.8411500000
0
LINE
5
43B
100
AcDbEntity
8
05
100
AcDbLine
62
7
6
CONTINUOUS
10
314.6676530000
20
13.2089520000
11
315.1396820000
21
13.6809810000
0
LINE
5
43C
100
AcDbEntity
8
05
100
AcDbLine
62
7
6
CONTINUOUS
10
314.9858510000
20
13.2089520000
11
315.2977110000
21
13.5208120000
0
LINE
5
43D
100
AcDbEntity
8
05
100
AcDbLine
62
7
6
CONTINUOUS
10
315.3040500000
20
13.2089520000
11
315.4557400000
21
13.3606430000
0
LINE
5
43E
100
AcDbEntity
8
05
100
AcDbLine
62
7
6
CONTINUOUS
10
320.3077010000
20
15.6670200000
11
320.3344820000
21
15.6938010000
0
LINE
5
43F
100
AcDbEntity
8
05
100
AcDbLine
62
7
6
CONTINUOUS
10
319.3531070000
20
14.3942270000
11
320.6526800000
21
15.6938010000
0
LINE
5
440
100
AcDbEntity
8
05
100
AcDbLine
62
7
6
CONTINUOUS
10
318.4860300000
20
13.2089520000
11
320.9708790000
21
15.6938010000
0
LINE
5
441
100
AcDbEntity
8
05
100
AcDbLine
62
7
6
CONTINUOUS
10
318.8042280000
20
13.2089520000
11
321.2890770000
21
15.6938010000
0
LINE
5
442
100
AcDbEntity
8
05
100
AcDbLine
62
7
6
CONTINUOUS
10
319.1224260000
20
13.2089520000
11
321.6072750000
21
15.6938010000
0
LINE
5
443
100
AcDbEntity
8
05
100
AcDbLine
62
7
6
CONTINUOUS
10
319.4406240000
20
13.2089520000
11
321.9254730000
21
15.6938010000
0
LINE
5
444
100
AcDbEntity
8
05
100
AcDbLine
62
7
6
CONTINUOUS
10
319.7588220000
20
13.2089520000
11
321.2846820000
21
14.7348120000
0
LINE
5
445
100
AcDbEntity
8
05
100
AcDbLine
62
7
6
CONTINUOUS
10
321.8285960000
20
15.2787260000
11
322.2436710000
21
15.6938010000
0
LINE
5
446
100
AcDbEntity
8
05
100
AcDbLine
62
7
6
CONTINUOUS
10
320.0770200000
20
13.2089520000
11
320.3300880000
21
13.4620200000
0
LINE
5
447
100
AcDbEntity
8
05
100
AcDbLine
62
7
6
CONTINUOUS
10
321.8922360000
20
15.0241680000
11
322.5618690000
21
15.6938010000
0
LINE
5
448
100
AcDbEntity
8
05
100
AcDbLine
62
7
6
CONTINUOUS
10
320.5570520000
20
13.6889840000
11
320.9302400000
21
14.0621710000
0
LINE
5
449
100
AcDbEntity
8
05
100
AcDbLine
62
7
6
CONTINUOUS
10
320.8752500000
20
13.6889840000
11
321.2484380000
21
14.0621710000
0
LINE
5
44A
100
AcDbEntity
8
05
100
AcDbLine
62
7
6
CONTINUOUS
10
321.9558760000
20
14.7696100000
11
322.8800670000
21
15.6938010000
0
LINE
5
44B
100
AcDbEntity
8
05
100
AcDbLine
62
7
6
CONTINUOUS
10
321.1934480000
20
13.6889840000
11
321.5666360000
21
14.0621710000
0
LINE
5
44C
100
AcDbEntity
8
05
100
AcDbLine
62
7
6
CONTINUOUS
10
322.0195150000
20
14.5150510000
11
323.1982650000
21
15.6938010000
0
LINE
5
44D
100
AcDbEntity
8
05
100
AcDbLine
62
7
6
CONTINUOUS
10
321.5116460000
20
13.6889840000
11
321.8848340000
21
14.0621710000
0
LINE
5
44E
100
AcDbEntity
8
05
100
AcDbLine
62
7
6
CONTINUOUS
10
322.0831550000
20
14.2604930000
11
323.3292860000
21
15.5066230000
0
LINE
5
44F
100
AcDbEntity
8
05
100
AcDbLine
62
7
6
CONTINUOUS
10
321.8298440000
20
13.6889840000
11
323.3929250000
21
15.2520650000
0
LINE
5
450
100
AcDbEntity
8
05
100
AcDbLine
62
7
6
CONTINUOUS
10
322.1480420000
20
13.6889840000
11
323.4565650000
21
14.9975060000
0
LINE
5
451
100
AcDbEntity
8
05
100
AcDbLine
62
7
6
CONTINUOUS
10
322.2740740000
20
13.4968170000
11
323.5202040000
21
14.7429480000
0
LINE
5
452
100
AcDbEntity
8
05
100
AcDbLine
62
7
6
CONTINUOUS
10
322.3377130000
20
13.2422590000
11
323.5838440000
21
14.4883900000
0
LINE
5
453
100
AcDbEntity
8
05
100
AcDbLine
62
7
6
CONTINUOUS
10
322.6226050000
20
13.2089520000
11
323.6474840000
21
14.2338310000
0
LINE
5
454
100
AcDbEntity
8
05
100
AcDbLine
62
7
6
CONTINUOUS
10
322.9408030000
20
13.2089520000
11
323.7111230000
21
13.9792730000
0
LINE
5
455
100
AcDbEntity
8
05
100
AcDbLine
62
7
6
CONTINUOUS
10
324.8640330000
20
15.1321820000
11
325.2440540000
21
15.5122030000
0
LINE
5
456
100
AcDbEntity
8
05
100
AcDbLine
62
7
6
CONTINUOUS
10
323.2590010000
20
13.2089520000
11
323.7747630000
21
13.7247140000
0
LINE
5
457
100
AcDbEntity
8
05
100
AcDbLine
62
7
6
CONTINUOUS
10
324.7959150000
20
14.7458660000
11
325.6185860000
21
15.5685370000
0
LINE
5
458
100
AcDbEntity
8
05
100
AcDbLine
62
7
6
CONTINUOUS
10
323.5771990000
20
13.2089520000
11
323.8384020000
21
13.4701560000
0
LINE
5
459
100
AcDbEntity
8
05
100
AcDbLine
62
7
6
CONTINUOUS
10
324.7277970000
20
14.3595500000
11
325.9813030000
21
15.6130560000
0
LINE
5
45A
100
AcDbEntity
8
05
100
AcDbLine
62
7
6
CONTINUOUS
10
323.8953970000
20
13.2089520000
11
323.9020420000
21
13.2155970000
0
LINE
5
45B
100
AcDbEntity
8
05
100
AcDbLine
62
7
6
CONTINUOUS
10
324.6596790000
20
13.9732340000
11
326.3333580000
21
15.6469130000
0
LINE
5
45C
100
AcDbEntity
8
05
100
AcDbLine
62
7
6
CONTINUOUS
10
324.6152770000
20
13.6106340000
11
326.6757100000
21
15.6710670000
0
LINE
5
45D
100
AcDbEntity
8
05
100
AcDbLine
62
7
6
CONTINUOUS
10
324.7378940000
20
13.4150530000
11
327.0091650000
21
15.6863240000
0
LINE
5
45E
100
AcDbEntity
8
05
100
AcDbLine
62
7
6
CONTINUOUS
10
324.9839510000
20
13.3429130000
11
326.3408190000
21
14.6997800000
0
LINE
5
45F
100
AcDbEntity
8
05
100
AcDbLine
62
7
6
CONTINUOUS
10
326.8827100000
20
15.2416710000
11
327.3344090000
21
15.6933700000
0
LINE
5
460
100
AcDbEntity
8
05
100
AcDbLine
62
7
6
CONTINUOUS
10
325.2652030000
20
13.3059660000
11
326.2727010000
21
14.3134640000
0
LINE
5
461
100
AcDbEntity
8
05
100
AcDbLine
62
7
6
CONTINUOUS
10
327.2192190000
20
15.2599820000
11
327.6520320000
21
15.6927950000
0
LINE
5
462
100
AcDbEntity
8
05
100
AcDbLine
62
7
6
CONTINUOUS
10
325.5518220000
20
13.2743870000
11
326.2250940000
21
13.9476590000
0
LINE
5
463
100
AcDbEntity
8
05
100
AcDbLine
62
7
6
CONTINUOUS
10
327.5263210000
20
15.2488860000
11
327.9625450000
21
15.6851100000
0
LINE
5
464
100
AcDbEntity
8
05
100
AcDbLine
62
7
6
CONTINUOUS
10
325.8440880000
20
13.2484550000
11
326.3438720000
21
13.7482390000
0
LINE
5
465
100
AcDbEntity
8
05
100
AcDbLine
62
7
6
CONTINUOUS
10
327.8104210000
20
15.2147880000
11
328.2663950000
21
15.6707620000
0
LINE
5
466
100
AcDbEntity
8
05
100
AcDbLine
62
7
6
CONTINUOUS
10
326.1423120000
20
13.2284810000
11
326.5883040000
21
13.6744730000
0
LINE
5
467
100
AcDbEntity
8
05
100
AcDbLine
62
7
6
CONTINUOUS
10
328.0259950000
20
15.1121640000
11
328.5639730000
21
15.6501420000
0
LINE
5
468
100
AcDbEntity
8
05
100
AcDbLine
62
7
6
CONTINUOUS
10
326.4468470000
20
13.2148180000
11
326.8836220000
21
13.6515930000
0
LINE
5
469
100
AcDbEntity
8
05
100
AcDbLine
62
7
6
CONTINUOUS
10
328.1960220000
20
14.9639930000
11
328.8556280000
21
15.6235990000
0
LINE
5
46A
100
AcDbEntity
8
05
100
AcDbLine
62
7
6
CONTINUOUS
10
327.3537820000
20
14.1217520000
11
327.5334060000
21
14.3013760000
0
LINE
5
46B
100
AcDbEntity
8
05
100
AcDbLine
62
7
6
CONTINUOUS
10
326.7580900000
20
13.2078620000
11
327.2048330000
21
13.6546050000
0
LINE
5
46C
100
AcDbEntity
8
05
100
AcDbLine
62
7
6
CONTINUOUS
10
328.5142200000
20
14.9639930000
11
329.1416670000
21
15.5914400000
0
LINE
5
46D
100
AcDbEntity
8
05
100
AcDbLine
62
7
6
CONTINUOUS
10
327.6288760000
20
14.0786490000
11
327.8516040000
21
14.3013760000
0
LINE
5
46E
100
AcDbEntity
8
05
100
AcDbLine
62
7
6
CONTINUOUS
10
327.0764930000
20
13.2080680000
11
327.5603930000
21
13.6919670000
0
LINE
5
46F
100
AcDbEntity
8
05
100
AcDbLine
62
7
6
CONTINUOUS
10
328.8324180000
20
14.9639930000
11
329.4223670000
21
15.5539410000
0
LINE
5
470
100
AcDbEntity
8
05
100
AcDbLine
62
7
6
CONTINUOUS
10
327.9470740000
20
14.0786490000
11
328.1698020000
21
14.3013760000
0
LINE
5
471
100
AcDbEntity
8
05
100
AcDbLine
62
7
6
CONTINUOUS
10
327.4025750000
20
13.2159520000
11
328.4880000000
21
14.3013760000
0
LINE
5
472
100
AcDbEntity
8
05
100
AcDbLine
62
7
6
CONTINUOUS
10
329.1506160000
20
14.9639930000
11
329.6387420000
21
15.4521180000
0
LINE
5
473
100
AcDbEntity
8
05
100
AcDbLine
62
7
6
CONTINUOUS
10
327.7369360000
20
13.2321150000
11
328.8061980000
21
14.3013760000
0
LINE
5
474
100
AcDbEntity
8
05
100
AcDbLine
62
7
6
CONTINUOUS
10
329.4688140000
20
14.9639930000
11
329.7195490000
21
15.2147280000
0
LINE
5
475
100
AcDbEntity
8
05
100
AcDbLine
62
7
6
CONTINUOUS
10
328.0319720000
20
13.2089520000
11
329.1243960000
21
14.3013760000
0
LINE
5
476
100
AcDbEntity
8
05
100
AcDbLine
62
7
6
CONTINUOUS
10
328.3501700000
20
13.2089520000
11
329.4425940000
21
14.3013760000
0
LINE
5
477
100
AcDbEntity
8
05
100
AcDbLine
62
7
6
CONTINUOUS
10
328.6683680000
20
13.2089520000
11
329.5166470000
21
14.0572320000
0
LINE
5
478
100
AcDbEntity
8
05
100
AcDbLine
62
7
6
CONTINUOUS
10
328.9865660000
20
13.2089520000
11
329.4485290000
21
13.6709160000
0
LINE
5
479
100
AcDbEntity
8
05
100
AcDbLine
62
7
6
CONTINUOUS
10
329.3047640000
20
13.2089520000
11
329.3804110000
21
13.2846000000
0
LINE
5
47A
100
AcDbEntity
8
05
100
AcDbLine
62
7
6
CONTINUOUS
10
304.8961450000
20
13.2089520000
11
304.6025370000
21
13.5025600000
0
LINE
5
47B
100
AcDbEntity
8
05
100
AcDbLine
62
7
6
CONTINUOUS
10
303.1776440000
20
14.9274530000
11
302.4120250000
21
15.6930720000
0
LINE
5
47C
100
AcDbEntity
8
05
100
AcDbLine
62
7
6
CONTINUOUS
10
303.9698570000
20
14.1352400000
11
303.6798790000
21
14.4252180000
0
LINE
5
47D
100
AcDbEntity
8
05
100
AcDbLine
62
7
6
CONTINUOUS
10
303.6516590000
20
14.1352400000
11
303.3616810000
21
14.4252180000
0
LINE
5
47E
100
AcDbEntity
8
05
100
AcDbLine
62
7
6
CONTINUOUS
10
303.1199030000
20
14.6669960000
11
302.0938270000
21
15.6930720000
0
LINE
5
47F
100
AcDbEntity
8
05
100
AcDbLine
62
7
6
CONTINUOUS
10
303.3334610000
20
14.1352400000
11
301.7756290000
21
15.6930720000
0
LINE
5
480
100
AcDbEntity
8
05
100
AcDbLine
62
7
6
CONTINUOUS
10
303.0152630000
20
14.1352400000
11
301.6064980000
21
15.5440050000
0
LINE
5
481
100
AcDbEntity
8
05
100
AcDbLine
62
7
6
CONTINUOUS
10
302.9466770000
20
13.8856280000
11
301.5487570000
21
15.2835480000
0
LINE
5
482
100
AcDbEntity
8
05
100
AcDbLine
62
7
6
CONTINUOUS
10
302.8889360000
20
13.6251710000
11
301.4910150000
21
15.0230920000
0
LINE
5
483
100
AcDbEntity
8
05
100
AcDbLine
62
7
6
CONTINUOUS
10
301.0462220000
20
15.4678850000
11
300.8210350000
21
15.6930720000
0
LINE
5
484
100
AcDbEntity
8
05
100
AcDbLine
62
7
6
CONTINUOUS
10
302.8311940000
20
13.3647150000
11
301.4332730000
21
14.7626360000
0
LINE
5
485
100
AcDbEntity
8
05
100
AcDbLine
62
7
6
CONTINUOUS
10
300.9884800000
20
15.2074290000
11
300.5028370000
21
15.6930720000
0
LINE
5
486
100
AcDbEntity
8
05
100
AcDbLine
62
7
6
CONTINUOUS
10
302.6687580000
20
13.2089520000
11
301.3755310000
21
14.5021790000
0
LINE
5
487
100
AcDbEntity
8
05
100
AcDbLine
62
7
6
CONTINUOUS
10
300.8056690000
20
15.0720420000
11
300.1846390000
21
15.6930720000
0
LINE
5
488
100
AcDbEntity
8
05
100
AcDbLine
62
7
6
CONTINUOUS
10
302.3505600000
20
13.2089520000
11
301.3177890000
21
14.2417230000
0
LINE
5
489
100
AcDbEntity
8
05
100
AcDbLine
62
7
6
CONTINUOUS
10
300.4874710000
20
15.0720420000
11
299.8664410000
21
15.6930720000
0
LINE
5
48A
100
AcDbEntity
8
05
100
AcDbLine
62
7
6
CONTINUOUS
10
302.0323620000
20
13.2089520000
11
301.2600480000
21
13.9812670000
0
LINE
5
48B
100
AcDbEntity
8
05
100
AcDbLine
62
7
6
CONTINUOUS
10
300.1692730000
20
15.0720420000
11
299.5482430000
21
15.6930720000
0
LINE
5
48C
100
AcDbEntity
8
05
100
AcDbLine
62
7
6
CONTINUOUS
10
301.7141640000
20
13.2089520000
11
301.2023060000
21
13.7208110000
0
LINE
5
48D
100
AcDbEntity
8
05
100
AcDbLine
62
7
6
CONTINUOUS
10
299.8510750000
20
15.0720420000
11
299.2300450000
21
15.6930720000
0
LINE
5
48E
100
AcDbEntity
8
05
100
AcDbLine
62
7
6
CONTINUOUS
10
301.3959660000
20
13.2089520000
11
301.1445640000
21
13.4603540000
0
LINE
5
48F
100
AcDbEntity
8
05
100
AcDbLine
62
7
6
CONTINUOUS
10
299.5328760000
20
15.0720420000
11
298.9118470000
21
15.6930720000
0
LINE
5
490
100
AcDbEntity
8
05
100
AcDbLine
62
7
6
CONTINUOUS
10
299.3076510000
20
14.9790700000
11
298.5936480000
21
15.6930720000
0
LINE
5
491
100
AcDbEntity
8
05
100
AcDbLine
62
7
6
CONTINUOUS
10
299.2499090000
20
14.7186140000
11
298.2754500000
21
15.6930720000
0
LINE
5
492
100
AcDbEntity
8
05
100
AcDbLine
62
7
6
CONTINUOUS
10
299.1921670000
20
14.4581570000
11
297.9572520000
21
15.6930720000
0
LINE
5
493
100
AcDbEntity
8
05
100
AcDbLine
62
7
6
CONTINUOUS
10
299.1344250000
20
14.1977010000
11
297.6390540000
21
15.6930720000
0
LINE
5
494
100
AcDbEntity
8
05
100
AcDbLine
62
7
6
CONTINUOUS
10
299.0766830000
20
13.9372450000
11
297.3208560000
21
15.6930720000
0
LINE
5
495
100
AcDbEntity
8
05
100
AcDbLine
62
7
6
CONTINUOUS
10
299.0189420000
20
13.6767880000
11
297.0026580000
21
15.6930720000
0
LINE
5
496
100
AcDbEntity
8
05
100
AcDbLine
62
7
6
CONTINUOUS
10
298.9612000000
20
13.4163320000
11
297.5632790000
21
14.8142530000
0
LINE
5
497
100
AcDbEntity
8
05
100
AcDbLine
62
7
6
CONTINUOUS
10
297.3054900000
20
15.0720420000
11
296.6844600000
21
15.6930720000
0
LINE
5
498
100
AcDbEntity
8
05
100
AcDbLine
62
7
6
CONTINUOUS
10
298.8503820000
20
13.2089520000
11
297.5055370000
21
14.5537970000
0
LINE
5
499
100
AcDbEntity
8
05
100
AcDbLine
62
7
6
CONTINUOUS
10
296.9872920000
20
15.0720420000
11
296.3662620000
21
15.6930720000
0
LINE
5
49A
100
AcDbEntity
8
05
100
AcDbLine
62
7
6
CONTINUOUS
10
298.5321840000
20
13.2089520000
11
297.4477960000
21
14.2933400000
0
LINE
5
49B
100
AcDbEntity
8
05
100
AcDbLine
62
7
6
CONTINUOUS
10
296.6690940000
20
15.0720420000
11
296.1769590000
21
15.5641770000
0
LINE
5
49C
100
AcDbEntity
8
05
100
AcDbLine
62
7
6
CONTINUOUS
10
298.2139860000
20
13.2089520000
11
297.3900540000
21
14.0328840000
0
LINE
5
49D
100
AcDbEntity
8
05
100
AcDbLine
62
7
6
CONTINUOUS
10
295.7492670000
20
15.6736710000
11
295.7298660000
21
15.6930720000
0
LINE
5
49E
100
AcDbEntity
8
05
100
AcDbLine
62
7
6
CONTINUOUS
10
296.3508960000
20
15.0720420000
11
296.1192170000
21
15.3037210000
0
LINE
5
49F
100
AcDbEntity
8
05
100
AcDbLine
62
7
6
CONTINUOUS
10
297.8957880000
20
13.2089520000
11
297.3323120000
21
13.7724280000
0
LINE
5
4A0
100
AcDbEntity
8
05
100
AcDbLine
62
7
6
CONTINUOUS
10
295.6915250000
20
15.4132140000
11
295.4116680000
21
15.6930720000
0
LINE
5
4A1
100
AcDbEntity
8
05
100
AcDbLine
62
7
6
CONTINUOUS
10
297.5775900000
20
13.2089520000
11
297.2745700000
21
13.5119710000
0
LINE
5
4A2
100
AcDbEntity
8
05
100
AcDbLine
62
7
6
CONTINUOUS
10
295.6337840000
20
15.1527580000
11
295.0934700000
21
15.6930720000
0
LINE
5
4A3
100
AcDbEntity
8
05
100
AcDbLine
62
7
6
CONTINUOUS
10
297.2593920000
20
13.2089520000
11
297.2168290000
21
13.2515150000
0
LINE
5
4A4
100
AcDbEntity
8
05
100
AcDbLine
62
7
6
CONTINUOUS
10
295.5760420000
20
14.8923020000
11
294.7752720000
21
15.6930720000
0
LINE
5
4A5
100
AcDbEntity
8
05
100
AcDbLine
62
7
6
CONTINUOUS
10
295.5183000000
20
14.6318460000
11
294.4570740000
21
15.6930720000
0
LINE
5
4A6
100
AcDbEntity
8
05
100
AcDbLine
62
7
6
CONTINUOUS
10
295.4605580000
20
14.3713890000
11
294.1388760000
21
15.6930720000
0
LINE
5
4A7
100
AcDbEntity
8
05
100
AcDbLine
62
7
6
CONTINUOUS
10
295.4028170000
20
14.1109330000
11
294.0084280000
21
15.5053220000
0
LINE
5
4A8
100
AcDbEntity
8
05
100
AcDbLine
62
7
6
CONTINUOUS
10
295.3450750000
20
13.8504770000
11
293.9506860000
21
15.2448650000
0
LINE
5
4A9
100
AcDbEntity
8
05
100
AcDbLine
62
7
6
CONTINUOUS
10
295.2138080000
20
13.6635450000
11
293.8929450000
21
14.9844090000
0
LINE
5
4AA
100
AcDbEntity
8
05
100
AcDbLine
62
7
6
CONTINUOUS
10
295.0174480000
20
13.5417070000
11
293.8352030000
21
14.7239530000
0
LINE
5
4AB
100
AcDbEntity
8
05
100
AcDbLine
62
7
6
CONTINUOUS
10
294.8026520000
20
13.4383050000
11
293.7774610000
21
14.4634960000
0
LINE
5
4AC
100
AcDbEntity
8
05
100
AcDbLine
62
7
6
CONTINUOUS
10
294.5671730000
20
13.3555860000
11
293.7197190000
21
14.2030400000
0
LINE
5
4AD
100
AcDbEntity
8
05
100
AcDbLine
62
7
6
CONTINUOUS
10
294.3151830000
20
13.2893790000
11
293.6187120000
21
13.9858500000
0
LINE
5
4AE
100
AcDbEntity
8
05
100
AcDbLine
62
7
6
CONTINUOUS
10
292.1186190000
20
15.4859430000
11
291.9114890000
21
15.6930720000
0
LINE
5
4AF
100
AcDbEntity
8
05
100
AcDbLine
62
7
6
CONTINUOUS
10
294.0511440000
20
13.2352190000
11
293.4221760000
21
13.8641880000
0
LINE
5
4B0
100
AcDbEntity
8
05
100
AcDbLine
62
7
6
CONTINUOUS
10
292.0608770000
20
15.2254860000
11
291.5932910000
21
15.6930720000
0
LINE
5
4B1
100
AcDbEntity
8
05
100
AcDbLine
62
7
6
CONTINUOUS
10
293.7736700000
20
13.1944950000
11
293.1774040000
21
13.7907610000
0
LINE
5
4B2
100
AcDbEntity
8
05
100
AcDbLine
62
7
6
CONTINUOUS
10
292.0031350000
20
14.9650300000
11
291.2750930000
21
15.6930720000
0
LINE
5
4B3
100
AcDbEntity
8
05
100
AcDbLine
62
7
6
CONTINUOUS
10
293.4851820000
20
13.1647850000
11
292.8938350000
21
13.7561320000
0
LINE
5
4B4
100
AcDbEntity
8
05
100
AcDbLine
62
7
6
CONTINUOUS
10
291.9453930000
20
14.7045740000
11
290.9568950000
21
15.6930720000
0
LINE
5
4B5
100
AcDbEntity
8
05
100
AcDbLine
62
7
6
CONTINUOUS
10
293.1877790000
20
13.1439900000
11
292.5712750000
21
13.7604950000
0
LINE
5
4B6
100
AcDbEntity
8
05
100
AcDbLine
62
7
6
CONTINUOUS
10
291.8876520000
20
14.4441170000
11
290.6386970000
21
15.6930720000
0
LINE
5
4B7
100
AcDbEntity
8
05
100
AcDbLine
62
7
6
CONTINUOUS
10
292.8806500000
20
13.1329210000
11
292.1766500000
21
13.8369210000
0
LINE
5
4B8
100
AcDbEntity
8
05
100
AcDbLine
62
7
6
CONTINUOUS
10
291.8299100000
20
14.1836610000
11
290.4355100000
21
15.5780610000
0
LINE
5
4B9
100
AcDbEntity
8
05
100
AcDbLine
62
7
6
CONTINUOUS
10
292.5628170000
20
13.1325560000
11
290.3777680000
21
15.3176050000
0
LINE
5
4BA
100
AcDbEntity
8
05
100
AcDbLine
62
7
6
CONTINUOUS
10
292.2330740000
20
13.1441010000
11
290.3200260000
21
15.0571490000
0
LINE
5
4BB
100
AcDbEntity
8
05
100
AcDbLine
62
7
6
CONTINUOUS
10
289.6846080000
20
15.6925670000
11
289.6841030000
21
15.6930720000
0
LINE
5
4BC
100
AcDbEntity
8
05
100
AcDbLine
62
7
6
CONTINUOUS
10
291.8899190000
20
13.1690580000
11
290.2622840000
21
14.7966920000
0
LINE
5
4BD
100
AcDbEntity
8
05
100
AcDbLine
62
7
6
CONTINUOUS
10
289.6268660000
20
15.4321110000
11
289.3659050000
21
15.6930720000
0
LINE
5
4BE
100
AcDbEntity
8
05
100
AcDbLine
62
7
6
CONTINUOUS
10
291.5309040000
20
13.2098750000
11
290.2045430000
21
14.5362360000
0
LINE
5
4BF
100
AcDbEntity
8
05
100
AcDbLine
62
7
6
CONTINUOUS
10
289.4876850000
20
15.2530940000
11
289.0477070000
21
15.6930720000
0
LINE
5
4C0
100
AcDbEntity
8
05
100
AcDbLine
62
7
6
CONTINUOUS
10
291.1408320000
20
13.2817490000
11
290.1468010000
21
14.2757800000
0
LINE
5
4C1
100
AcDbEntity
8
05
100
AcDbLine
62
7
6
CONTINUOUS
10
289.1694870000
20
15.2530940000
11
288.7295090000
21
15.6930720000
0
LINE
5
4C2
100
AcDbEntity
8
05
100
AcDbLine
62
7
6
CONTINUOUS
10
290.6959590000
20
13.4084240000
11
290.0890590000
21
14.0153240000
0
LINE
5
4C3
100
AcDbEntity
8
05
100
AcDbLine
62
7
6
CONTINUOUS
10
288.8512890000
20
15.2530940000
11
288.4113110000
21
15.6930720000
0
LINE
5
4C4
100
AcDbEntity
8
05
100
AcDbLine
62
7
6
CONTINUOUS
10
289.2052730000
20
14.5809110000
11
289.1901830000
21
14.5960010000
0
LINE
5
4C5
100
AcDbEntity
8
05
100
AcDbLine
62
7
6
CONTINUOUS
10
288.5330910000
20
15.2530940000
11
288.0931130000
21
15.6930720000
0
LINE
5
4C6
100
AcDbEntity
8
05
100
AcDbLine
62
7
6
CONTINUOUS
10
289.1475320000
20
14.3204550000
11
288.8719850000
21
14.5960010000
0
LINE
5
4C7
100
AcDbEntity
8
05
100
AcDbLine
62
7
6
CONTINUOUS
10
288.2148930000
20
15.2530940000
11
287.7749150000
21
15.6930720000
0
LINE
5
4C8
100
AcDbEntity
8
05
100
AcDbLine
62
7
6
CONTINUOUS
10
288.8437660000
20
14.3060230000
11
288.5537870000
21
14.5960010000
0
LINE
5
4C9
100
AcDbEntity
8
05
100
AcDbLine
62
7
6
CONTINUOUS
10
287.8966950000
20
15.2530940000
11
287.4567170000
21
15.6930720000
0
LINE
5
4CA
100
AcDbEntity
8
05
100
AcDbLine
62
7
6
CONTINUOUS
10
289.2226740000
20
13.6089170000
11
289.1826600000
21
13.6489310000
0
LINE
5
4CB
100
AcDbEntity
8
05
100
AcDbLine
62
7
6
CONTINUOUS
10
287.5784970000
20
15.2530940000
11
287.1385190000
21
15.6930720000
0
LINE
5
4CC
100
AcDbEntity
8
05
100
AcDbLine
62
7
6
CONTINUOUS
10
288.5255680000
20
14.3060230000
11
288.2355890000
21
14.5960010000
0
LINE
5
4CD
100
AcDbEntity
8
05
100
AcDbLine
62
7
6
CONTINUOUS
10
289.1649320000
20
13.3484610000
11
288.8644620000
21
13.6489310000
0
LINE
5
4CE
100
AcDbEntity
8
05
100
AcDbLine
62
7
6
CONTINUOUS
10
287.2602990000
20
15.2530940000
11
286.8203210000
21
15.6930720000
0
LINE
5
4CF
100
AcDbEntity
8
05
100
AcDbLine
62
7
6
CONTINUOUS
10
288.2073700000
20
14.3060230000
11
287.9173910000
21
14.5960010000
0
LINE
5
4D0
100
AcDbEntity
8
05
100
AcDbLine
62
7
6
CONTINUOUS
10
288.9862420000
20
13.2089520000
11
288.5462640000
21
13.6489310000
0
LINE
5
4D1
100
AcDbEntity
8
05
100
AcDbLine
62
7
6
CONTINUOUS
10
286.9421010000
20
15.2530940000
11
286.5021230000
21
15.6930720000
0
LINE
5
4D2
100
AcDbEntity
8
05
100
AcDbLine
62
7
6
CONTINUOUS
10
287.8891720000
20
14.3060230000
11
287.5991930000
21
14.5960010000
0
LINE
5
4D3
100
AcDbEntity
8
05
100
AcDbLine
62
7
6
CONTINUOUS
10
288.6680440000
20
13.2089520000
11
288.2280660000
21
13.6489310000
0
LINE
5
4D4
100
AcDbEntity
8
05
100
AcDbLine
62
7
6
CONTINUOUS
10
286.6348580000
20
15.2421380000
11
286.1839240000
21
15.6930720000
0
LINE
5
4D5
100
AcDbEntity
8
05
100
AcDbLine
62
7
6
CONTINUOUS
10
287.5709740000
20
14.3060230000
11
287.2809950000
21
14.5960010000
0
LINE
5
4D6
100
AcDbEntity
8
05
100
AcDbLine
62
7
6
CONTINUOUS
10
288.3498460000
20
13.2089520000
11
287.9098680000
21
13.6489310000
0
LINE
5
4D7
100
AcDbEntity
8
05
100
AcDbLine
62
7
6
CONTINUOUS
10
286.5771160000
20
14.9816820000
11
285.8657260000
21
15.6930720000
0
LINE
5
4D8
100
AcDbEntity
8
05
100
AcDbLine
62
7
6
CONTINUOUS
10
287.2527750000
20
14.3060230000
11
286.9627970000
21
14.5960010000
0
LINE
5
4D9
100
AcDbEntity
8
05
100
AcDbLine
62
7
6
CONTINUOUS
10
288.0316480000
20
13.2089520000
11
287.5916700000
21
13.6489310000
0
LINE
5
4DA
100
AcDbEntity
8
05
100
AcDbLine
62
7
6
CONTINUOUS
10
286.5193740000
20
14.7212260000
11
285.5475280000
21
15.6930720000
0
LINE
5
4DB
100
AcDbEntity
8
05
100
AcDbLine
62
7
6
CONTINUOUS
10
286.9345770000
20
14.3060230000
11
286.6445990000
21
14.5960010000
0
LINE
5
4DC
100
AcDbEntity
8
05
100
AcDbLine
62
7
6
CONTINUOUS
10
287.7134500000
20
13.2089520000
11
287.2734720000
21
13.6489310000
0
LINE
5
4DD
100
AcDbEntity
8
05
100
AcDbLine
62
7
6
CONTINUOUS
10
286.6163790000
20
14.3060230000
11
285.2293300000
21
15.6930720000
0
LINE
5
4DE
100
AcDbEntity
8
05
100
AcDbLine
62
7
6
CONTINUOUS
10
287.3952520000
20
13.2089520000
11
286.9552740000
21
13.6489310000
0
LINE
5
4DF
100
AcDbEntity
8
05
100
AcDbLine
62
7
6
CONTINUOUS
10
286.4038910000
20
14.2003130000
11
285.0059700000
21
15.5982340000
0
LINE
5
4E0
100
AcDbEntity
8
05
100
AcDbLine
62
7
6
CONTINUOUS
10
287.0770540000
20
13.2089520000
11
286.6370750000
21
13.6489310000
0
LINE
5
4E1
100
AcDbEntity
8
05
100
AcDbLine
62
7
6
CONTINUOUS
10
286.3461490000
20
13.9398570000
11
284.9482280000
21
15.3377780000
0
LINE
5
4E2
100
AcDbEntity
8
05
100
AcDbLine
62
7
6
CONTINUOUS
10
286.7588560000
20
13.2089520000
11
286.3188770000
21
13.6489310000
0
LINE
5
4E3
100
AcDbEntity
8
05
100
AcDbLine
62
7
6
CONTINUOUS
10
286.2884070000
20
13.6794010000
11
284.8904870000
21
15.0773220000
0
LINE
5
4E4
100
AcDbEntity
8
05
100
AcDbLine
62
7
6
CONTINUOUS
10
286.4406580000
20
13.2089520000
11
284.8327450000
21
14.8168650000
0
LINE
5
4E5
100
AcDbEntity
8
05
100
AcDbLine
62
7
6
CONTINUOUS
10
284.1337840000
20
15.5158260000
11
283.9565380000
21
15.6930720000
0
LINE
5
4E6
100
AcDbEntity
8
05
100
AcDbLine
62
7
6
CONTINUOUS
10
286.1224600000
20
13.2089520000
11
284.7750030000
21
14.5564090000
0
LINE
5
4E7
100
AcDbEntity
8
05
100
AcDbLine
62
7
6
CONTINUOUS
10
284.0760430000
20
15.2553690000
11
283.6383400000
21
15.6930720000
0
LINE
5
4E8
100
AcDbEntity
8
05
100
AcDbLine
62
7
6
CONTINUOUS
10
285.8042620000
20
13.2089520000
11
284.7172610000
21
14.2959530000
0
LINE
5
4E9
100
AcDbEntity
8
05
100
AcDbLine
62
7
6
CONTINUOUS
10
284.0183010000
20
14.9949130000
11
283.3201420000
21
15.6930720000
0
LINE
5
4EA
100
AcDbEntity
8
05
100
AcDbLine
62
7
6
CONTINUOUS
10
285.4860640000
20
13.2089520000
11
284.6595200000
21
14.0354960000
0
LINE
5
4EB
100
AcDbEntity
8
05
100
AcDbLine
62
7
6
CONTINUOUS
10
283.9605590000
20
14.7344570000
11
283.0019440000
21
15.6930720000
0
LINE
5
4EC
100
AcDbEntity
8
05
100
AcDbLine
62
7
6
CONTINUOUS
10
285.1678660000
20
13.2089520000
11
284.6017780000
21
13.7750400000
0
LINE
5
4ED
100
AcDbEntity
8
05
100
AcDbLine
62
7
6
CONTINUOUS
10
283.9028170000
20
14.4740000000
11
282.6837460000
21
15.6930720000
0
LINE
5
4EE
100
AcDbEntity
8
05
100
AcDbLine
62
7
6
CONTINUOUS
10
284.8496680000
20
13.2089520000
11
284.5440360000
21
13.5145840000
0
LINE
5
4EF
100
AcDbEntity
8
05
100
AcDbLine
62
7
6
CONTINUOUS
10
283.8450760000
20
14.2135440000
11
282.4471550000
21
15.6114650000
0
LINE
5
4F0
100
AcDbEntity
8
05
100
AcDbLine
62
7
6
CONTINUOUS
10
284.5314700000
20
13.2089520000
11
284.4862940000
21
13.2541280000
0
LINE
5
4F1
100
AcDbEntity
8
05
100
AcDbLine
62
7
6
CONTINUOUS
10
283.7873340000
20
13.9530880000
11
282.3894130000
21
15.3510090000
0
LINE
5
4F2
100
AcDbEntity
8
05
100
AcDbLine
62
7
6
CONTINUOUS
10
283.7295920000
20
13.6926320000
11
282.3316710000
21
15.0905520000
0
LINE
5
4F3
100
AcDbEntity
8
05
100
AcDbLine
62
7
6
CONTINUOUS
10
283.6718500000
20
13.4321750000
11
282.2739300000
21
14.8300960000
0
LINE
5
4F4
100
AcDbEntity
8
05
100
AcDbLine
62
7
6
CONTINUOUS
10
283.5768750000
20
13.2089520000
11
282.0733040000
21
14.7125240000
0
LINE
5
4F5
100
AcDbEntity
8
05
100
AcDbLine
62
7
6
CONTINUOUS
10
283.2586770000
20
13.2089520000
11
280.9995820000
21
15.4680470000
0
LINE
5
4F6
100
AcDbEntity
8
05
100
AcDbLine
62
7
6
CONTINUOUS
10
282.9404790000
20
13.2089520000
11
280.4563600000
21
15.6930720000
0
LINE
5
4F7
100
AcDbEntity
8
05
100
AcDbLine
62
7
6
CONTINUOUS
10
282.6222810000
20
13.2089520000
11
280.1381610000
21
15.6930720000
0
LINE
5
4F8
100
AcDbEntity
8
05
100
AcDbLine
62
7
6
CONTINUOUS
10
282.3040830000
20
13.2089520000
11
279.8199630000
21
15.6930720000
0
LINE
5
4F9
100
AcDbEntity
8
05
100
AcDbLine
62
7
6
CONTINUOUS
10
281.9858850000
20
13.2089520000
11
279.5017650000
21
15.6930720000
0
LINE
5
4FA
100
AcDbEntity
8
05
100
AcDbLine
62
7
6
CONTINUOUS
10
281.5426650000
20
13.3339750000
11
279.1835670000
21
15.6930720000
0
LINE
5
4FB
100
AcDbEntity
8
05
100
AcDbLine
62
7
6
CONTINUOUS
10
280.0963650000
20
14.4620760000
11
278.8653690000
21
15.6930720000
0
LINE
5
4FC
100
AcDbEntity
8
05
100
AcDbLine
62
7
6
CONTINUOUS
10
280.0386240000
20
14.2016200000
11
278.6407030000
21
15.5995400000
0
LINE
5
4FD
100
AcDbEntity
8
05
100
AcDbLine
62
7
6
CONTINUOUS
10
279.9808820000
20
13.9411630000
11
278.5829610000
21
15.3390840000
0
LINE
5
4FE
100
AcDbEntity
8
05
100
AcDbLine
62
7
6
CONTINUOUS
10
279.9231400000
20
13.6807070000
11
278.5252190000
21
15.0786280000
0
LINE
5
4FF
100
AcDbEntity
8
05
100
AcDbLine
62
7
6
CONTINUOUS
10
279.8653980000
20
13.4202510000
11
278.4674780000
21
14.8181710000
0
LINE
5
500
100
AcDbEntity
8
05
100
AcDbLine
62
7
6
CONTINUOUS
10
279.7584990000
20
13.2089520000
11
278.4097360000
21
14.5577150000
0
LINE
5
501
100
AcDbEntity
8
05
100
AcDbLine
62
7
6
CONTINUOUS
10
279.4403010000
20
13.2089520000
11
278.3519940000
21
14.2972590000
0
LINE
5
502
100
AcDbEntity
8
05
100
AcDbLine
62
7
6
CONTINUOUS
10
279.1221030000
20
13.2089520000
11
278.2942520000
21
14.0368030000
0
LINE
5
503
100
AcDbEntity
8
05
100
AcDbLine
62
7
6
CONTINUOUS
10
278.8039050000
20
13.2089520000
11
278.2365110000
21
13.7763460000
0
LINE
5
504
100
AcDbEntity
8
05
100
AcDbLine
62
7
6
CONTINUOUS
10
278.4857070000
20
13.2089520000
11
278.1787690000
21
13.5158900000
0
LINE
5
505
100
AcDbEntity
8
05
100
AcDbLine
62
7
6
CONTINUOUS
10
278.1675080000
20
13.2089520000
11
278.1210270000
21
13.2554340000
0
LINE
5
506
100
AcDbEntity
8
05
100
AcDbLine
62
7
6
CONTINUOUS
10
305.2143430000
20
13.2089520000
11
304.6229950000
21
13.8003000000
0
LINE
5
507
100
AcDbEntity
8
05
100
AcDbLine
62
7
6
CONTINUOUS
10
303.2353860000
20
15.1879090000
11
302.7302230000
21
15.6930720000
0
LINE
5
508
100
AcDbEntity
8
05
100
AcDbLine
62
7
6
CONTINUOUS
10
304.2880550000
20
14.1352400000
11
303.9980770000
21
14.4252180000
0
LINE
5
509
100
AcDbEntity
8
05
100
AcDbLine
62
7
6
CONTINUOUS
10
305.5325410000
20
13.2089520000
11
304.3162750000
21
14.4252180000
0
LINE
5
50A
100
AcDbEntity
8
05
100
AcDbLine
62
7
6
CONTINUOUS
10
303.4884000000
20
15.2530940000
11
303.0484210000
21
15.6930720000
0
LINE
5
50B
100
AcDbEntity
8
05
100
AcDbLine
62
7
6
CONTINUOUS
10
305.8507390000
20
13.2089520000
11
304.5865410000
21
14.4731500000
0
LINE
5
50C
100
AcDbEntity
8
05
100
AcDbLine
62
7
6
CONTINUOUS
10
303.8065980000
20
15.2530940000
11
303.3666190000
21
15.6930720000
0
LINE
5
50D
100
AcDbEntity
8
05
100
AcDbLine
62
7
6
CONTINUOUS
10
306.1689370000
20
13.2089520000
11
304.7895650000
21
14.5883250000
0
LINE
5
50E
100
AcDbEntity
8
05
100
AcDbLine
62
7
6
CONTINUOUS
10
304.1247960000
20
15.2530940000
11
303.6848170000
21
15.6930720000
0
LINE
5
50F
100
AcDbEntity
8
05
100
AcDbLine
62
7
6
CONTINUOUS
10
306.3114220000
20
13.3846650000
11
304.9276840000
21
14.7684040000
0
LINE
5
510
100
AcDbEntity
8
05
100
AcDbLine
62
7
6
CONTINUOUS
10
304.4429940000
20
15.2530940000
11
304.0030150000
21
15.6930720000
0
LINE
5
511
100
AcDbEntity
8
05
100
AcDbLine
62
7
6
CONTINUOUS
10
306.3236390000
20
13.6906470000
11
304.9146710000
21
15.0996140000
0
LINE
5
512
100
AcDbEntity
8
05
100
AcDbLine
62
7
6
CONTINUOUS
10
304.7916150000
20
15.2226700000
11
304.3212130000
21
15.6930720000
0
LINE
5
513
100
AcDbEntity
8
05
100
AcDbLine
62
7
6
CONTINUOUS
10
306.3444350000
20
13.9880480000
11
304.6394110000
21
15.6930720000
0
LINE
5
514
100
AcDbEntity
8
05
100
AcDbLine
62
7
6
CONTINUOUS
10
307.4417290000
20
13.2089520000
11
307.1979220000
21
13.4527590000
0
LINE
5
515
100
AcDbEntity
8
05
100
AcDbLine
62
7
6
CONTINUOUS
10
306.2866150000
20
14.3640660000
11
304.9576100000
21
15.6930720000
0
LINE
5
516
100
AcDbEntity
8
05
100
AcDbLine
62
7
6
CONTINUOUS
10
307.7599270000
20
13.2089520000
11
307.2556640000
21
13.7132160000
0
LINE
5
517
100
AcDbEntity
8
05
100
AcDbLine
62
7
6
CONTINUOUS
10
306.4817000000
20
14.4871790000
11
305.2758080000
21
15.6930720000
0
LINE
5
518
100
AcDbEntity
8
05
100
AcDbLine
62
7
6
CONTINUOUS
10
308.0781250000
20
13.2089520000
11
307.3134060000
21
13.9736720000
0
LINE
5
519
100
AcDbEntity
8
05
100
AcDbLine
62
7
6
CONTINUOUS
10
306.6502860000
20
14.6367910000
11
305.5940060000
21
15.6930720000
0
LINE
5
51A
100
AcDbEntity
8
05
100
AcDbLine
62
7
6
CONTINUOUS
10
308.3963230000
20
13.2089520000
11
307.3711480000
21
14.2341280000
0
LINE
5
51B
100
AcDbEntity
8
05
100
AcDbLine
62
7
6
CONTINUOUS
10
306.7853460000
20
14.8199300000
11
305.9122040000
21
15.6930720000
0
LINE
5
51C
100
AcDbEntity
8
05
100
AcDbLine
62
7
6
CONTINUOUS
10
308.7145210000
20
13.2089520000
11
307.4288890000
21
14.4945840000
0
LINE
5
51D
100
AcDbEntity
8
05
100
AcDbLine
62
7
6
CONTINUOUS
10
306.8709020000
20
15.0525710000
11
306.2554280000
21
15.6680460000
0
LINE
5
51E
100
AcDbEntity
8
05
100
AcDbLine
62
7
6
CONTINUOUS
10
308.8845520000
20
13.3571200000
11
307.4866310000
21
14.7550410000
0
LINE
5
51F
100
AcDbEntity
8
05
100
AcDbLine
62
7
6
CONTINUOUS
10
308.9422940000
20
13.6175760000
11
307.5443730000
21
15.0154970000
0
LINE
5
520
100
AcDbEntity
8
05
100
AcDbLine
62
7
6
CONTINUOUS
10
309.0000350000
20
13.8780330000
11
307.6021150000
21
15.2759530000
0
LINE
5
521
100
AcDbEntity
8
05
100
AcDbLine
62
7
6
CONTINUOUS
10
309.9873140000
20
13.2089520000
11
309.8838210000
21
13.3124450000
0
LINE
5
522
100
AcDbEntity
8
05
100
AcDbLine
62
7
6
CONTINUOUS
10
309.0577770000
20
14.1384890000
11
307.6598560000
21
15.5364100000
0
LINE
5
523
100
AcDbEntity
8
05
100
AcDbLine
62
7
6
CONTINUOUS
10
310.3055120000
20
13.2089520000
11
309.9415630000
21
13.5729010000
0
LINE
5
524
100
AcDbEntity
8
05
100
AcDbLine
62
7
6
CONTINUOUS
10
309.1155190000
20
14.3989450000
11
307.8213920000
21
15.6930720000
0
LINE
5
525
100
AcDbEntity
8
05
100
AcDbLine
62
7
6
CONTINUOUS
10
310.6237100000
20
13.2089520000
11
309.9993050000
21
13.8333570000
0
LINE
5
526
100
AcDbEntity
8
05
100
AcDbLine
62
7
6
CONTINUOUS
10
309.1732610000
20
14.6594010000
11
308.1395900000
21
15.6930720000
0
LINE
5
527
100
AcDbEntity
8
05
100
AcDbLine
62
7
6
CONTINUOUS
10
310.9419080000
20
13.2089520000
11
310.0570460000
21
14.0938140000
0
LINE
5
528
100
AcDbEntity
8
05
100
AcDbLine
62
7
6
CONTINUOUS
10
309.2310020000
20
14.9198580000
11
308.4577880000
21
15.6930720000
0
LINE
5
529
100
AcDbEntity
8
05
100
AcDbLine
62
7
6
CONTINUOUS
10
311.2601060000
20
13.2089520000
11
310.1147880000
21
14.3542700000
0
LINE
5
52A
100
AcDbEntity
8
05
100
AcDbLine
62
7
6
CONTINUOUS
10
309.2887440000
20
15.1803140000
11
308.7759860000
21
15.6930720000
0
LINE
5
52B
100
AcDbEntity
8
05
100
AcDbLine
62
7
6
CONTINUOUS
10
311.5069090000
20
13.2803470000
11
310.1725300000
21
14.6147260000
0
LINE
5
52C
100
AcDbEntity
8
05
100
AcDbLine
62
7
6
CONTINUOUS
10
309.3464860000
20
15.4407700000
11
309.0941840000
21
15.6930720000
0
LINE
5
52D
100
AcDbEntity
8
05
100
AcDbLine
62
7
6
CONTINUOUS
10
311.5646510000
20
13.5408040000
11
310.2302720000
21
14.8751820000
0
LINE
5
52E
100
AcDbEntity
8
05
100
AcDbLine
62
7
6
CONTINUOUS
10
311.6223920000
20
13.8012600000
11
310.2880140000
21
15.1356390000
0
LINE
5
52F
100
AcDbEntity
8
05
100
AcDbLine
62
7
6
CONTINUOUS
10
311.8272750000
20
13.9145760000
11
310.3457550000
21
15.3960950000
0
LINE
5
530
100
AcDbEntity
8
05
100
AcDbLine
62
7
6
CONTINUOUS
10
312.0503950000
20
14.0096540000
11
310.4034970000
21
15.6565510000
0
LINE
5
531
100
AcDbEntity
8
05
100
AcDbLine
62
7
6
CONTINUOUS
10
312.2735140000
20
14.1047320000
11
310.6851740000
21
15.6930720000
0
LINE
5
532
100
AcDbEntity
8
05
100
AcDbLine
62
7
6
CONTINUOUS
10
313.4874920000
20
13.2089520000
11
311.0033720000
21
15.6930720000
0
LINE
5
533
100
AcDbEntity
8
05
100
AcDbLine
62
7
6
CONTINUOUS
10
313.8056900000
20
13.2089520000
11
312.0702760000
21
14.9443670000
0
LINE
5
534
100
AcDbEntity
8
05
100
AcDbLine
62
7
6
CONTINUOUS
10
311.9111010000
20
15.1035410000
11
311.3215710000
21
15.6930720000
0
LINE
5
535
100
AcDbEntity
8
05
100
AcDbLine
62
7
6
CONTINUOUS
10
314.1238880000
20
13.2089520000
11
312.2933950000
21
15.0394450000
0
LINE
5
536
100
AcDbEntity
8
05
100
AcDbLine
62
7
6
CONTINUOUS
10
311.9688430000
20
15.3639980000
11
311.6397690000
21
15.6930720000
0
LINE
5
537
100
AcDbEntity
8
05
100
AcDbLine
62
7
6
CONTINUOUS
10
314.4420860000
20
13.2089520000
11
312.5165150000
21
15.1345230000
0
LINE
5
538
100
AcDbEntity
8
05
100
AcDbLine
62
7
6
CONTINUOUS
10
312.0265850000
20
15.6244540000
11
311.9579670000
21
15.6930720000
0
LINE
5
539
100
AcDbEntity
8
05
100
AcDbLine
62
7
6
CONTINUOUS
10
314.7602840000
20
13.2089520000
11
312.7396350000
21
15.2296020000
0
LINE
5
53A
100
AcDbEntity
8
05
100
AcDbLine
62
7
6
CONTINUOUS
10
315.0784820000
20
13.2089520000
11
312.9627550000
21
15.3246800000
0
LINE
5
53B
100
AcDbEntity
8
05
100
AcDbLine
62
7
6
CONTINUOUS
10
315.3966810000
20
13.2089520000
11
313.1858740000
21
15.4197580000
0
LINE
5
53C
100
AcDbEntity
8
05
100
AcDbLine
62
7
6
CONTINUOUS
10
314.0584720000
20
14.8653590000
11
313.4089940000
21
15.5148370000
0
LINE
5
53D
100
AcDbEntity
8
05
100
AcDbLine
62
7
6
CONTINUOUS
10
314.2815920000
20
14.9604370000
11
313.6321140000
21
15.6099150000
0
LINE
5
53E
100
AcDbEntity
8
05
100
AcDbLine
62
7
6
CONTINUOUS
10
314.5047120000
20
15.0555150000
11
313.8671550000
21
15.6930720000
0
LINE
5
53F
100
AcDbEntity
8
05
100
AcDbLine
62
7
6
CONTINUOUS
10
314.7278310000
20
15.1505930000
11
314.1853530000
21
15.6930720000
0
LINE
5
540
100
AcDbEntity
8
05
100
AcDbLine
62
7
6
CONTINUOUS
10
314.9509510000
20
15.2456720000
11
314.5035510000
21
15.6930720000
0
LINE
5
541
100
AcDbEntity
8
05
100
AcDbLine
62
7
6
CONTINUOUS
10
315.1740710000
20
15.3407500000
11
314.8217490000
21
15.6930720000
0
LINE
5
542
100
AcDbEntity
8
05
100
AcDbLine
62
7
6
CONTINUOUS
10
315.3971910000
20
15.4358280000
11
315.1399470000
21
15.6930720000
0
LINE
5
543
100
AcDbEntity
8
05
100
AcDbLine
62
7
6
CONTINUOUS
10
315.6203100000
20
15.5309070000
11
315.4581450000
21
15.6930720000
0
LINE
5
544
100
AcDbEntity
8
05
100
AcDbLine
62
7
6
CONTINUOUS
10
315.8434300000
20
15.6259850000
11
315.7763430000
21
15.6930720000
0
LINE
5
545
100
AcDbEntity
8
05
100
AcDbLine
62
7
6
CONTINUOUS
10
318.5786610000
20
13.2089520000
11
318.5132270000
21
13.2743870000
0
LINE
5
546
100
AcDbEntity
8
05
100
AcDbLine
62
7
6
CONTINUOUS
10
318.8968590000
20
13.2089520000
11
318.6495970000
21
13.4562140000
0
LINE
5
547
100
AcDbEntity
8
05
100
AcDbLine
62
7
6
CONTINUOUS
10
319.2150570000
20
13.2089520000
11
318.7859680000
21
13.6380420000
0
LINE
5
548
100
AcDbEntity
8
05
100
AcDbLine
62
7
6
CONTINUOUS
10
319.5332550000
20
13.2089520000
11
318.9223380000
21
13.8198690000
0
LINE
5
549
100
AcDbEntity
8
05
100
AcDbLine
62
7
6
CONTINUOUS
10
319.8514530000
20
13.2089520000
11
319.0587090000
21
14.0016960000
0
LINE
5
54A
100
AcDbEntity
8
05
100
AcDbLine
62
7
6
CONTINUOUS
10
320.1528720000
20
13.2257320000
11
319.1950800000
21
14.1835240000
0
LINE
5
54B
100
AcDbEntity
8
05
100
AcDbLine
62
7
6
CONTINUOUS
10
320.2892420000
20
13.4075590000
11
319.3314500000
21
14.3653510000
0
LINE
5
54C
100
AcDbEntity
8
05
100
AcDbLine
62
7
6
CONTINUOUS
10
320.4256130000
20
13.5893870000
11
319.4678210000
21
14.5471790000
0
LINE
5
54D
100
AcDbEntity
8
05
100
AcDbLine
62
7
6
CONTINUOUS
10
320.6442140000
20
13.6889840000
11
319.6041910000
21
14.7290060000
0
LINE
5
54E
100
AcDbEntity
8
05
100
AcDbLine
62
7
6
CONTINUOUS
10
320.9624120000
20
13.6889840000
11
319.7405620000
21
14.9108340000
0
LINE
5
54F
100
AcDbEntity
8
05
100
AcDbLine
62
7
6
CONTINUOUS
10
321.2806100000
20
13.6889840000
11
320.9074220000
21
14.0621710000
0
LINE
5
550
100
AcDbEntity
8
05
100
AcDbLine
62
7
6
CONTINUOUS
10
320.8347250000
20
14.1348690000
11
319.8769330000
21
15.0926610000
0
LINE
5
551
100
AcDbEntity
8
05
100
AcDbLine
62
7
6
CONTINUOUS
10
321.5988080000
20
13.6889840000
11
321.2256200000
21
14.0621710000
0
LINE
5
552
100
AcDbEntity
8
05
100
AcDbLine
62
7
6
CONTINUOUS
10
320.9710950000
20
14.3166960000
11
320.0133030000
21
15.2744890000
0
LINE
5
553
100
AcDbEntity
8
05
100
AcDbLine
62
7
6
CONTINUOUS
10
322.3970380000
20
13.2089520000
11
322.3290410000
21
13.2769490000
0
LINE
5
554
100
AcDbEntity
8
05
100
AcDbLine
62
7
6
CONTINUOUS
10
321.1074660000
20
14.4985240000
11
320.1496740000
21
15.4563160000
0
LINE
5
555
100
AcDbEntity
8
05
100
AcDbLine
62
7
6
CONTINUOUS
10
321.9170060000
20
13.6889840000
11
321.5438180000
21
14.0621710000
0
LINE
5
556
100
AcDbEntity
8
05
100
AcDbLine
62
7
6
CONTINUOUS
10
322.7152360000
20
13.2089520000
11
321.8620160000
21
14.0621710000
0
LINE
5
557
100
AcDbEntity
8
05
100
AcDbLine
62
7
6
CONTINUOUS
10
321.2438370000
20
14.6803510000
11
320.2860440000
21
15.6381440000
0
LINE
5
558
100
AcDbEntity
8
05
100
AcDbLine
62
7
6
CONTINUOUS
10
323.0334340000
20
13.2089520000
11
322.1169090000
21
14.1254770000
0
LINE
5
559
100
AcDbEntity
8
05
100
AcDbLine
62
7
6
CONTINUOUS
10
321.3802070000
20
14.8621790000
11
320.5485850000
21
15.6938010000
0
LINE
5
55A
100
AcDbEntity
8
05
100
AcDbLine
62
7
6
CONTINUOUS
10
323.3516320000
20
13.2089520000
11
322.0108430000
21
14.5497410000
0
LINE
5
55B
100
AcDbEntity
8
05
100
AcDbLine
62
7
6
CONTINUOUS
10
321.5165780000
20
15.0440060000
11
320.8667830000
21
15.6938010000
0
LINE
5
55C
100
AcDbEntity
8
05
100
AcDbLine
62
7
6
CONTINUOUS
10
323.6698300000
20
13.2089520000
11
321.9047770000
21
14.9740050000
0
LINE
5
55D
100
AcDbEntity
8
05
100
AcDbLine
62
7
6
CONTINUOUS
10
321.6529480000
20
15.2258340000
11
321.1849810000
21
15.6938010000
0
LINE
5
55E
100
AcDbEntity
8
05
100
AcDbLine
62
7
6
CONTINUOUS
10
323.8755950000
20
13.3213850000
11
321.7987110000
21
15.3982690000
0
LINE
5
55F
100
AcDbEntity
8
05
100
AcDbLine
62
7
6
CONTINUOUS
10
321.7893190000
20
15.4076610000
11
321.5031790000
21
15.6938010000
0
LINE
5
560
100
AcDbEntity
8
05
100
AcDbLine
62
7
6
CONTINUOUS
10
323.7695290000
20
13.7456490000
11
321.8213770000
21
15.6938010000
0
LINE
5
561
100
AcDbEntity
8
05
100
AcDbLine
62
7
6
CONTINUOUS
10
323.6634630000
20
14.1699130000
11
322.1395760000
21
15.6938010000
0
LINE
5
562
100
AcDbEntity
8
05
100
AcDbLine
62
7
6
CONTINUOUS
10
324.7324920000
20
13.4190820000
11
324.6739720000
21
13.4776020000
0
LINE
5
563
100
AcDbEntity
8
05
100
AcDbLine
62
7
6
CONTINUOUS
10
323.5573970000
20
14.5941770000
11
322.4577740000
21
15.6938010000
0
LINE
5
564
100
AcDbEntity
8
05
100
AcDbLine
62
7
6
CONTINUOUS
10
325.1492980000
20
13.3204740000
11
324.6352250000
21
13.8345480000
0
LINE
5
565
100
AcDbEntity
8
05
100
AcDbLine
62
7
6
CONTINUOUS
10
323.4513310000
20
15.0184410000
11
322.7759720000
21
15.6938010000
0
LINE
5
566
100
AcDbEntity
8
05
100
AcDbLine
62
7
6
CONTINUOUS
10
325.5092820000
20
13.2786890000
11
324.6829220000
21
14.1050490000
0
LINE
5
567
100
AcDbEntity
8
05
100
AcDbLine
62
7
6
CONTINUOUS
10
323.3452650000
20
15.4427050000
11
323.0941700000
21
15.6938010000
0
LINE
5
568
100
AcDbEntity
8
05
100
AcDbLine
62
7
6
CONTINUOUS
10
325.8588570000
20
13.2473120000
11
324.7306180000
21
14.3755500000
0
LINE
5
569
100
AcDbEntity
8
05
100
AcDbLine
62
7
6
CONTINUOUS
10
326.1989400000
20
13.2254260000
11
324.7783150000
21
14.6460520000
0
LINE
5
56A
100
AcDbEntity
8
05
100
AcDbLine
62
7
6
CONTINUOUS
10
326.5303060000
20
13.2122580000
11
324.8260120000
21
14.9165530000
0
LINE
5
56B
100
AcDbEntity
8
05
100
AcDbLine
62
7
6
CONTINUOUS
10
326.8536160000
20
13.2071470000
11
324.8737080000
21
15.1870540000
0
LINE
5
56C
100
AcDbEntity
8
05
100
AcDbLine
62
7
6
CONTINUOUS
10
327.1694370000
20
13.2095230000
11
326.7175430000
21
13.6614180000
0
LINE
5
56D
100
AcDbEntity
8
05
100
AcDbLine
62
7
6
CONTINUOUS
10
326.2416420000
20
14.1373190000
11
324.9704990000
21
15.4084620000
0
LINE
5
56E
100
AcDbEntity
8
05
100
AcDbLine
62
7
6
CONTINUOUS
10
327.4782650000
20
13.2188940000
11
327.0476490000
21
13.6495100000
0
LINE
5
56F
100
AcDbEntity
8
05
100
AcDbLine
62
7
6
CONTINUOUS
10
326.2893390000
20
14.4078200000
11
325.1933910000
21
15.5037670000
0
LINE
5
570
100
AcDbEntity
8
05
100
AcDbLine
62
7
6
CONTINUOUS
10
327.7805300000
20
13.2348260000
11
327.3498670000
21
13.6654900000
0
LINE
5
571
100
AcDbEntity
8
05
100
AcDbLine
62
7
6
CONTINUOUS
10
326.3370350000
20
14.6783210000
11
325.4681720000
21
15.5471850000
0
LINE
5
572
100
AcDbEntity
8
05
100
AcDbLine
62
7
6
CONTINUOUS
10
328.1246030000
20
13.2089520000
11
327.6300090000
21
13.7035460000
0
LINE
5
573
100
AcDbEntity
8
05
100
AcDbLine
62
7
6
CONTINUOUS
10
326.3847320000
20
14.9488230000
11
325.7480050000
21
15.5855500000
0
LINE
5
574
100
AcDbEntity
8
05
100
AcDbLine
62
7
6
CONTINUOUS
10
328.4428010000
20
13.2089520000
11
327.8555260000
21
13.7962270000
0
LINE
5
575
100
AcDbEntity
8
05
100
AcDbLine
62
7
6
CONTINUOUS
10
326.5029990000
20
15.1487530000
11
326.0331350000
21
15.6186170000
0
LINE
5
576
100
AcDbEntity
8
05
100
AcDbLine
62
7
6
CONTINUOUS
10
327.5731040000
20
14.0786490000
11
327.3801960000
21
14.2715570000
0
LINE
5
577
100
AcDbEntity
8
05
100
AcDbLine
62
7
6
CONTINUOUS
10
328.7609990000
20
13.2089520000
11
327.9559880000
21
14.0139630000
0
LINE
5
578
100
AcDbEntity
8
05
100
AcDbLine
62
7
6
CONTINUOUS
10
326.7450410000
20
15.2249100000
11
326.3238330000
21
15.6461180000
0
LINE
5
579
100
AcDbEntity
8
05
100
AcDbLine
62
7
6
CONTINUOUS
10
327.8913020000
20
14.0786490000
11
327.6685740000
21
14.3013760000
0
LINE
5
57A
100
AcDbEntity
8
05
100
AcDbLine
62
7
6
CONTINUOUS
10
329.0791970000
20
13.2089520000
11
327.9867720000
21
14.3013760000
0
LINE
5
57B
100
AcDbEntity
8
05
100
AcDbLine
62
7
6
CONTINUOUS
10
327.0342750000
20
15.2538740000
11
326.6204010000
21
15.6677480000
0
LINE
5
57C
100
AcDbEntity
8
05
100
AcDbLine
62
7
6
CONTINUOUS
10
329.3716180000
20
13.2347290000
11
328.3049710000
21
14.3013760000
0
LINE
5
57D
100
AcDbEntity
8
05
100
AcDbLine
62
7
6
CONTINUOUS
10
327.3477810000
20
15.2585660000
11
326.9231780000
21
15.6831690000
0
LINE
5
57E
100
AcDbEntity
8
05
100
AcDbLine
62
7
6
CONTINUOUS
10
329.4193150000
20
13.5052300000
11
328.6231690000
21
14.3013760000
0
LINE
5
57F
100
AcDbEntity
8
05
100
AcDbLine
62
7
6
CONTINUOUS
10
327.6928320000
20
15.2317130000
11
327.2325510000
21
15.6919940000
0
LINE
5
580
100
AcDbEntity
8
05
100
AcDbLine
62
7
6
CONTINUOUS
10
329.4670110000
20
13.7757320000
11
328.9413670000
21
14.3013760000
0
LINE
5
581
100
AcDbEntity
8
05
100
AcDbLine
62
7
6
CONTINUOUS
10
328.2787500000
20
14.9639930000
11
327.5489540000
21
15.6937890000
0
LINE
5
582
100
AcDbEntity
8
05
100
AcDbLine
62
7
6
CONTINUOUS
10
329.5147080000
20
14.0462330000
11
329.2595650000
21
14.3013760000
0
LINE
5
583
100
AcDbEntity
8
05
100
AcDbLine
62
7
6
CONTINUOUS
10
328.5969480000
20
14.9639930000
11
327.8728890000
21
15.6880520000
0
LINE
5
584
100
AcDbEntity
8
05
100
AcDbLine
62
7
6
CONTINUOUS
10
328.9151460000
20
14.9639930000
11
328.2049290000
21
15.6742100000
0
LINE
5
585
100
AcDbEntity
8
05
100
AcDbLine
62
7
6
CONTINUOUS
10
329.2333440000
20
14.9639930000
11
328.5457450000
21
15.6515930000
0
LINE
5
586
100
AcDbEntity
8
05
100
AcDbLine
62
7
6
CONTINUOUS
10
329.5515420000
20
14.9639930000
11
328.8961190000
21
15.6194160000
0
LINE
5
587
100
AcDbEntity
8
05
100
AcDbLine
62
7
6
CONTINUOUS
10
329.7054950000
20
15.1282390000
11
329.2569840000
21
15.5767500000
0
LINE
5
588
100
AcDbEntity
8
035
100
AcDbLine
62
3
6
CONTINUOUS
10
278.1107220000
20
13.2089520000
11
279.8185550000
21
13.2089520000
0
LINE
5
589
100
AcDbEntity
8
035
100
AcDbLine
62
3
6
CONTINUOUS
10
278.6614380000
20
15.6930720000
11
280.6797860000
21
15.6930720000
0
LINE
5
58A
100
AcDbEntity
8
035
100
AcDbLine
62
3
6
CONTINUOUS
10
278.1107220000
20
13.2089520000
11
278.6614380000
21
15.6930720000
0
LINE
5
58B
100
AcDbEntity
8
035
100
AcDbLine
62
3
6
CONTINUOUS
10
279.8185550000
20
13.2089520000
11
280.1283320000
21
14.6062700000
0
LINE
5
58C
100
AcDbEntity
8
035
100
AcDbLine
62
3
6
CONTINUOUS
10
283.6223630000
20
13.2089520000
11
284.1730790000
21
15.6930720000
0
LINE
5
58D
100
AcDbEntity
8
035
100
AcDbLine
62
3
6
CONTINUOUS
10
282.2243080000
20
14.6062700000
11
282.4652470000
21
15.6930720000
0
LINE
5
58E
100
AcDbEntity
8
035
100
AcDbLine
62
3
6
CONTINUOUS
10
280.1283320000
20
14.6062700000
11
281.6816440000
21
13.2089520000
0
LINE
5
58F
100
AcDbEntity
8
035
100
AcDbLine
62
3
6
CONTINUOUS
10
280.6797860000
20
15.6930720000
11
282.2243080000
21
14.6062700000
0
LINE
5
590
100
AcDbEntity
8
035
100
AcDbLine
62
3
6
CONTINUOUS
10
282.4652470000
20
15.6930720000
11
284.1730790000
21
15.6930720000
0
LINE
5
591
100
AcDbEntity
8
035
100
AcDbLine
62
3
6
CONTINUOUS
10
281.6816440000
20
13.2089520000
11
283.6223630000
21
13.2089520000
0
LINE
5
592
100
AcDbEntity
8
035
100
AcDbLine
62
3
6
CONTINUOUS
10
284.4762790000
20
13.2089520000
11
285.0269950000
21
15.6930720000
0
LINE
5
593
100
AcDbEntity
8
035
100
AcDbLine
62
3
6
CONTINUOUS
10
286.2816520000
20
13.6489310000
11
286.4273260000
21
14.3060230000
0
LINE
5
594
100
AcDbEntity
8
035
100
AcDbLine
62
3
6
CONTINUOUS
10
289.1443320000
20
14.3060230000
11
289.2086190000
21
14.5960010000
0
LINE
5
595
100
AcDbEntity
8
035
100
AcDbLine
62
3
6
CONTINUOUS
10
289.1340040000
20
13.2089520000
11
289.2315440000
21
13.6489310000
0
LINE
5
596
100
AcDbEntity
8
035
100
AcDbLine
62
3
6
CONTINUOUS
10
284.4762790000
20
13.2089520000
11
289.1340040000
21
13.2089520000
0
LINE
5
597
100
AcDbEntity
8
035
100
AcDbLine
62
3
6
CONTINUOUS
10
285.0269950000
20
15.6930720000
11
289.6847200000
21
15.6930720000
0
LINE
5
598
100
AcDbEntity
8
035
100
AcDbLine
62
3
6
CONTINUOUS
10
286.4916130000
20
14.5960010000
11
286.6372870000
21
15.2530940000
0
LINE
5
599
100
AcDbEntity
8
035
100
AcDbLine
62
3
6
CONTINUOUS
10
289.5871790000
20
15.2530940000
11
289.6847200000
21
15.6930720000
0
LINE
5
59A
100
AcDbEntity
8
035
100
AcDbLine
62
3
6
CONTINUOUS
10
290.0785120000
20
13.9677470000
11
290.4610070000
21
15.6930720000
0
LINE
5
59B
100
AcDbEntity
8
035
100
AcDbLine
62
3
6
CONTINUOUS
10
291.8294160000
20
14.1814320000
11
292.1645380000
21
15.6930720000
0
LINE
5
59C
100
AcDbEntity
8
035
100
AcDbLine
62
3
6
CONTINUOUS
10
293.6970730000
20
14.1008870000
11
294.0500510000
21
15.6930720000
0
LINE
5
59D
100
AcDbEntity
8
035
100
AcDbLine
62
3
6
CONTINUOUS
10
295.3443260000
20
13.8470990000
11
295.7535680000
21
15.6930720000
0
LINE
5
59E
100
AcDbEntity
8
035
100
AcDbLine
62
3
6
CONTINUOUS
10
290.4610070000
20
15.6930720000
11
292.1645380000
21
15.6930720000
0
ARC
5
59F
100
AcDbEntity
8
035
100
AcDbCircle
62
3
6
CONTINUOUS
10
290.3565382511
20
13.9076074747
40
0.2844562511
100
AcDbArc
50
167.7944635173
51
179.9992899294
0
ARC
5
5A0
100
AcDbEntity
8
035
100
AcDbCircle
62
3
6
CONTINUOUS
10
290.3565385413
20
13.9076113390
40
0.2844565413
100
AcDbArc
50
180.0000682898
51
234.6229224813
0
ARC
5
5A1
100
AcDbEntity
8
035
100
AcDbCircle
62
3
6
CONTINUOUS
10
291.4662366591
20
15.4704306902
40
2.2011814138
100
AcDbArc
50
234.6229020698
51
253.6104761870
0
ARC
5
5A2
100
AcDbEntity
8
035
100
AcDbCircle
62
3
6
CONTINUOUS
10
292.2145988754
20
18.0148393689
40
4.8533619377
100
AcDbArc
50
253.6103910211
51
263.0540333551
0
ARC
5
5A3
100
AcDbEntity
8
035
100
AcDbCircle
62
3
6
CONTINUOUS
10
292.7114581813
20
22.0931766141
40
8.9618536141
100
AcDbArc
50
263.0539945915
51
270.0000116273
0
ARC
5
5A4
100
AcDbEntity
8
035
100
AcDbCircle
62
3
6
CONTINUOUS
10
292.7114613187
20
22.0931683755
40
8.9618453755
100
AcDbArc
50
269.9999915694
51
276.9460086052
0
ARC
5
5A5
100
AcDbEntity
8
035
100
AcDbCircle
62
3
6
CONTINUOUS
10
293.2083201246
20
18.0148393689
40
4.8533619377
100
AcDbArc
50
276.9459666449
51
286.3896089789
0
ARC
5
5A6
100
AcDbEntity
8
035
100
AcDbCircle
62
3
6
CONTINUOUS
10
293.9566823409
20
15.4704306902
40
2.2011814138
100
AcDbArc
50
286.3895238130
51
305.3770979302
0
ARC
5
5A7
100
AcDbEntity
8
035
100
AcDbCircle
62
3
6
CONTINUOUS
10
295.0663810713
20
13.9076107687
40
0.2844557216
100
AcDbArc
50
305.3770434265
51
347.7177170673
0
ARC
5
5A8
100
AcDbEntity
8
035
100
AcDbCircle
62
3
6
CONTINUOUS
10
292.0025297663
20
14.1404964568
40
0.1778877663
100
AcDbArc
50
179.9998250514
51
225.0422913416
0
ARC
5
5A9
100
AcDbEntity
8
035
100
AcDbCircle
62
3
6
CONTINUOUS
10
292.3618635061
20
14.5003622419
40
0.6864387665
100
AcDbArc
50
225.0423614170
51
247.5300128082
0
ARC
5
5AA
100
AcDbEntity
8
035
100
AcDbCircle
62
3
6
CONTINUOUS
10
292.6034918176
20
15.0845620937
40
1.3186362892
100
AcDbArc
50
247.5298821870
51
260.2785491795
0
ARC
5
5AB
100
AcDbEntity
8
035
100
AcDbCircle
62
3
6
CONTINUOUS
10
292.7630903846
20
16.0161117087
40
2.2637587087
100
AcDbArc
50
260.2783770082
51
269.9999902662
0
ARC
5
5AC
100
AcDbEntity
8
035
100
AcDbCircle
62
3
6
CONTINUOUS
10
292.7630896154
20
16.0161117087
40
2.2637587087
100
AcDbArc
50
270.0000097338
51
279.7216229918
0
ARC
5
5AD
100
AcDbEntity
8
035
100
AcDbCircle
62
3
6
CONTINUOUS
10
292.9226881824
20
15.0845620937
40
1.3186362892
100
AcDbArc
50
279.7214508205
51
292.4701178130
0
ARC
5
5AE
100
AcDbEntity
8
035
100
AcDbCircle
62
3
6
CONTINUOUS
10
293.1643164939
20
14.5003622419
40
0.6864387665
100
AcDbArc
50
292.4699871918
51
314.9576385830
0
ARC
5
5AF
100
AcDbEntity
8
035
100
AcDbCircle
62
3
6
CONTINUOUS
10
293.5236507293
20
14.1404979651
40
0.1778884834
100
AcDbArc
50
314.9572524508
51
347.1339192357
0
ARC
5
5B0
100
AcDbEntity
8
035
100
AcDbCircle
62
3
6
CONTINUOUS
10
292.0025290776
20
14.1404969937
40
0.1778870776
100
AcDbArc
50
166.6959850486
51
179.9999979692
0
LINE
5
5B1
100
AcDbEntity
8
035
100
AcDbLine
62
3
6
CONTINUOUS
10
294.0500510000
20
15.6930720000
11
295.7535680000
21
15.6930720000
0
LINE
5
5B2
100
AcDbEntity
8
035
100
AcDbLine
62
3
6
CONTINUOUS
10
296.0678550000
20
15.0720420000
11
296.2055340000
21
15.6930720000
0
LINE
5
5B3
100
AcDbEntity
8
035
100
AcDbLine
62
3
6
CONTINUOUS
10
297.2073930000
20
13.2089520000
11
297.6204300000
21
15.0720420000
0
LINE
5
5B4
100
AcDbEntity
8
035
100
AcDbLine
62
3
6
CONTINUOUS
10
298.9152250000
20
13.2089520000
11
299.3282620000
21
15.0720420000
0
LINE
5
5B5
100
AcDbEntity
8
035
100
AcDbLine
62
3
6
CONTINUOUS
10
300.9584660000
20
15.0720420000
11
301.0961450000
21
15.6930720000
0
LINE
5
5B6
100
AcDbEntity
8
035
100
AcDbLine
62
3
6
CONTINUOUS
10
296.0678550000
20
15.0720420000
11
297.6204300000
21
15.0720420000
0
LINE
5
5B7
100
AcDbEntity
8
035
100
AcDbLine
62
3
6
CONTINUOUS
10
297.2073930000
20
13.2089520000
11
298.9152250000
21
13.2089520000
0
LINE
5
5B8
100
AcDbEntity
8
035
100
AcDbLine
62
3
6
CONTINUOUS
10
296.2055340000
20
15.6930720000
11
301.0961450000
21
15.6930720000
0
LINE
5
5B9
100
AcDbEntity
8
035
100
AcDbLine
62
3
6
CONTINUOUS
10
299.3282620000
20
15.0720420000
11
300.9584660000
21
15.0720420000
0
LINE
5
5BA
100
AcDbEntity
8
035
100
AcDbLine
62
3
6
CONTINUOUS
10
301.0888300000
20
13.2089520000
11
301.6395460000
21
15.6930720000
0
LINE
5
5BB
100
AcDbEntity
8
035
100
AcDbLine
62
3
6
CONTINUOUS
10
302.7966620000
20
13.2089520000
11
303.0020150000
21
14.1352400000
0
LINE
5
5BC
100
AcDbEntity
8
035
100
AcDbLine
62
3
6
CONTINUOUS
10
301.0888300000
20
13.2089520000
11
302.7966620000
21
13.2089520000
0
LINE
5
5BD
100
AcDbEntity
8
035
100
AcDbLine
62
3
6
CONTINUOUS
10
301.6395460000
20
15.6930720000
11
305.9979220000
21
15.6930720000
0
LINE
5
5BE
100
AcDbEntity
8
035
100
AcDbLine
62
3
6
CONTINUOUS
10
306.3081340000
20
13.4689140000
11
306.3485860000
21
14.0474050000
0
LINE
5
5BF
100
AcDbEntity
8
035
100
AcDbLine
62
3
6
CONTINUOUS
10
304.5959630000
20
13.4068680000
11
304.6272290000
21
13.8619210000
0
LINE
5
5C0
100
AcDbEntity
8
035
100
AcDbLine
62
3
6
CONTINUOUS
10
303.0663020000
20
14.4252180000
11
303.2498370000
21
15.2530940000
0
ARC
5
5C1
100
AcDbEntity
8
035
100
AcDbCircle
62
3
6
CONTINUOUS
10
306.6953320000
20
13.4418380000
40
0.3881440000
100
AcDbArc
50
176.0000000000
51
216.8698980000
0
ARC
5
5C2
100
AcDbEntity
8
035
100
AcDbCircle
62
3
6
CONTINUOUS
10
304.9697530000
20
13.4119050000
40
0.3738240000
100
AcDbArc
50
180.7720050000
51
212.8818750000
0
LINE
5
5C3
100
AcDbEntity
8
035
100
AcDbLine
62
3
6
CONTINUOUS
10
304.6558180000
20
13.2089520000
11
306.3848170000
21
13.2089520000
0
ARC
5
5C4
100
AcDbEntity
8
035
100
AcDbCircle
62
3
6
CONTINUOUS
10
306.0645091256
20
14.0692414046
40
0.2849148980
100
AcDbArc
50
355.6044351018
51
14.9998321139
0
ARC
5
5C5
100
AcDbEntity
8
035
100
AcDbCircle
62
3
6
CONTINUOUS
10
306.0645115927
20
14.0692393407
40
0.2849130492
100
AcDbArc
50
15.0003614107
51
49.8062951149
0
ARC
5
5C6
100
AcDbEntity
8
035
100
AcDbCircle
62
3
6
CONTINUOUS
10
305.8802286242
20
13.8511285638
40
0.5704520544
100
AcDbArc
50
49.8058236467
51
55.6063554031
0
ARC
5
5C7
100
AcDbEntity
8
035
100
AcDbCircle
62
3
6
CONTINUOUS
10
305.3132482994
20
16.1994672129
40
2.0775325922
100
AcDbArc
50
295.3416402972
51
298.8636783469
0
ARC
5
5C8
100
AcDbEntity
8
035
100
AcDbCircle
62
3
6
CONTINUOUS
10
305.6415395293
20
15.6038639832
40
1.3974455839
100
AcDbArc
50
298.8639281557
51
315.7882926038
0
ARC
5
5C9
100
AcDbEntity
8
035
100
AcDbCircle
62
3
6
CONTINUOUS
10
305.9889757242
20
15.2658585190
40
0.9127192659
100
AcDbArc
50
315.7883093494
51
340.1939355680
0
ARC
5
5CA
100
AcDbEntity
8
035
100
AcDbCircle
62
3
6
CONTINUOUS
10
306.4188091494
20
15.1110581593
40
0.4558605079
100
AcDbArc
50
340.1938658204
51
14.9997995246
0
ARC
5
5CB
100
AcDbEntity
8
035
100
AcDbCircle
62
3
6
CONTINUOUS
10
306.4188087341
20
15.1110565785
40
0.4558613183
100
AcDbArc
50
14.9999779363
51
49.8059116405
0
ARC
5
5CC
100
AcDbEntity
8
035
100
AcDbCircle
62
3
6
CONTINUOUS
10
306.1239631890
20
14.7620752320
40
0.9127222113
100
AcDbArc
50
49.8061438314
51
74.2117700500
0
ARC
5
5CD
100
AcDbEntity
8
035
100
AcDbCircle
62
3
6
CONTINUOUS
10
305.9920781414
20
14.2956381767
40
1.3974460423
100
AcDbArc
50
74.2117641360
51
89.7603990413
0
LINE
5
5CE
100
AcDbEntity
8
035
100
AcDbLine
62
3
6
CONTINUOUS
10
307.1438710000
20
13.2089520000
11
307.6945880000
21
15.6930720000
0
LINE
5
5CF
100
AcDbEntity
8
035
100
AcDbLine
62
3
6
CONTINUOUS
10
308.8517040000
20
13.2089520000
11
309.4024200000
21
15.6930720000
0
LINE
5
5D0
100
AcDbEntity
8
035
100
AcDbLine
62
3
6
CONTINUOUS
10
307.1438710000
20
13.2089520000
11
308.8517040000
21
13.2089520000
0
LINE
5
5D1
100
AcDbEntity
8
035
100
AcDbLine
62
3
6
CONTINUOUS
10
307.6945880000
20
15.6930720000
11
309.4024200000
21
15.6930720000
0
LINE
5
5D2
100
AcDbEntity
8
035
100
AcDbLine
62
3
6
CONTINUOUS
10
309.8608770000
20
13.2089520000
11
310.4115940000
21
15.6930720000
0
LINE
5
5D3
100
AcDbEntity
8
035
100
AcDbLine
62
3
6
CONTINUOUS
10
311.4910810000
20
13.2089520000
11
311.6287600000
21
13.8299820000
0
LINE
5
5D4
100
AcDbEntity
8
035
100
AcDbLine
62
3
6
CONTINUOUS
10
310.4115940000
20
15.6930720000
11
312.0417970000
21
15.6930720000
0
LINE
5
5D5
100
AcDbEntity
8
035
100
AcDbLine
62
3
6
CONTINUOUS
10
309.8608770000
20
13.2089520000
11
311.4910810000
21
13.2089520000
0
LINE
5
5D6
100
AcDbEntity
8
035
100
AcDbLine
62
3
6
CONTINUOUS
10
311.6287600000
20
13.8299820000
11
312.3574440000
21
14.1404970000
0
LINE
5
5D7
100
AcDbEntity
8
035
100
AcDbLine
62
3
6
CONTINUOUS
10
311.8555250000
20
14.8528550000
11
313.8272580000
21
15.6930720000
0
LINE
5
5D8
100
AcDbEntity
8
035
100
AcDbLine
62
3
6
CONTINUOUS
10
313.8272580000
20
15.6930720000
11
316.0008630000
21
15.6930720000
0
LINE
5
5D9
100
AcDbEntity
8
035
100
AcDbLine
62
3
6
CONTINUOUS
10
312.3574440000
20
14.1404970000
11
313.2765420000
21
13.2089520000
0
LINE
5
5DA
100
AcDbEntity
8
035
100
AcDbLine
62
3
6
CONTINUOUS
10
313.9969820000
20
14.8391560000
11
315.6054040000
21
13.2089520000
0
LINE
5
5DB
100
AcDbEntity
8
035
100
AcDbLine
62
3
6
CONTINUOUS
10
313.9969820000
20
14.8391560000
11
316.0008630000
21
15.6930720000
0
LINE
5
5DC
100
AcDbEntity
8
035
100
AcDbLine
62
3
6
CONTINUOUS
10
311.8555250000
20
14.8528550000
11
312.0417970000
21
15.6930720000
0
LINE
5
5DD
100
AcDbEntity
8
035
100
AcDbLine
62
3
6
CONTINUOUS
10
313.2765420000
20
13.2089520000
11
315.6054040000
21
13.2089520000
0
LINE
5
5DE
100
AcDbEntity
8
035
100
AcDbLine
62
3
6
CONTINUOUS
10
318.4641510000
20
13.2089520000
11
320.1402870000
21
13.2089520000
0
LINE
5
5DF
100
AcDbEntity
8
035
100
AcDbLine
62
3
6
CONTINUOUS
10
320.3277870000
20
15.6938010000
11
323.2824910000
21
15.6938010000
0
LINE
5
5E0
100
AcDbEntity
8
035
100
AcDbLine
62
3
6
CONTINUOUS
10
318.4641510000
20
13.2089520000
11
320.3277870000
21
15.6938010000
0
LINE
5
5E1
100
AcDbEntity
8
035
100
AcDbLine
62
3
6
CONTINUOUS
10
323.2824910000
20
15.6938010000
11
323.9037030000
21
13.2089520000
0
LINE
5
5E2
100
AcDbEntity
8
035
100
AcDbLine
62
3
6
CONTINUOUS
10
320.5003110000
20
13.6889840000
11
322.2260320000
21
13.6889840000
0
LINE
5
5E3
100
AcDbEntity
8
035
100
AcDbLine
62
3
6
CONTINUOUS
10
320.7802020000
20
14.0621710000
11
322.1327350000
21
14.0621710000
0
LINE
5
5E4
100
AcDbEntity
8
035
100
AcDbLine
62
3
6
CONTINUOUS
10
324.6150190000
20
13.7199520000
11
324.8833800000
21
15.2419070000
0
LINE
5
5E5
100
AcDbEntity
8
035
100
AcDbLine
62
3
6
CONTINUOUS
10
329.3670730000
20
13.2089520000
11
329.5596970000
21
14.3013760000
0
LINE
5
5E6
100
AcDbEntity
8
035
100
AcDbLine
62
3
6
CONTINUOUS
10
326.2261250000
20
14.0493180000
11
326.3860210000
21
14.9561340000
0
LINE
5
5E7
100
AcDbEntity
8
035
100
AcDbLine
62
3
6
CONTINUOUS
10
327.8140420000
20
13.2089520000
11
327.8190480000
21
13.2373380000
0
LINE
5
5E8
100
AcDbEntity
8
035
100
AcDbLine
62
3
6
CONTINUOUS
10
327.3461810000
20
14.0786490000
11
327.3854540000
21
14.3013760000
0
LINE
5
5E9
100
AcDbEntity
8
035
100
AcDbLine
62
3
6
CONTINUOUS
10
327.3461810000
20
14.0786490000
11
327.9673930000
21
14.0786490000
0
ARC
5
5EA
100
AcDbEntity
8
035
100
AcDbCircle
62
3
6
CONTINUOUS
10
327.4684270000
20
1.9968720000
40
13.6971530000
100
AcDbArc
50
81.6598950000
51
99.8027900000
0
ARC
5
5EB
100
AcDbEntity
8
035
100
AcDbCircle
62
3
6
CONTINUOUS
10
326.9084660000
20
26.9041900000
40
13.6971530000
100
AcDbArc
50
261.4614730000
51
273.8118150000
0
ARC
5
5EC
100
AcDbEntity
8
035
100
AcDbCircle
62
3
6
CONTINUOUS
10
325.1892670000
20
15.1879710000
40
0.3106060000
100
AcDbArc
50
99.8027900000
51
170.0000000000
0
ARC
5
5ED
100
AcDbEntity
8
035
100
AcDbCircle
62
3
6
CONTINUOUS
10
324.9209060000
20
13.6660160000
40
0.3106060000
100
AcDbArc
50
170.0000000000
51
261.4614730000
0
ARC
5
5EE
100
AcDbEntity
8
035
100
AcDbCircle
62
3
6
CONTINUOUS
10
329.4101300000
20
15.2418500000
40
0.3106060000
100
AcDbArc
50
350.0000000000
51
81.6598950000
0
LINE
5
5EF
100
AcDbEntity
8
035
100
AcDbLine
62
3
6
CONTINUOUS
10
328.1015710000
20
14.9639930000
11
329.6765340000
21
14.9639930000
0
LINE
5
5F0
100
AcDbEntity
8
035
100
AcDbLine
62
3
6
CONTINUOUS
10
329.6765340000
20
14.9639930000
11
329.7160170000
21
15.1879140000
0
LINE
5
5F1
100
AcDbEntity
8
035
100
AcDbLine
62
3
6
CONTINUOUS
10
327.9478530000
20
13.9678320000
11
327.9673930000
21
14.0786490000
0
ARC
5
5F2
100
AcDbEntity
8
035
100
AcDbCircle
62
3
6
CONTINUOUS
10
327.2442760000
20
11.6982740000
40
3.5617970000
100
AcDbArc
50
80.2083390000
51
99.7818250000
0
ARC
5
5F3
100
AcDbEntity
8
035
100
AcDbCircle
62
3
6
CONTINUOUS
10
327.0108590000
20
17.2111170000
40
3.5617970000
100
AcDbArc
50
261.5304680000
51
281.1930680000
0
ARC
5
5F4
100
AcDbEntity
8
035
100
AcDbCircle
62
3
6
CONTINUOUS
10
326.6919080000
20
14.9021980000
40
0.3106060000
100
AcDbArc
50
99.7818250000
51
170.0000000000
0
ARC
5
5F5
100
AcDbEntity
8
035
100
AcDbCircle
62
3
6
CONTINUOUS
10
327.7971930000
20
14.9021030000
40
0.3106060000
100
AcDbArc
50
11.4934250000
51
80.2083390000
0
ARC
5
5F6
100
AcDbEntity
8
035
100
AcDbCircle
62
3
6
CONTINUOUS
10
326.5320120000
20
13.9953820000
40
0.3106060000
100
AcDbArc
50
170.0000000000
51
261.5304680000
0
ARC
5
5F7
100
AcDbEntity
8
035
100
AcDbCircle
62
3
6
CONTINUOUS
10
327.6419660000
20
14.0217680000
40
0.3106060000
100
AcDbArc
50
281.1930680000
51
350.0000000000
0
LINE
5
5F8
100
AcDbEntity
8
035
100
AcDbLine
62
3
6
CONTINUOUS
10
327.8140420000
20
13.2089520000
11
329.3670730000
21
13.2089520000
0
LINE
5
5F9
100
AcDbEntity
8
035
100
AcDbLine
62
3
6
CONTINUOUS
10
322.3460400000
20
13.2089520000
11
323.9037030000
21
13.2089520000
0
LINE
5
5FA
100
AcDbEntity
8
035
100
AcDbLine
62
3
6
CONTINUOUS
10
286.6372870000
20
15.2530940000
11
289.5871790000
21
15.2530940000
0
LINE
5
5FB
100
AcDbEntity
8
035
100
AcDbLine
62
3
6
CONTINUOUS
10
286.4916130000
20
14.5960010000
11
289.2086190000
21
14.5960010000
0
LINE
5
5FC
100
AcDbEntity
8
035
100
AcDbLine
62
3
6
CONTINUOUS
10
286.4273260000
20
14.3060230000
11
289.1443320000
21
14.3060230000
0
LINE
5
5FD
100
AcDbEntity
8
035
100
AcDbLine
62
3
6
CONTINUOUS
10
286.2816520000
20
13.6489310000
11
289.2315440000
21
13.6489310000
0
LINE
5
5FE
100
AcDbEntity
8
035
100
AcDbLine
62
3
6
CONTINUOUS
10
303.2498370000
20
15.2530940000
11
304.6563970000
21
15.2530940000
0
LINE
5
5FF
100
AcDbEntity
8
035
100
AcDbLine
62
3
6
CONTINUOUS
10
303.0663020000
20
14.4252180000
11
304.4266270000
21
14.4252180000
0
LINE
5
600
100
AcDbEntity
8
035
100
AcDbLine
62
3
6
CONTINUOUS
10
303.0020150000
20
14.1352400000
11
304.4509000000
21
14.1352400000
0
LINE
5
601
100
AcDbEntity
8
035
100
AcDbLine
62
3
6
CONTINUOUS
10
304.6563970000
20
15.2530940000
11
304.7674140000
21
15.2349300000
0
LINE
5
602
100
AcDbEntity
8
035
100
AcDbLine
62
3
6
CONTINUOUS
10
304.7674140000
20
15.2349300000
11
304.8636110000
21
15.1861990000
0
LINE
5
603
100
AcDbEntity
8
035
100
AcDbLine
62
3
6
CONTINUOUS
10
304.8636110000
20
15.1861990000
11
304.9097870000
21
15.1118220000
0
LINE
5
604
100
AcDbEntity
8
035
100
AcDbLine
62
3
6
CONTINUOUS
10
304.9097870000
20
15.1118220000
11
304.9456990000
21
15.0220570000
0
LINE
5
605
100
AcDbEntity
8
035
100
AcDbLine
62
3
6
CONTINUOUS
10
304.9456990000
20
15.0220570000
11
304.9469830000
21
14.9246000000
0
LINE
5
606
100
AcDbEntity
8
035
100
AcDbLine
62
3
6
CONTINUOUS
10
304.9469830000
20
14.9246000000
11
304.9367220000
21
14.7835390000
0
LINE
5
607
100
AcDbEntity
8
035
100
AcDbLine
62
3
6
CONTINUOUS
10
304.9367220000
20
14.7835390000
11
304.8854140000
21
14.6976240000
0
LINE
5
608
100
AcDbEntity
8
035
100
AcDbLine
62
3
6
CONTINUOUS
10
304.8854140000
20
14.6976240000
11
304.7943500000
21
14.5911860000
0
LINE
5
609
100
AcDbEntity
8
035
100
AcDbLine
62
3
6
CONTINUOUS
10
304.7943500000
20
14.5911860000
11
304.6571060000
21
14.5091160000
0
LINE
5
60A
100
AcDbEntity
8
035
100
AcDbLine
62
3
6
CONTINUOUS
10
304.6571060000
20
14.5091160000
11
304.5262760000
21
14.4424340000
0
LINE
5
60B
100
AcDbEntity
8
035
100
AcDbLine
62
3
6
CONTINUOUS
10
304.5262760000
20
14.4424340000
11
304.4266270000
21
14.4252180000
0
LINE
5
60C
100
AcDbEntity
8
035
100
AcDbLine
62
3
6
CONTINUOUS
10
304.4509000000
20
14.1352400000
11
304.5337810000
21
14.1235790000
0
LINE
5
60D
100
AcDbEntity
8
035
100
AcDbLine
62
3
6
CONTINUOUS
10
304.5337810000
20
14.1235790000
11
304.5869810000
21
14.0899330000
0
LINE
5
60E
100
AcDbEntity
8
035
100
AcDbLine
62
3
6
CONTINUOUS
10
304.5869810000
20
14.0899330000
11
304.6195510000
21
14.0367450000
0
LINE
5
60F
100
AcDbEntity
8
035
100
AcDbLine
62
3
6
CONTINUOUS
10
304.6195510000
20
14.0367450000
11
304.6347510000
21
13.9727040000
0
LINE
5
610
100
AcDbEntity
8
035
100
AcDbLine
62
3
6
CONTINUOUS
10
304.6347510000
20
13.9727040000
11
304.6272290000
21
13.8619210000
0
LINE
5
611
100
AcDbEntity
8
035
100
AcDbLine
62
3
6
CONTINUOUS
10
321.7946020000
20
15.4147050000
11
322.1327350000
21
14.0621710000
0
LINE
5
612
100
AcDbEntity
8
035
100
AcDbLine
62
3
6
CONTINUOUS
10
320.7802020000
20
14.0621710000
11
321.7946020000
21
15.4147050000
0
LINE
5
613
100
AcDbEntity
8
035
100
AcDbLine
62
3
6
CONTINUOUS
10
322.2260320000
20
13.6889840000
11
322.3460400000
21
13.2089520000
0
LINE
5
614
100
AcDbEntity
8
035
100
AcDbLine
62
3
6
CONTINUOUS
10
320.1402870000
20
13.2089520000
11
320.5003110000
21
13.6889840000
0
LINE
5
615
100
AcDbEntity
8
035
100
AcDbLine
62
3
6
CONTINUOUS
10
327.3854540000
20
14.3013760000
11
329.5596970000
21
14.3013760000
0
LINE
5
616
100
AcDbEntity
8
035
100
AcDbLine
62
3
6
CONTINUOUS
10
72.1739490000
20
205.6455280000
11
72.1739490000
21
212.7017730000
0
LINE
5
617
100
AcDbEntity
8
035
100
AcDbLine
62
3
6
CONTINUOUS
10
73.0451510000
20
192.7788400000
11
73.0451510000
21
212.7017730000
0
ARC
5
618
100
AcDbEntity
8
035
100
AcDbCircle
62
3
6
CONTINUOUS
10
72.1739483145
20
211.7407912846
40
0.9609817154
100
AcDbArc
50
89.9999591287
51
133.3385507369
0
ARC
5
619
100
AcDbEntity
8
035
100
AcDbCircle
62
3
6
CONTINUOUS
10
73.7841908866
20
210.0343462346
40
3.3072203754
100
AcDbArc
50
133.3385629844
51
156.3005129507
0
ARC
5
61A
100
AcDbEntity
8
035
100
AcDbCircle
62
3
6
CONTINUOUS
10
76.3933845109
20
208.8890095205
40
6.1567269217
100
AcDbArc
50
156.3004392411
51
169.6949011122
0
ARC
5
61B
100
AcDbEntity
8
035
100
AcDbCircle
62
3
6
CONTINUOUS
10
80.5505726173
20
208.1331324165
40
10.3820746173
100
AcDbArc
50
169.6948696148
51
180.0000133358
0
LINE
5
61C
100
AcDbEntity
8
035
100
AcDbLine
62
3
6
CONTINUOUS
10
78.3908490000
20
194.0165930000
11
75.3826720000
21
194.0165930000
0
LINE
5
61D
100
AcDbEntity
8
035
100
AcDbLine
62
3
6
CONTINUOUS
10
78.3908490000
20
211.4640210000
11
75.3826720000
21
211.4640210000
0
LINE
5
61E
100
AcDbEntity
8
035
100
AcDbLine
62
3
6
CONTINUOUS
10
70.1684980000
20
197.3474840000
11
70.1684980000
21
208.1331300000
0
ARC
5
61F
100
AcDbEntity
8
035
100
AcDbCircle
62
3
6
CONTINUOUS
10
72.1739495729
20
193.7398222154
40
0.9609822154
100
AcDbArc
50
226.6613742342
51
269.9999658424
0
ARC
5
620
100
AcDbEntity
8
035
100
AcDbCircle
62
3
6
CONTINUOUS
10
73.7841908866
20
195.4462677654
40
3.3072203754
100
AcDbArc
50
203.6994870493
51
226.6614370156
0
ARC
5
621
100
AcDbEntity
8
035
100
AcDbCircle
62
3
6
CONTINUOUS
10
76.3933845109
20
196.5916044795
40
6.1567269217
100
AcDbArc
50
190.3050988878
51
203.6995607589
0
ARC
5
622
100
AcDbEntity
8
035
100
AcDbCircle
62
3
6
CONTINUOUS
10
80.5505726173
20
197.3474815835
40
10.3820746173
100
AcDbArc
50
179.9999866642
51
190.3051303852
0
ARC
5
623
100
AcDbEntity
8
035
100
AcDbCircle
62
3
6
CONTINUOUS
10
72.5558260000
20
199.8350860000
40
0.3818770000
100
AcDbArc
50
90.0000000000
51
180.0000000000
0
LINE
5
624
100
AcDbEntity
8
035
100
AcDbLine
62
3
6
CONTINUOUS
10
73.0451510000
20
200.2169630000
11
72.5558260000
21
200.2169630000
0
LINE
5
625
100
AcDbEntity
8
035
100
AcDbLine
62
3
6
CONTINUOUS
10
74.1794010000
20
192.7788400000
11
72.1739490000
21
192.7788400000
0
LINE
5
626
100
AcDbEntity
8
035
100
AcDbLine
62
3
6
CONTINUOUS
10
72.1739490000
20
192.7788400000
11
72.1739490000
21
199.8350860000
0
LINE
5
627
100
AcDbEntity
8
035
100
AcDbLine
62
3
6
CONTINUOUS
10
75.3826720000
20
197.3255880000
11
74.1794010000
21
197.3255880000
0
LINE
5
628
100
AcDbEntity
8
035
100
AcDbLine
62
3
6
CONTINUOUS
10
75.3826720000
20
194.0165930000
11
75.3826720000
21
197.3255880000
0
ARC
5
629
100
AcDbEntity
8
035
100
AcDbCircle
62
3
6
CONTINUOUS
10
72.5558260000
20
205.6455280000
40
0.3818770000
100
AcDbArc
50
180.0000000000
51
270.0000000000
0
LINE
5
62A
100
AcDbEntity
8
035
100
AcDbLine
62
3
6
CONTINUOUS
10
73.0451510000
20
205.2636510000
11
72.5558260000
21
205.2636510000
0
LINE
5
62B
100
AcDbEntity
8
035
100
AcDbLine
62
3
6
CONTINUOUS
10
73.6814560000
20
203.9536180000
11
73.6814560000
21
201.5078410000
0
LINE
5
62C
100
AcDbEntity
8
035
100
AcDbLine
62
3
6
CONTINUOUS
10
73.6814560000
20
201.5078410000
11
73.0451510000
21
201.5078410000
0
LINE
5
62D
100
AcDbEntity
8
035
100
AcDbLine
62
3
6
CONTINUOUS
10
73.6814560000
20
203.9536180000
11
73.0451510000
21
203.9536180000
0
LINE
5
62E
100
AcDbEntity
8
035
100
AcDbLine
62
3
6
CONTINUOUS
10
75.3826720000
20
208.1550260000
11
74.1794010000
21
208.1550260000
0
LINE
5
62F
100
AcDbEntity
8
035
100
AcDbLine
62
3
6
CONTINUOUS
10
75.3826720000
20
208.1550260000
11
75.3826720000
21
211.4640210000
0
ARC
5
630
100
AcDbEntity
8
035
100
AcDbCircle
62
3
6
CONTINUOUS
10
102.0416160000
20
202.9313960000
40
19.6419400000
100
AcDbArc
50
164.5770250000
51
196.5827560000
0
LINE
5
631
100
AcDbEntity
8
035
100
AcDbLine
62
3
6
CONTINUOUS
10
83.2166140000
20
197.3255880000
11
78.3908490000
21
197.3255880000
0
LINE
5
632
100
AcDbEntity
8
035
100
AcDbLine
62
3
6
CONTINUOUS
10
85.3197560000
20
197.3255880000
11
83.2166140000
21
197.3255880000
0
LINE
5
633
100
AcDbEntity
8
035
100
AcDbLine
62
3
6
CONTINUOUS
10
78.3908490000
20
194.0165930000
11
78.3908490000
21
197.3255880000
0
LINE
5
634
100
AcDbEntity
8
035
100
AcDbLine
62
3
6
CONTINUOUS
10
83.1070060000
20
208.1550260000
11
78.3908490000
21
208.1550260000
0
LINE
5
635
100
AcDbEntity
8
035
100
AcDbLine
62
3
6
CONTINUOUS
10
78.3908490000
20
208.1550260000
11
78.3908490000
21
211.4640210000
0
LINE
5
636
100
AcDbEntity
8
035
100
AcDbLine
62
3
6
CONTINUOUS
10
85.1964570000
20
208.1550260000
11
83.1070060000
21
208.1550260000
0
LINE
5
637
100
AcDbEntity
8
035
100
AcDbLine
62
3
6
CONTINUOUS
10
74.1794010000
20
212.7017730000
11
72.1739490000
21
212.7017730000
0
ARC
5
638
100
AcDbEntity
8
035
100
AcDbCircle
62
3
6
CONTINUOUS
10
98.1598090000
20
202.3907340000
40
2.0054520000
100
AcDbArc
50
134.8384400000
51
235.1615600000
0
ARC
5
639
100
AcDbEntity
8
035
100
AcDbCircle
62
3
6
CONTINUOUS
10
103.3789560000
20
188.7555650000
40
2.0054520000
100
AcDbArc
50
56.3751670000
51
133.6248330000
0
ARC
5
63A
100
AcDbEntity
8
035
100
AcDbCircle
62
3
6
CONTINUOUS
10
106.1510900000
20
203.0898800000
40
2.0054520000
100
AcDbArc
50
314.8384400000
51
55.1615600000
0
ARC
5
63B
100
AcDbEntity
8
035
100
AcDbCircle
62
3
6
CONTINUOUS
10
100.9319430000
20
216.7250480000
40
2.0054520000
100
AcDbArc
50
236.3751670000
51
313.6248330000
0
LINE
5
63C
100
AcDbEntity
8
035
100
AcDbLine
62
3
6
CONTINUOUS
10
290.5854610000
20
197.5408670000
11
268.9877890000
21
197.5408670000
0
LINE
5
63D
100
AcDbEntity
8
035
100
AcDbLine
62
3
6
CONTINUOUS
10
290.5854610000
20
207.9397460000
11
268.9877890000
21
207.9397460000
0
LINE
5
63E
100
AcDbEntity
8
035
100
AcDbLine
62
3
6
CONTINUOUS
10
284.9860640000
20
204.2401450000
11
257.0715530000
21
203.7401990000
0
ARC
5
63F
100
AcDbEntity
8
035
100
AcDbCircle
62
3
6
CONTINUOUS
10
245.9902680000
20
198.7407380000
40
5.9993530000
100
AcDbArc
50
180.0000000000
51
270.0000000000
0
ARC
5
640
100
AcDbEntity
8
035
100
AcDbCircle
62
3
6
CONTINUOUS
10
245.9902680000
20
206.7398760000
40
5.9993530000
100
AcDbArc
50
90.0000000000
51
180.0000000000
0
LINE
5
641
100
AcDbEntity
8
035
100
AcDbLine
62
3
6
CONTINUOUS
10
239.9909150000
20
206.7398760000
11
239.9909150000
21
198.7407380000
0
ARC
5
642
100
AcDbEntity
8
035
100
AcDbCircle
62
3
6
CONTINUOUS
10
267.9878970000
20
211.7393370000
40
0.9998920000
100
AcDbArc
50
0.0000000000
51
90.0000000000
0
LINE
5
643
100
AcDbEntity
8
035
100
AcDbLine
62
3
6
CONTINUOUS
10
258.5713910000
20
205.7399830000
11
256.0716610000
21
211.7393370000
0
LINE
5
644
100
AcDbEntity
8
035
100
AcDbLine
62
3
6
CONTINUOUS
10
258.5713910000
20
205.7399830000
11
257.0715530000
21
205.7399830000
0
LINE
5
645
100
AcDbEntity
8
035
100
AcDbLine
62
3
6
CONTINUOUS
10
267.9878970000
20
192.7413850000
11
245.9902680000
21
192.7413850000
0
LINE
5
646
100
AcDbEntity
8
035
100
AcDbLine
62
3
6
CONTINUOUS
10
257.0715530000
20
203.7401990000
11
257.0715530000
21
205.7399830000
0
LINE
5
647
100
AcDbEntity
8
035
100
AcDbLine
62
3
6
CONTINUOUS
10
268.9877890000
20
201.5078410000
11
268.9877890000
21
193.7412770000
0
ARC
5
648
100
AcDbEntity
8
035
100
AcDbCircle
62
3
6
CONTINUOUS
10
267.9878970000
20
193.7412770000
40
0.9998920000
100
AcDbArc
50
270.0000000000
51
360.0000000000
0
LINE
5
649
100
AcDbEntity
8
035
100
AcDbLine
62
3
6
CONTINUOUS
10
268.6059120000
20
203.9467780000
11
268.9877890000
21
203.9536180000
0
LINE
5
64A
100
AcDbEntity
8
035
100
AcDbLine
62
3
6
CONTINUOUS
10
268.6059120000
20
201.5142240000
11
268.9877890000
21
201.5078410000
0
LINE
5
64B
100
AcDbEntity
8
035
100
AcDbLine
62
3
6
CONTINUOUS
10
268.6059120000
20
203.9467780000
11
268.6059120000
21
201.5142240000
0
LINE
5
64C
100
AcDbEntity
8
035
100
AcDbLine
62
3
6
CONTINUOUS
10
268.9877890000
20
211.7393370000
11
268.9877890000
21
203.9536180000
0
LINE
5
64D
100
AcDbEntity
8
035
100
AcDbLine
62
3
6
CONTINUOUS
10
267.9878970000
20
212.7392290000
11
245.9902680000
21
212.7392290000
0
LINE
5
64E
100
AcDbEntity
8
035
100
AcDbLine
62
3
6
CONTINUOUS
10
284.9860640000
20
201.2404680000
11
284.9860640000
21
204.2401450000
0
LINE
5
64F
100
AcDbEntity
8
035
100
AcDbLine
62
3
6
CONTINUOUS
10
290.9854180000
20
207.5397890000
11
290.9854180000
21
197.9408240000
0
ARC
5
650
100
AcDbEntity
8
035
100
AcDbCircle
62
3
6
CONTINUOUS
10
290.5854610000
20
197.9408240000
40
0.3999570000
100
AcDbArc
50
270.0000000000
51
360.0000000000
0
ARC
5
651
100
AcDbEntity
8
035
100
AcDbCircle
62
3
6
CONTINUOUS
10
290.5854610000
20
207.5397890000
40
0.3999570000
100
AcDbArc
50
0.0000000000
51
90.0000000000
0
LINE
5
652
100
AcDbEntity
8
05
100
AcDbLine
62
4
6
CONTINUOUS
10
210.0000000000
20
21.0000000000
11
277.0000000000
21
21.0000000000
0
LINE
5
653
100
AcDbEntity
8
05
100
AcDbLine
62
4
6
CONTINUOUS
10
210.0000000000
20
26.0000000000
11
277.0000000000
21
26.0000000000
0
LINE
5
654
100
AcDbEntity
8
05
100
AcDbLine
62
4
6
CONTINUOUS
10
210.0000000000
20
31.0000000000
11
277.0000000000
21
31.0000000000
0
LINE
5
655
100
AcDbEntity
8
05
100
AcDbLine
62
4
6
CONTINUOUS
10
210.0000000000
20
36.0000000000
11
277.0000000000
21
36.0000000000
0
LINE
5
656
100
AcDbEntity
8
05
100
AcDbLine
62
4
6
CONTINUOUS
10
210.0000000000
20
41.0000000000
11
277.0000000000
21
41.0000000000
0
LINE
5
657
100
AcDbEntity
8
05
100
AcDbLine
62
4
6
CONTINUOUS
10
210.0000000000
20
46.0000000000
11
277.0000000000
21
46.0000000000
0
LINE
5
658
100
AcDbEntity
8
05
100
AcDbLine
62
4
6
CONTINUOUS
10
210.0000000000
20
51.0000000000
11
277.0000000000
21
51.0000000000
0
LINE
5
659
100
AcDbEntity
8
05
100
AcDbLine
62
4
6
CONTINUOUS
10
315.9116940000
20
15.6550740000
11
315.9496920000
21
15.6930720000
0
LINE
5
65A
100
AcDbEntity
8
05
100
AcDbLine
62
4
6
CONTINUOUS
10
315.5868920000
20
13.2089520000
11
315.5962100000
21
13.2182700000
0
LINE
5
65B
100
AcDbEntity
8
025
100
AcDbLine
62
4
6
CONTINUOUS
10
244.6831535079
20
189.7896833292
11
273.1068410906
21
189.7896833292
0
LINE
5
65C
100
AcDbEntity
8
025
100
AcDbLine
62
4
6
CONTINUOUS
10
235.4501286985
20
189.7896833292
11
241.0311252303
21
189.7896833292
0
LINE
5
65D
100
AcDbEntity
8
025
100
AcDbLine
62
4
6
CONTINUOUS
10
284.9860640000
20
201.2404680000
11
255.0717680000
21
201.7404150000
0
LINE
5
65E
100
AcDbEntity
8
025
100
AcDbLine
62
4
6
CONTINUOUS
10
227.5921920000
20
227.1125760000
11
205.5945420000
21
227.8516960000
0
LINE
5
65F
100
AcDbEntity
8
025
100
AcDbLine
62
4
6
CONTINUOUS
10
205.5945420000
20
226.3017930000
11
227.5921920000
21
227.1125760000
0
LINE
5
660
100
AcDbEntity
8
025
100
AcDbLine
62
4
6
CONTINUOUS
10
227.5921920000
20
225.2019120000
11
205.5945420000
21
226.3017930000
0
LINE
5
661
100
AcDbEntity
8
025
100
AcDbLine
62
4
6
CONTINUOUS
10
205.5945420000
20
224.0359850000
11
227.5921920000
21
225.2019120000
0
LINE
5
662
100
AcDbEntity
8
025
100
AcDbLine
62
4
6
CONTINUOUS
10
227.5921920000
20
222.6087630000
11
205.5945420000
21
224.0359850000
0
LINE
5
663
100
AcDbEntity
8
025
100
AcDbLine
62
4
6
CONTINUOUS
10
205.5945420000
20
221.1231200000
11
227.5921920000
21
222.6087630000
0
LINE
5
664
100
AcDbEntity
8
025
100
AcDbLine
62
4
6
CONTINUOUS
10
227.5921920000
20
219.4119210000
11
205.5945420000
21
221.1231200000
0
LINE
5
665
100
AcDbEntity
8
025
100
AcDbLine
62
4
6
CONTINUOUS
10
205.5945420000
20
217.6517020000
11
227.5921920000
21
219.4119210000
0
LINE
5
666
100
AcDbEntity
8
025
100
AcDbLine
62
4
6
CONTINUOUS
10
227.5921920000
20
215.7085200000
11
205.5945420000
21
217.6517020000
0
LINE
5
667
100
AcDbEntity
8
025
100
AcDbLine
62
4
6
CONTINUOUS
10
205.5945420000
20
213.7272080000
11
227.5921920000
21
215.7085200000
0
LINE
5
668
100
AcDbEntity
8
025
100
AcDbLine
62
4
6
CONTINUOUS
10
205.5945420000
20
209.4688830000
11
227.5921920000
21
211.6110870000
0
LINE
5
669
100
AcDbEntity
8
025
100
AcDbLine
62
4
6
CONTINUOUS
10
227.5921920000
20
207.2441200000
11
205.5945420000
21
209.4688830000
0
LINE
5
66A
100
AcDbEntity
8
025
100
AcDbLine
62
4
6
CONTINUOUS
10
205.5945420000
20
205.0061140000
11
227.5921920000
21
207.2441200000
0
LINE
5
66B
100
AcDbEntity
8
025
100
AcDbLine
62
4
6
CONTINUOUS
10
225.4823560000
20
202.9576250000
11
205.5945420000
21
205.0061140000
0
LINE
5
66C
100
AcDbEntity
8
025
100
AcDbLine
62
4
6
CONTINUOUS
10
227.5921920000
20
182.8718510000
11
205.5945420000
21
181.4446280000
0
LINE
5
66D
100
AcDbEntity
8
025
100
AcDbLine
62
4
6
CONTINUOUS
10
205.5945420000
20
184.3574940000
11
227.5921920000
21
182.8718510000
0
LINE
5
66E
100
AcDbEntity
8
025
100
AcDbLine
62
4
6
CONTINUOUS
10
227.5921920000
20
186.0686930000
11
205.5945420000
21
184.3574940000
0
LINE
5
66F
100
AcDbEntity
8
025
100
AcDbLine
62
4
6
CONTINUOUS
10
205.5945420000
20
187.8289120000
11
227.5921920000
21
186.0686930000
0
LINE
5
670
100
AcDbEntity
8
025
100
AcDbLine
62
4
6
CONTINUOUS
10
227.5921920000
20
189.7720930000
11
205.5945420000
21
187.8289120000
0
LINE
5
671
100
AcDbEntity
8
025
100
AcDbLine
62
4
6
CONTINUOUS
10
205.5945420000
20
191.7534050000
11
227.5921920000
21
189.7720930000
0
LINE
5
672
100
AcDbEntity
8
025
100
AcDbLine
62
4
6
CONTINUOUS
10
227.5921920000
20
193.8695260000
11
205.5945420000
21
191.7534050000
0
LINE
5
673
100
AcDbEntity
8
025
100
AcDbLine
62
4
6
CONTINUOUS
10
205.5945420000
20
196.0117300000
11
227.5921920000
21
193.8695260000
0
LINE
5
674
100
AcDbEntity
8
025
100
AcDbLine
62
4
6
CONTINUOUS
10
227.5921920000
20
198.2364940000
11
205.5945420000
21
196.0117300000
0
LINE
5
675
100
AcDbEntity
8
025
100
AcDbLine
62
4
6
CONTINUOUS
10
205.5945420000
20
200.4744990000
11
224.1767540000
21
198.5839750000
0
LINE
5
676
100
AcDbEntity
8
025
100
AcDbLine
62
4
6
CONTINUOUS
10
227.5921920000
20
202.7403070000
11
205.5945420000
21
200.4744990000
0
LINE
5
677
100
AcDbEntity
8
025
100
AcDbLine
62
4
6
CONTINUOUS
10
205.5945420000
20
179.1788210000
11
227.5921920000
21
178.3680370000
0
LINE
5
678
100
AcDbEntity
8
025
100
AcDbLine
62
4
6
CONTINUOUS
10
227.5921920000
20
180.2787020000
11
205.5945420000
21
179.1788210000
0
LINE
5
679
100
AcDbEntity
8
025
100
AcDbLine
62
4
6
CONTINUOUS
10
205.5945420000
20
181.4446280000
11
227.5921920000
21
180.2787020000
0
LINE
5
67A
100
AcDbEntity
8
025
100
AcDbLine
62
4
6
CONTINUOUS
10
227.5921920000
20
211.6110870000
11
205.5945420000
21
213.7272080000
0
LINE
5
67B
100
AcDbEntity
8
025
100
AcDbLine
62
4
6
CONTINUOUS
10
200.5950760000
20
190.1824670000
11
205.5945420000
21
187.8289120000
0
LINE
5
67C
100
AcDbEntity
8
025
100
AcDbLine
62
4
6
CONTINUOUS
10
200.5950760000
20
183.5005790000
11
205.5945420000
21
181.4446280000
0
LINE
5
67D
100
AcDbEntity
8
025
100
AcDbLine
62
4
6
CONTINUOUS
10
205.5945420000
20
184.3574940000
11
200.5950760000
21
183.5005790000
0
LINE
5
67E
100
AcDbEntity
8
025
100
AcDbLine
62
4
6
CONTINUOUS
10
200.5950760000
20
186.5962590000
11
205.5945420000
21
184.3574940000
0
LINE
5
67F
100
AcDbEntity
8
025
100
AcDbLine
62
4
6
CONTINUOUS
10
205.5945420000
20
187.8289120000
11
200.5950760000
21
186.5962590000
0
LINE
5
680
100
AcDbEntity
8
025
100
AcDbLine
62
4
6
CONTINUOUS
10
200.5950760000
20
180.9894880000
11
205.5945420000
21
179.1788210000
0
LINE
5
681
100
AcDbEntity
8
025
100
AcDbLine
62
4
6
CONTINUOUS
10
205.5945420000
20
181.4446280000
11
200.5950760000
21
180.9894880000
0
LINE
5
682
100
AcDbEntity
8
025
100
AcDbLine
62
4
6
CONTINUOUS
10
205.5945420000
20
179.1788210000
11
200.5950760000
21
179.1392860000
0
LINE
5
683
100
AcDbEntity
8
025
100
AcDbLine
62
4
6
CONTINUOUS
10
205.5945420000
20
196.0117300000
11
200.5950760000
21
194.1502390000
0
LINE
5
684
100
AcDbEntity
8
025
100
AcDbLine
62
4
6
CONTINUOUS
10
200.5950760000
20
194.1502390000
11
204.9763340000
21
192.0497850000
0
LINE
5
685
100
AcDbEntity
8
025
100
AcDbLine
62
4
6
CONTINUOUS
10
205.5945420000
20
191.7534050000
11
200.5950760000
21
190.1824670000
0
LINE
5
686
100
AcDbEntity
8
025
100
AcDbLine
62
4
6
CONTINUOUS
10
200.5950760000
20
221.9800350000
11
205.5945420000
21
224.0359850000
0
LINE
5
687
100
AcDbEntity
8
025
100
AcDbLine
62
4
6
CONTINUOUS
10
205.5945420000
20
213.7272080000
11
200.5950760000
21
215.2981460000
0
LINE
5
688
100
AcDbEntity
8
025
100
AcDbLine
62
4
6
CONTINUOUS
10
205.5945420000
20
221.1231200000
11
200.5950760000
21
221.9800350000
0
LINE
5
689
100
AcDbEntity
8
025
100
AcDbLine
62
4
6
CONTINUOUS
10
200.5950760000
20
218.8843550000
11
205.5945420000
21
221.1231200000
0
LINE
5
68A
100
AcDbEntity
8
025
100
AcDbLine
62
4
6
CONTINUOUS
10
205.5945420000
20
217.6517020000
11
200.5950760000
21
218.8843550000
0
LINE
5
68B
100
AcDbEntity
8
025
100
AcDbLine
62
4
6
CONTINUOUS
10
200.5950760000
20
215.2981460000
11
205.5945420000
21
217.6517020000
0
LINE
5
68C
100
AcDbEntity
8
025
100
AcDbLine
62
4
6
CONTINUOUS
10
205.5945420000
20
226.3017930000
11
200.5950760000
21
226.3413280000
0
LINE
5
68D
100
AcDbEntity
8
025
100
AcDbLine
62
4
6
CONTINUOUS
10
200.5950760000
20
224.4911250000
11
205.5945420000
21
226.3017930000
0
LINE
5
68E
100
AcDbEntity
8
025
100
AcDbLine
62
4
6
CONTINUOUS
10
205.5945420000
20
224.0359850000
11
200.5950760000
21
224.4911250000
0
LINE
5
68F
100
AcDbEntity
8
025
100
AcDbLine
62
4
6
CONTINUOUS
10
269.3967700000
20
207.9397460000
11
269.3967700000
21
213.0417390000
0
ARC
5
690
100
AcDbEntity
8
025
100
AcDbCircle
62
4
6
CONTINUOUS
10
262.5266049242
20
212.4624577603
40
0.2767712397
100
AcDbArc
50
54.3429036094
51
89.9999842982
0
ARC
5
691
100
AcDbEntity
8
025
100
AcDbCircle
62
4
6
CONTINUOUS
10
262.3477190878
20
212.2131174592
40
0.5836437347
100
AcDbArc
50
30.0000763344
51
54.3429341843
0
ARC
5
692
100
AcDbEntity
8
025
100
AcDbCircle
62
4
6
CONTINUOUS
10
262.0615483978
20
212.0478999240
40
0.9140835897
100
AcDbArc
50
13.4493702827
51
29.9998755922
0
ARC
5
693
100
AcDbEntity
8
025
100
AcDbCircle
62
4
6
CONTINUOUS
10
261.6075066889
20
211.9393133032
40
1.3809293111
100
AcDbArc
50
0.0000704035
51
13.4495761839
0
ARC
5
694
100
AcDbEntity
8
025
100
AcDbCircle
62
4
6
CONTINUOUS
10
261.6204935657
20
211.9393147935
40
0.4793795657
100
AcDbArc
50
144.3428946354
51
179.9999753242
0
ARC
5
695
100
AcDbEntity
8
025
100
AcDbCircle
62
4
6
CONTINUOUS
10
262.0523680997
20
211.6294724565
40
1.0109036827
100
AcDbArc
50
120.0000823557
51
144.3429402056
0
ARC
5
696
100
AcDbEntity
8
025
100
AcDbCircle
62
4
6
CONTINUOUS
10
262.3385346149
20
211.1338143949
40
1.5832394132
100
AcDbArc
50
103.4494908585
51
119.9999961681
0
ARC
5
697
100
AcDbEntity
8
025
100
AcDbCircle
62
4
6
CONTINUOUS
10
262.5266031983
20
210.3473938495
40
2.3918351505
100
AcDbArc
50
89.9999568412
51
103.4494626216
0
ARC
5
698
100
AcDbEntity
8
025
100
AcDbCircle
62
4
6
CONTINUOUS
10
267.4619622246
20
211.9393147589
40
0.3214952246
100
AcDbArc
50
138.2415275507
51
179.9999570261
0
ARC
5
699
100
AcDbEntity
8
025
100
AcDbCircle
62
4
6
CONTINUOUS
10
267.9658759364
20
211.4894241928
40
0.9970176523
100
AcDbArc
50
114.8890903751
51
138.2416780079
0
ARC
5
69A
100
AcDbEntity
8
025
100
AcDbCircle
62
4
6
CONTINUOUS
10
268.3033772077
20
210.7619620226
40
1.7989579975
100
AcDbArc
50
100.8990739385
51
114.8888858378
0
ARC
5
69B
100
AcDbEntity
8
025
100
AcDbCircle
62
4
6
CONTINUOUS
10
250.0574139169
20
211.9393147960
40
0.6032859169
100
AcDbArc
50
150.9248965683
51
179.9999806241
0
ARC
5
69C
100
AcDbEntity
8
025
100
AcDbCircle
62
4
6
CONTINUOUS
10
250.2837425591
20
211.8134726957
40
0.8622470886
100
AcDbArc
50
126.6845876057
51
150.9250141128
0
ARC
5
69D
100
AcDbEntity
8
025
100
AcDbCircle
62
4
6
CONTINUOUS
10
250.4314323281
20
211.6152175389
40
1.1094663740
100
AcDbArc
50
107.1487141358
51
126.6844994896
0
ARC
5
69E
100
AcDbEntity
8
025
100
AcDbCircle
62
4
6
CONTINUOUS
10
250.5279000799
20
211.3025873171
40
1.4366416829
100
AcDbArc
50
90.0000430697
51
107.1486798230
0
ARC
5
69F
100
AcDbEntity
8
025
100
AcDbCircle
62
4
6
CONTINUOUS
10
244.5285453825
20
212.0940301809
40
0.4644028191
100
AcDbArc
50
62.7987444039
51
89.9999238132
0
ARC
5
6A0
100
AcDbEntity
8
025
100
AcDbCircle
62
4
6
CONTINUOUS
10
244.4677616351
20
211.9757607470
40
0.5973777149
100
AcDbArc
50
38.8665004693
51
62.7988946982
0
ARC
5
6A1
100
AcDbEntity
8
025
100
AcDbCircle
62
4
6
CONTINUOUS
10
244.3724601129
20
211.8989517258
40
0.7197787193
100
AcDbArc
50
18.4606481582
51
38.8666456815
0
ARC
5
6A2
100
AcDbEntity
8
025
100
AcDbCircle
62
4
6
CONTINUOUS
10
244.2225707543
20
211.8489161247
40
0.8777989117
100
AcDbArc
50
7.3387413807
51
18.4605100416
0
ARC
5
6A3
100
AcDbEntity
8
025
100
AcDbCircle
62
4
6
CONTINUOUS
10
244.7300010000
20
211.4100060000
40
1.1659620000
100
AcDbArc
50
99.9495070000
51
176.5403810000
0
ARC
5
6A4
100
AcDbEntity
8
025
100
AcDbCircle
62
4
6
CONTINUOUS
10
250.5278982662
20
212.3997299834
40
0.3394990166
100
AcDbArc
50
57.2322530241
51
89.9998761593
0
ARC
5
6A5
100
AcDbEntity
8
025
100
AcDbCircle
62
4
6
CONTINUOUS
10
250.3861177265
20
212.1794528134
40
0.6014603745
100
AcDbArc
50
32.7627408883
51
57.2324912840
0
ARC
5
6A6
100
AcDbEntity
8
025
100
AcDbCircle
62
4
6
CONTINUOUS
10
250.1607474873
20
212.0344228378
40
0.8694630584
100
AcDbArc
50
14.9255524112
51
32.7625251186
0
ARC
5
6A7
100
AcDbEntity
8
025
100
AcDbCircle
62
4
6
CONTINUOUS
10
249.8039613655
20
211.9393125922
40
1.2387086345
100
AcDbArc
50
0.0001113704
51
14.9258382790
0
LINE
5
6A8
100
AcDbEntity
8
025
100
AcDbLine
62
4
6
CONTINUOUS
10
243.5661630000
20
194.0002480000
11
243.5661630000
21
211.4803660000
0
LINE
5
6A9
100
AcDbEntity
8
025
100
AcDbLine
62
4
6
CONTINUOUS
10
245.0931790000
20
193.5195710000
11
245.0931790000
21
211.9610420000
0
LINE
5
6AA
100
AcDbEntity
8
025
100
AcDbLine
62
4
6
CONTINUOUS
10
249.4541280000
20
193.5412980000
11
249.4541280000
21
211.9393150000
0
LINE
5
6AB
100
AcDbEntity
8
025
100
AcDbLine
62
4
6
CONTINUOUS
10
251.0426700000
20
193.5412980000
11
251.0426700000
21
211.9393150000
0
ARC
5
6AC
100
AcDbEntity
8
025
100
AcDbCircle
62
4
6
CONTINUOUS
10
250.0574119888
20
193.5412987040
40
0.6032839888
100
AcDbArc
50
180.0000668625
51
209.0751509183
0
ARC
5
6AD
100
AcDbEntity
8
025
100
AcDbCircle
62
4
6
CONTINUOUS
10
250.2837425591
20
193.6671413043
40
0.8622470886
100
AcDbArc
50
209.0749858872
51
233.3154123943
0
ARC
5
6AE
100
AcDbEntity
8
025
100
AcDbCircle
62
4
6
CONTINUOUS
10
250.4314323281
20
193.8653964611
40
1.1094663740
100
AcDbArc
50
233.3155005104
51
252.8512858642
0
ARC
5
6AF
100
AcDbEntity
8
025
100
AcDbCircle
62
4
6
CONTINUOUS
10
250.5279000799
20
194.1780266829
40
1.4366416829
100
AcDbArc
50
252.8513201770
51
269.9999569303
0
ARC
5
6B0
100
AcDbEntity
8
025
100
AcDbCircle
62
4
6
CONTINUOUS
10
244.5285474491
20
193.3865833191
40
0.4644023191
100
AcDbArc
50
269.9998212121
51
297.2010006215
0
ARC
5
6B1
100
AcDbEntity
8
025
100
AcDbCircle
62
4
6
CONTINUOUS
10
244.4677616351
20
193.5048522530
40
0.5973777149
100
AcDbArc
50
297.2011053018
51
321.1334995307
0
ARC
5
6B2
100
AcDbEntity
8
025
100
AcDbCircle
62
4
6
CONTINUOUS
10
244.3724573348
20
193.5816617742
40
0.7197811961
100
AcDbArc
50
321.1334620951
51
341.5394596183
0
ARC
5
6B3
100
AcDbEntity
8
025
100
AcDbCircle
62
4
6
CONTINUOUS
10
244.2225758898
20
193.6316973753
40
0.8777938822
100
AcDbArc
50
341.5394147718
51
352.6611834328
0
ARC
5
6B4
100
AcDbEntity
8
025
100
AcDbCircle
62
4
6
CONTINUOUS
10
244.7300010000
20
194.0706080000
40
1.1659620000
100
AcDbArc
50
183.4596190000
51
260.0504930000
0
ARC
5
6B5
100
AcDbEntity
8
025
100
AcDbCircle
62
4
6
CONTINUOUS
10
256.1262420000
20
193.6425790000
40
0.9845710000
100
AcDbArc
50
180.7743070000
51
199.1666900000
0
LINE
5
6B6
100
AcDbEntity
8
025
100
AcDbLine
62
4
6
CONTINUOUS
10
256.9890830000
20
199.7083080000
11
256.9890830000
21
193.5412980000
0
LINE
5
6B7
100
AcDbEntity
8
025
100
AcDbLine
62
4
6
CONTINUOUS
10
255.1417610000
20
193.6292740000
11
255.1417610000
21
199.7391810000
0
ARC
5
6B8
100
AcDbEntity
8
025
100
AcDbCircle
62
4
6
CONTINUOUS
10
250.5278999668
20
193.0808835166
40
0.3394985166
100
AcDbArc
50
269.9998368328
51
302.7674599680
0
ARC
5
6B9
100
AcDbEntity
8
025
100
AcDbCircle
62
4
6
CONTINUOUS
10
250.3861154207
20
193.3011606866
40
0.6014620429
100
AcDbArc
50
302.7676676365
51
327.2374180322
0
ARC
5
6BA
100
AcDbEntity
8
025
100
AcDbCircle
62
4
6
CONTINUOUS
10
250.1607474873
20
193.4461911622
40
0.8694630584
100
AcDbArc
50
327.2374748814
51
345.0744475888
0
ARC
5
6BB
100
AcDbEntity
8
025
100
AcDbCircle
62
4
6
CONTINUOUS
10
249.8039651825
20
193.5413009078
40
1.2387048175
100
AcDbArc
50
345.0741385934
51
359.9998655019
0
ARC
5
6BC
100
AcDbEntity
8
025
100
AcDbCircle
62
4
6
CONTINUOUS
10
255.6211401783
20
193.5412991934
40
0.4793798263
100
AcDbArc
50
207.5834691893
51
215.6572282032
0
ARC
5
6BD
100
AcDbEntity
8
025
100
AcDbCircle
62
4
6
CONTINUOUS
10
256.0530127815
20
193.8511410435
40
1.0109020906
100
AcDbArc
50
215.6571594118
51
240.0000172617
0
ARC
5
6BE
100
AcDbEntity
8
025
100
AcDbCircle
62
4
6
CONTINUOUS
10
256.3391816149
20
194.3467996051
40
1.5832394132
100
AcDbArc
50
240.0000038319
51
256.5505091415
0
ARC
5
6BF
100
AcDbEntity
8
025
100
AcDbCircle
62
4
6
CONTINUOUS
10
256.5272501983
20
195.1332201505
40
2.3918351505
100
AcDbArc
50
256.5505373784
51
270.0000431588
0
ARC
5
6C0
100
AcDbEntity
8
025
100
AcDbCircle
62
4
6
CONTINUOUS
10
256.5272519242
20
193.0181562397
40
0.2767712397
100
AcDbArc
50
270.0000157018
51
305.6570963906
0
ARC
5
6C1
100
AcDbEntity
8
025
100
AcDbCircle
62
4
6
CONTINUOUS
10
256.3483660878
20
193.2674965408
40
0.5836437347
100
AcDbArc
50
305.6570658157
51
329.9999236656
0
ARC
5
6C2
100
AcDbEntity
8
025
100
AcDbCircle
62
4
6
CONTINUOUS
10
256.0621953978
20
193.4327140760
40
0.9140835897
100
AcDbArc
50
330.0001244078
51
346.5506297173
0
ARC
5
6C3
100
AcDbEntity
8
025
100
AcDbCircle
62
4
6
CONTINUOUS
10
255.6081579294
20
193.5413001968
40
1.3809250707
100
AcDbArc
50
346.5504030705
51
359.9999088509
0
LINE
5
6C4
100
AcDbEntity
8
025
100
AcDbLine
62
4
6
CONTINUOUS
10
256.9890830000
20
199.7083080000
11
255.1417610000
21
199.7391810000
0
LINE
5
6C5
100
AcDbEntity
8
025
100
AcDbLine
62
4
6
CONTINUOUS
10
253.5719300000
20
205.7399830000
11
256.0716610000
21
211.7393370000
0
LINE
5
6C6
100
AcDbEntity
8
025
100
AcDbLine
62
4
6
CONTINUOUS
10
255.0717680000
20
205.7399830000
11
253.5719300000
21
205.7399830000
0
LINE
5
6C7
100
AcDbEntity
8
025
100
AcDbLine
62
4
6
CONTINUOUS
10
255.0717680000
20
201.7404150000
11
255.0717680000
21
205.7399830000
0
LINE
5
6C8
100
AcDbEntity
8
025
100
AcDbLine
62
4
6
CONTINUOUS
10
262.9884360000
20
193.5412980000
11
262.9884360000
21
199.6414640000
0
ARC
5
6C9
100
AcDbEntity
8
025
100
AcDbCircle
62
4
6
CONTINUOUS
10
262.5266049242
20
193.0181562397
40
0.2767712397
100
AcDbArc
50
270.0000157018
51
305.6570963906
0
ARC
5
6CA
100
AcDbEntity
8
025
100
AcDbCircle
62
4
6
CONTINUOUS
10
262.3477190878
20
193.2674965408
40
0.5836437347
100
AcDbArc
50
305.6570658157
51
329.9999236656
0
ARC
5
6CB
100
AcDbEntity
8
025
100
AcDbCircle
62
4
6
CONTINUOUS
10
262.0615483978
20
193.4327140760
40
0.9140835897
100
AcDbArc
50
330.0001244078
51
346.5506297173
0
ARC
5
6CC
100
AcDbEntity
8
025
100
AcDbCircle
62
4
6
CONTINUOUS
10
261.6075109294
20
193.5413001968
40
1.3809250707
100
AcDbArc
50
346.5504030705
51
359.9999088509
0
LINE
5
6CD
100
AcDbEntity
8
025
100
AcDbLine
62
4
6
CONTINUOUS
10
261.1411140000
20
193.5412980000
11
261.1411140000
21
199.6723380000
0
ARC
5
6CE
100
AcDbEntity
8
025
100
AcDbCircle
62
4
6
CONTINUOUS
10
261.6204935657
20
193.5412982065
40
0.4793795657
100
AcDbArc
50
180.0000246758
51
215.6571053646
0
ARC
5
6CF
100
AcDbEntity
8
025
100
AcDbCircle
62
4
6
CONTINUOUS
10
262.0523657815
20
193.8511410435
40
1.0109020906
100
AcDbArc
50
215.6571594118
51
240.0000172617
0
ARC
5
6D0
100
AcDbEntity
8
025
100
AcDbCircle
62
4
6
CONTINUOUS
10
262.3385346149
20
194.3467996051
40
1.5832394132
100
AcDbArc
50
240.0000038319
51
256.5505091415
0
ARC
5
6D1
100
AcDbEntity
8
025
100
AcDbCircle
62
4
6
CONTINUOUS
10
262.5266031983
20
195.1332201505
40
2.3918351505
100
AcDbArc
50
256.5505373784
51
270.0000431588
0
LINE
5
6D2
100
AcDbEntity
8
025
100
AcDbLine
62
4
6
CONTINUOUS
10
262.9884360000
20
199.6414640000
11
261.1411140000
21
199.6723380000
0
LINE
5
6D3
100
AcDbEntity
8
025
100
AcDbLine
62
4
6
CONTINUOUS
10
267.1404670000
20
193.5412980000
11
267.1404670000
21
199.5386510000
0
ARC
5
6D4
100
AcDbEntity
8
025
100
AcDbCircle
62
4
6
CONTINUOUS
10
267.4619622246
20
193.5412982411
40
0.3214952246
100
AcDbArc
50
180.0000429739
51
221.7584724493
0
ARC
5
6D5
100
AcDbEntity
8
025
100
AcDbCircle
62
4
6
CONTINUOUS
10
267.9658735170
20
193.9911893072
40
0.9970161805
100
AcDbArc
50
221.7584360250
51
245.1110236577
0
ARC
5
6D6
100
AcDbEntity
8
025
100
AcDbCircle
62
4
6
CONTINUOUS
10
268.3033836135
20
194.7186566635
40
1.7989649443
100
AcDbArc
50
245.1109919045
51
259.1218100655
0
ARC
5
6D7
100
AcDbEntity
8
025
100
AcDbCircle
62
4
6
CONTINUOUS
10
268.5259569659
20
195.8768319188
40
2.9783329188
100
AcDbArc
50
259.1217886187
51
270.0000391310
0
LINE
5
6D8
100
AcDbEntity
8
025
100
AcDbLine
62
4
6
CONTINUOUS
10
268.9877890000
20
199.5077780000
11
267.1404670000
21
199.5386510000
0
LINE
5
6D9
100
AcDbEntity
8
025
100
AcDbLine
62
4
6
CONTINUOUS
10
262.9884360000
20
211.9393150000
11
262.9884360000
21
205.8391490000
0
LINE
5
6DA
100
AcDbEntity
8
025
100
AcDbLine
62
4
6
CONTINUOUS
10
261.1411140000
20
211.9393150000
11
261.1411140000
21
205.8082760000
0
LINE
5
6DB
100
AcDbEntity
8
025
100
AcDbLine
62
4
6
CONTINUOUS
10
262.9884360000
20
205.8391490000
11
261.1411140000
21
205.8082760000
0
LINE
5
6DC
100
AcDbEntity
8
025
100
AcDbLine
62
4
6
CONTINUOUS
10
267.1404670000
20
205.9206370000
11
267.1404670000
21
211.9393150000
0
LINE
5
6DD
100
AcDbEntity
8
025
100
AcDbLine
62
4
6
CONTINUOUS
10
268.9877890000
20
205.9537230000
11
267.1404670000
21
205.9206370000
0
ARC
5
6DE
100
AcDbEntity
8
025
100
AcDbCircle
62
4
6
CONTINUOUS
10
268.5259661147
20
209.6038155745
40
2.9782995251
100
AcDbArc
50
93.5856038050
51
97.2320578496
0
LINE
5
6DF
100
AcDbEntity
8
025
100
AcDbLine
62
4
6
CONTINUOUS
10
288.9452320000
20
204.1282240000
11
288.9452320000
21
197.6905720000
0
LINE
5
6E0
100
AcDbEntity
8
025
100
AcDbLine
62
4
6
CONTINUOUS
10
288.9452320000
20
206.3656490000
11
288.9452320000
21
204.9494060000
0
LINE
5
6E1
100
AcDbEntity
8
025
100
AcDbLine
62
4
6
CONTINUOUS
10
288.9452320000
20
207.7900420000
11
288.9452320000
21
207.0286260000
0
LINE
5
6E2
100
AcDbEntity
8
025
100
AcDbLine
62
4
6
CONTINUOUS
10
322.6908770000
20
194.4947290000
11
315.8167420000
21
194.4947290000
0
ARC
5
6E3
100
AcDbEntity
8
025
100
AcDbCircle
62
4
6
CONTINUOUS
10
315.8167420000
20
194.1128520000
40
0.3818770000
100
AcDbArc
50
90.0000000000
51
180.0000000000
0
ARC
5
6E4
100
AcDbEntity
8
025
100
AcDbCircle
62
4
6
CONTINUOUS
10
323.3819620000
20
192.8949000000
40
1.5998290000
100
AcDbArc
50
1.4783700000
51
85.5091600000
0
LINE
5
6E5
100
AcDbEntity
8
025
100
AcDbLine
62
4
6
CONTINUOUS
10
323.3819620000
20
194.4947290000
11
322.9097290000
21
194.4947290000
0
ARC
5
6E6
100
AcDbEntity
8
025
100
AcDbCircle
62
4
6
CONTINUOUS
10
318.5824752859
20
217.3254530092
40
1.5998320092
100
AcDbArc
50
238.9218832943
51
269.9999539477
0
LINE
5
6E7
100
AcDbEntity
8
025
100
AcDbLine
62
4
6
CONTINUOUS
10
318.5824740000
20
215.7256210000
11
318.6709830000
21
215.7256210000
0
ARC
5
6E8
100
AcDbEntity
8
025
100
AcDbCircle
62
4
6
CONTINUOUS
10
318.5824769731
20
217.3254518118
40
1.5998317316
100
AcDbArc
50
192.4335331123
51
230.4064210463
0
LINE
5
6E9
100
AcDbEntity
8
025
100
AcDbLine
62
4
6
CONTINUOUS
10
319.2105850000
20
215.7256210000
11
323.3470720000
21
215.7256210000
0
ARC
5
6EA
100
AcDbEntity
8
025
100
AcDbCircle
62
4
6
CONTINUOUS
10
323.3470707332
20
217.3254507810
40
1.5998297810
100
AcDbArc
50
270.0000453698
51
356.7776216126
0
LINE
5
6EB
100
AcDbEntity
8
025
100
AcDbLine
62
4
6
CONTINUOUS
10
227.5921920000
20
135.5710830000
11
205.5945420000
21
136.3102030000
0
LINE
5
6EC
100
AcDbEntity
8
025
100
AcDbLine
62
4
6
CONTINUOUS
10
205.5945420000
20
134.7603000000
11
227.5921920000
21
135.5710830000
0
LINE
5
6ED
100
AcDbEntity
8
025
100
AcDbLine
62
4
6
CONTINUOUS
10
227.5921920000
20
133.6604190000
11
205.5945420000
21
134.7603000000
0
LINE
5
6EE
100
AcDbEntity
8
025
100
AcDbLine
62
4
6
CONTINUOUS
10
205.5945420000
20
132.4944920000
11
227.5921920000
21
133.6604190000
0
LINE
5
6EF
100
AcDbEntity
8
025
100
AcDbLine
62
4
6
CONTINUOUS
10
227.5921920000
20
131.0672700000
11
205.5945420000
21
132.4944920000
0
LINE
5
6F0
100
AcDbEntity
8
025
100
AcDbLine
62
4
6
CONTINUOUS
10
205.5945420000
20
129.5816270000
11
227.5921920000
21
131.0672700000
0
LINE
5
6F1
100
AcDbEntity
8
025
100
AcDbLine
62
4
6
CONTINUOUS
10
227.5921920000
20
127.8704280000
11
205.5945420000
21
129.5816270000
0
LINE
5
6F2
100
AcDbEntity
8
025
100
AcDbLine
62
4
6
CONTINUOUS
10
205.5945420000
20
126.1102080000
11
227.5921920000
21
127.8704280000
0
LINE
5
6F3
100
AcDbEntity
8
025
100
AcDbLine
62
4
6
CONTINUOUS
10
227.5921920000
20
124.1670270000
11
205.5945420000
21
126.1102080000
0
LINE
5
6F4
100
AcDbEntity
8
025
100
AcDbLine
62
4
6
CONTINUOUS
10
205.5945420000
20
122.1857150000
11
227.5921920000
21
124.1670270000
0
LINE
5
6F5
100
AcDbEntity
8
025
100
AcDbLine
62
4
6
CONTINUOUS
10
205.5945420000
20
117.9273900000
11
227.5921920000
21
120.0695940000
0
LINE
5
6F6
100
AcDbEntity
8
025
100
AcDbLine
62
4
6
CONTINUOUS
10
227.5921920000
20
115.7026270000
11
205.5945420000
21
117.9273900000
0
LINE
5
6F7
100
AcDbEntity
8
025
100
AcDbLine
62
4
6
CONTINUOUS
10
205.5945420000
20
113.4646210000
11
227.5921920000
21
115.7026270000
0
LINE
5
6F8
100
AcDbEntity
8
025
100
AcDbLine
62
4
6
CONTINUOUS
10
225.4823560000
20
111.4161320000
11
205.5945420000
21
113.4646210000
0
LINE
5
6F9
100
AcDbEntity
8
025
100
AcDbLine
62
4
6
CONTINUOUS
10
227.5921920000
20
91.3303580000
11
205.5945420000
21
89.9031350000
0
LINE
5
6FA
100
AcDbEntity
8
025
100
AcDbLine
62
4
6
CONTINUOUS
10
205.5945420000
20
92.8160010000
11
227.5921920000
21
91.3303580000
0
LINE
5
6FB
100
AcDbEntity
8
025
100
AcDbLine
62
4
6
CONTINUOUS
10
227.5921920000
20
94.5272000000
11
205.5945420000
21
92.8160010000
0
LINE
5
6FC
100
AcDbEntity
8
025
100
AcDbLine
62
4
6
CONTINUOUS
10
205.5945420000
20
96.2874190000
11
227.5921920000
21
94.5272000000
0
LINE
5
6FD
100
AcDbEntity
8
025
100
AcDbLine
62
4
6
CONTINUOUS
10
227.5921920000
20
98.2306000000
11
205.5945420000
21
96.2874190000
0
LINE
5
6FE
100
AcDbEntity
8
025
100
AcDbLine
62
4
6
CONTINUOUS
10
205.5945420000
20
100.2119120000
11
227.5921920000
21
98.2306000000
0
LINE
5
6FF
100
AcDbEntity
8
025
100
AcDbLine
62
4
6
CONTINUOUS
10
227.5921920000
20
102.3280330000
11
205.5945420000
21
100.2119120000
0
LINE
5
700
100
AcDbEntity
8
025
100
AcDbLine
62
4
6
CONTINUOUS
10
205.5945420000
20
104.4702370000
11
227.5921920000
21
102.3280330000
0
LINE
5
701
100
AcDbEntity
8
025
100
AcDbLine
62
4
6
CONTINUOUS
10
227.5921920000
20
106.6950000000
11
205.5945420000
21
104.4702370000
0
LINE
5
702
100
AcDbEntity
8
025
100
AcDbLine
62
4
6
CONTINUOUS
10
205.5945420000
20
108.9330060000
11
224.1767540000
21
107.0424820000
0
LINE
5
703
100
AcDbEntity
8
025
100
AcDbLine
62
4
6
CONTINUOUS
10
227.5921920000
20
111.1988140000
11
205.5945420000
21
108.9330060000
0
LINE
5
704
100
AcDbEntity
8
025
100
AcDbLine
62
4
6
CONTINUOUS
10
205.5945420000
20
87.6373280000
11
227.5921920000
21
86.8265440000
0
LINE
5
705
100
AcDbEntity
8
025
100
AcDbLine
62
4
6
CONTINUOUS
10
227.5921920000
20
88.7372090000
11
205.5945420000
21
87.6373280000
0
LINE
5
706
100
AcDbEntity
8
025
100
AcDbLine
62
4
6
CONTINUOUS
10
205.5945420000
20
89.9031350000
11
227.5921920000
21
88.7372090000
0
LINE
5
707
100
AcDbEntity
8
025
100
AcDbLine
62
4
6
CONTINUOUS
10
227.5921920000
20
120.0695940000
11
205.5945420000
21
122.1857150000
0
LINE
5
708
100
AcDbEntity
8
025
100
AcDbLine
62
4
6
CONTINUOUS
10
205.5945420000
20
92.8160010000
11
200.5950760000
21
91.9590860000
0
LINE
5
709
100
AcDbEntity
8
025
100
AcDbLine
62
4
6
CONTINUOUS
10
200.5950760000
20
91.9590860000
11
205.5945420000
21
89.9031350000
0
LINE
5
70A
100
AcDbEntity
8
025
100
AcDbLine
62
4
6
CONTINUOUS
10
205.5945420000
20
89.9031350000
11
200.5950760000
21
89.4479950000
0
LINE
5
70B
100
AcDbEntity
8
025
100
AcDbLine
62
4
6
CONTINUOUS
10
205.5945420000
20
87.6373280000
11
200.5950760000
21
87.5977930000
0
LINE
5
70C
100
AcDbEntity
8
025
100
AcDbLine
62
4
6
CONTINUOUS
10
200.5950760000
20
89.4479950000
11
205.5945420000
21
87.6373280000
0
LINE
5
70D
100
AcDbEntity
8
025
100
AcDbLine
62
4
6
CONTINUOUS
10
205.5945420000
20
104.4702370000
11
200.5950760000
21
102.6087460000
0
LINE
5
70E
100
AcDbEntity
8
025
100
AcDbLine
62
4
6
CONTINUOUS
10
200.5950760000
20
98.6409740000
11
205.5945420000
21
96.2874190000
0
LINE
5
70F
100
AcDbEntity
8
025
100
AcDbLine
62
4
6
CONTINUOUS
10
200.5950760000
20
95.0547650000
11
205.5945420000
21
92.8160010000
0
LINE
5
710
100
AcDbEntity
8
025
100
AcDbLine
62
4
6
CONTINUOUS
10
205.5945420000
20
96.2874190000
11
200.5950760000
21
95.0547650000
0
LINE
5
711
100
AcDbEntity
8
025
100
AcDbLine
62
4
6
CONTINUOUS
10
200.5950760000
20
102.6087460000
11
204.9763340000
21
100.5082920000
0
LINE
5
712
100
AcDbEntity
8
025
100
AcDbLine
62
4
6
CONTINUOUS
10
205.5945420000
20
100.2119120000
11
200.5950760000
21
98.6409740000
0
LINE
5
713
100
AcDbEntity
8
025
100
AcDbLine
62
4
6
CONTINUOUS
10
200.5950760000
20
127.3428620000
11
205.5945420000
21
129.5816270000
0
LINE
5
714
100
AcDbEntity
8
025
100
AcDbLine
62
4
6
CONTINUOUS
10
205.5945420000
20
122.1857150000
11
200.5950760000
21
123.7566530000
0
LINE
5
715
100
AcDbEntity
8
025
100
AcDbLine
62
4
6
CONTINUOUS
10
205.5945420000
20
126.1102080000
11
200.5950760000
21
127.3428620000
0
LINE
5
716
100
AcDbEntity
8
025
100
AcDbLine
62
4
6
CONTINUOUS
10
200.5950760000
20
123.7566530000
11
205.5945420000
21
126.1102080000
0
LINE
5
717
100
AcDbEntity
8
025
100
AcDbLine
62
4
6
CONTINUOUS
10
200.5950760000
20
132.9496320000
11
205.5945420000
21
134.7603000000
0
LINE
5
718
100
AcDbEntity
8
025
100
AcDbLine
62
4
6
CONTINUOUS
10
205.5945420000
20
132.4944920000
11
200.5950760000
21
132.9496320000
0
LINE
5
719
100
AcDbEntity
8
025
100
AcDbLine
62
4
6
CONTINUOUS
10
205.5945420000
20
129.5816270000
11
200.5950760000
21
130.4385420000
0
LINE
5
71A
100
AcDbEntity
8
025
100
AcDbLine
62
4
6
CONTINUOUS
10
200.5950760000
20
130.4385420000
11
205.5945420000
21
132.4944920000
0
LINE
5
71B
100
AcDbEntity
8
025
100
AcDbLine
62
4
6
CONTINUOUS
10
205.5945420000
20
134.7603000000
11
200.5950760000
21
134.7998350000
0
LINE
5
71C
100
AcDbEntity
8
SCHRAFFIERT
100
AcDbLine
62
4
6
CONTINUOUS
10
258.0010100000
20
103.5966380000
11
258.0010100000
21
104.7459400000
0
LINE
5
71D
100
AcDbEntity
8
SCHRAFFIERT
100
AcDbLine
62
4
6
CONTINUOUS
10
258.0010100000
20
104.7459400000
11
259.6727220000
21
104.4511720000
0
LINE
5
71E
100
AcDbEntity
8
SCHRAFFIERT
100
AcDbLine
62
4
6
CONTINUOUS
10
259.6727220000
20
104.4511720000
11
259.6727220000
21
103.3018700000
0
LINE
5
71F
100
AcDbEntity
8
SCHRAFFIERT
100
AcDbLine
62
4
6
CONTINUOUS
10
259.6727220000
20
103.3018700000
11
258.0010100000
21
103.5966380000
0
LINE
5
720
100
AcDbEntity
8
SCHRAFFIERT
100
AcDbLine
62
4
6
CONTINUOUS
10
258.0010100000
20
98.6859860000
11
258.0010100000
21
100.1487330000
0
LINE
5
721
100
AcDbEntity
8
SCHRAFFIERT
100
AcDbLine
62
4
6
CONTINUOUS
10
258.0010100000
20
100.1487330000
11
258.7323840000
21
101.3780380000
0
LINE
5
722
100
AcDbEntity
8
SCHRAFFIERT
100
AcDbLine
62
4
6
CONTINUOUS
10
258.7323840000
20
101.3780380000
11
258.0010100000
21
101.5069990000
0
LINE
5
723
100
AcDbEntity
8
SCHRAFFIERT
100
AcDbLine
62
4
6
CONTINUOUS
10
258.0010100000
20
101.5069990000
11
258.0010100000
21
102.6563000000
0
LINE
5
724
100
AcDbEntity
8
SCHRAFFIERT
100
AcDbLine
62
4
6
CONTINUOUS
10
258.0010100000
20
102.6563000000
11
259.6727220000
21
102.3615330000
0
LINE
5
725
100
AcDbEntity
8
SCHRAFFIERT
100
AcDbLine
62
4
6
CONTINUOUS
10
259.6727220000
20
102.3615330000
11
259.6727220000
21
101.2122310000
0
LINE
5
726
100
AcDbEntity
8
SCHRAFFIERT
100
AcDbLine
62
4
6
CONTINUOUS
10
259.6727220000
20
101.2122310000
11
258.9413480000
21
101.3411920000
0
LINE
5
727
100
AcDbEntity
8
SCHRAFFIERT
100
AcDbLine
62
4
6
CONTINUOUS
10
258.9413480000
20
101.3411920000
11
259.6727220000
21
99.9584470000
0
LINE
5
728
100
AcDbEntity
8
SCHRAFFIERT
100
AcDbLine
62
4
6
CONTINUOUS
10
259.6727220000
20
99.9584470000
11
259.6727220000
21
98.3912180000
0
LINE
5
729
100
AcDbEntity
8
SCHRAFFIERT
100
AcDbLine
62
4
6
CONTINUOUS
10
259.6727220000
20
98.3912180000
11
258.8368660000
21
100.2103130000
0
LINE
5
72A
100
AcDbEntity
8
SCHRAFFIERT
100
AcDbLine
62
4
6
CONTINUOUS
10
258.8368660000
20
100.2103130000
11
258.0010100000
21
98.6859860000
0
LINE
5
72B
100
AcDbEntity
8
SCHRAFFIERT
100
AcDbLine
62
4
6
CONTINUOUS
10
259.2547940000
20
110.8982640000
11
259.2547940000
21
111.7341190000
0
LINE
5
72C
100
AcDbEntity
8
SCHRAFFIERT
100
AcDbLine
62
4
6
CONTINUOUS
10
259.2547940000
20
111.7341190000
11
259.6727220000
21
111.6604270000
0
LINE
5
72D
100
AcDbEntity
8
SCHRAFFIERT
100
AcDbLine
62
4
6
CONTINUOUS
10
259.6727220000
20
111.6604270000
11
259.6727220000
21
108.8394140000
0
LINE
5
72E
100
AcDbEntity
8
SCHRAFFIERT
100
AcDbLine
62
4
6
CONTINUOUS
10
259.6727220000
20
108.8394140000
11
259.2547940000
21
108.9131060000
0
LINE
5
72F
100
AcDbEntity
8
SCHRAFFIERT
100
AcDbLine
62
4
6
CONTINUOUS
10
259.2547940000
20
108.9131060000
11
259.2547940000
21
109.7489620000
0
LINE
5
730
100
AcDbEntity
8
SCHRAFFIERT
100
AcDbLine
62
4
6
CONTINUOUS
10
259.2547940000
20
109.7489620000
11
258.0010100000
21
109.9700380000
0
LINE
5
731
100
AcDbEntity
8
SCHRAFFIERT
100
AcDbLine
62
4
6
CONTINUOUS
10
258.0010100000
20
109.9700380000
11
258.0010100000
21
111.1193390000
0
LINE
5
732
100
AcDbEntity
8
SCHRAFFIERT
100
AcDbLine
62
4
6
CONTINUOUS
10
258.0010100000
20
111.1193390000
11
259.2547940000
21
110.8982640000
0
ARC
5
733
100
AcDbEntity
8
SCHRAFFIERT
100
AcDbCircle
62
4
6
CONTINUOUS
10
259.9606850000
20
106.4239620000
40
1.3327830000
100
AcDbArc
50
192.1768440000
51
194.5142790000
0
ARC
5
734
100
AcDbEntity
8
SCHRAFFIERT
100
AcDbCircle
62
4
6
CONTINUOUS
10
260.1146250000
20
106.3773950000
40
1.4725180000
100
AcDbArc
50
191.2572510000
51
205.0773880000
0
ARC
5
735
100
AcDbEntity
8
SCHRAFFIERT
100
AcDbCircle
62
4
6
CONTINUOUS
10
259.3087490000
20
106.0831780000
40
0.6224490000
100
AcDbArc
50
212.0053830000
51
236.4659040000
0
ARC
5
736
100
AcDbEntity
8
SCHRAFFIERT
100
AcDbCircle
62
4
6
CONTINUOUS
10
259.1503120000
20
105.8441160000
40
0.3356520000
100
AcDbArc
50
236.4659040000
51
270.0000000000
0
ARC
5
737
100
AcDbEntity
8
SCHRAFFIERT
100
AcDbCircle
62
4
6
CONTINUOUS
10
259.1503120000
20
105.8441160000
40
0.3356520000
100
AcDbArc
50
270.0000000000
51
303.5340960000
0
ARC
5
738
100
AcDbEntity
8
SCHRAFFIERT
100
AcDbCircle
62
4
6
CONTINUOUS
10
258.9918760000
20
106.0831780000
40
0.6224490000
100
AcDbArc
50
303.5340960000
51
327.9946170000
0
ARC
5
739
100
AcDbEntity
8
SCHRAFFIERT
100
AcDbCircle
62
4
6
CONTINUOUS
10
258.1859990000
20
106.3773950000
40
1.4725180000
100
AcDbArc
50
334.9226120000
51
348.7427490000
0
ARC
5
73A
100
AcDbEntity
8
SCHRAFFIERT
100
AcDbCircle
62
4
6
CONTINUOUS
10
258.3399390000
20
106.4239620000
40
1.3327830000
100
AcDbArc
50
345.4857210000
51
360.0000000000
0
LINE
5
73B
100
AcDbEntity
8
SCHRAFFIERT
100
AcDbLine
62
4
6
CONTINUOUS
10
259.6727220000
20
108.4214860000
11
259.6727220000
21
106.4239620000
0
ARC
5
73C
100
AcDbEntity
8
SCHRAFFIERT
100
AcDbCircle
62
4
6
CONTINUOUS
10
259.1503109866
20
106.3973587168
40
0.1109607168
100
AcDbArc
50
230.3611445586
51
270.0005232816
0
ARC
5
73D
100
AcDbEntity
8
SCHRAFFIERT
100
AcDbCircle
62
4
6
CONTINUOUS
10
259.2709831012
20
106.5430212093
40
0.3001149422
100
AcDbArc
50
206.5649929013
51
230.3606826892
0
ARC
5
73E
100
AcDbEntity
8
SCHRAFFIERT
100
AcDbCircle
62
4
6
CONTINUOUS
10
259.4654720245
20
106.6402655397
40
0.5175601101
100
AcDbArc
50
191.7008959164
51
206.5650043866
0
ARC
5
73F
100
AcDbEntity
8
SCHRAFFIERT
100
AcDbCircle
62
4
6
CONTINUOUS
10
259.7747822771
20
106.7043253320
40
0.8334342771
100
AcDbArc
50
180.0000228267
51
191.7008739963
0
LINE
5
740
100
AcDbEntity
8
SCHRAFFIERT
100
AcDbLine
62
4
6
CONTINUOUS
10
258.9413480000
20
106.7043250000
11
258.9413480000
21
107.4011460000
0
LINE
5
741
100
AcDbEntity
8
SCHRAFFIERT
100
AcDbLine
62
4
6
CONTINUOUS
10
258.9413480000
20
107.4011460000
11
259.3592760000
21
107.3274540000
0
LINE
5
742
100
AcDbEntity
8
SCHRAFFIERT
100
AcDbLine
62
4
6
CONTINUOUS
10
259.3592760000
20
107.3274540000
11
259.3592760000
21
106.7043250000
0
ARC
5
743
100
AcDbEntity
8
SCHRAFFIERT
100
AcDbCircle
62
4
6
CONTINUOUS
10
258.5258417229
20
106.7043253320
40
0.8334342771
100
AcDbArc
50
348.2991260037
51
359.9999771732
0
ARC
5
744
100
AcDbEntity
8
SCHRAFFIERT
100
AcDbCircle
62
4
6
CONTINUOUS
10
258.8351519755
20
106.6402655397
40
0.5175601101
100
AcDbArc
50
333.4349956134
51
348.2991040836
0
ARC
5
745
100
AcDbEntity
8
SCHRAFFIERT
100
AcDbCircle
62
4
6
CONTINUOUS
10
259.0296408988
20
106.5430212093
40
0.3001149422
100
AcDbArc
50
309.6393173108
51
333.4350070987
0
ARC
5
746
100
AcDbEntity
8
SCHRAFFIERT
100
AcDbCircle
62
4
6
CONTINUOUS
10
259.1503130134
20
106.3973587168
40
0.1109607168
100
AcDbArc
50
269.9994767183
51
309.6388554414
0
LINE
5
747
100
AcDbEntity
8
SCHRAFFIERT
100
AcDbLine
62
4
6
CONTINUOUS
10
258.0010100000
20
107.5669530000
11
258.0010100000
21
108.7162540000
0
LINE
5
748
100
AcDbEntity
8
SCHRAFFIERT
100
AcDbLine
62
4
6
CONTINUOUS
10
258.6279020000
20
107.4564150000
11
258.0010100000
21
107.5669530000
0
LINE
5
749
100
AcDbEntity
8
SCHRAFFIERT
100
AcDbLine
62
4
6
CONTINUOUS
10
258.0010100000
20
106.5221330000
11
258.6279020000
21
107.4564150000
0
LINE
5
74A
100
AcDbEntity
8
SCHRAFFIERT
100
AcDbLine
62
4
6
CONTINUOUS
10
258.0010100000
20
108.7162540000
11
259.6727220000
21
108.4214860000
0
LINE
5
74B
100
AcDbEntity
8
SCHRAFFIERT
100
AcDbLine
62
4
6
CONTINUOUS
10
258.0010100000
20
105.1638670000
11
258.0010100000
21
106.5221330000
0
LINE
5
74C
100
AcDbEntity
8
SCHRAFFIERT
100
AcDbLine
62
4
6
CONTINUOUS
10
258.6578880000
20
106.1428390000
11
258.0010100000
21
105.1638670000
0
LINE
5
74D
100
AcDbEntity
8
SCHRAFFIERT
100
AcDbLine
62
4
6
CONTINUOUS
10
259.6727220000
20
114.3769580000
11
258.7515960000
21
114.5393780000
0
ARC
5
74E
100
AcDbEntity
8
SCHRAFFIERT
100
AcDbCircle
62
4
6
CONTINUOUS
10
258.7062384752
20
114.2821410179
40
0.2612052258
100
AcDbArc
50
80.0000638562
51
169.7006890964
0
ARC
5
74F
100
AcDbEntity
8
SCHRAFFIERT
100
AcDbCircle
62
4
6
CONTINUOUS
10
260.2996070749
20
113.9925912504
40
1.8806688909
100
AcDbArc
50
169.7005268317
51
196.3845490752
0
ARC
5
750
100
AcDbEntity
8
SCHRAFFIERT
100
AcDbCircle
62
4
6
CONTINUOUS
10
258.8962682131
20
113.5799782951
40
0.4179285133
100
AcDbArc
50
196.3846735709
51
260.0000433876
0
LINE
5
751
100
AcDbEntity
8
SCHRAFFIERT
100
AcDbLine
62
4
6
CONTINUOUS
10
258.8236960000
20
113.1683990000
11
259.6727220000
21
113.0186930000
0
LINE
5
752
100
AcDbEntity
8
SCHRAFFIERT
100
AcDbLine
62
4
6
CONTINUOUS
10
259.6727220000
20
113.0186930000
11
259.6727220000
21
111.9738730000
0
LINE
5
753
100
AcDbEntity
8
SCHRAFFIERT
100
AcDbLine
62
4
6
CONTINUOUS
10
259.6727220000
20
111.9738730000
11
258.4698710000
21
112.1859680000
0
ARC
5
754
100
AcDbEntity
8
SCHRAFFIERT
100
AcDbCircle
62
4
6
CONTINUOUS
10
258.5424433381
20
112.5975475082
40
0.4179287449
100
AcDbArc
50
190.1186203401
51
260.0000315786
0
ARC
5
755
100
AcDbEntity
8
SCHRAFFIERT
100
AcDbCircle
62
4
6
CONTINUOUS
10
266.3595482244
20
113.9925915693
40
8.3585380877
100
AcDbArc
50
170.4780736757
51
190.1185150118
0
ARC
5
756
100
AcDbEntity
8
SCHRAFFIERT
100
AcDbCircle
62
4
6
CONTINUOUS
10
258.4252977603
20
115.3234517205
40
0.3134452251
100
AcDbArc
50
79.9999911806
51
170.4781491011
0
LINE
5
757
100
AcDbEntity
8
SCHRAFFIERT
100
AcDbLine
62
4
6
CONTINUOUS
10
258.4797270000
20
115.6321350000
11
259.6727220000
21
115.4217780000
0
LINE
5
758
100
AcDbEntity
8
SCHRAFFIERT
100
AcDbLine
62
4
6
CONTINUOUS
10
259.6727220000
20
115.4217780000
11
259.6727220000
21
114.3769580000
0
LINE
5
759
100
AcDbEntity
8
SCHRAFFIERT
100
AcDbLine
62
4
6
CONTINUOUS
10
259.0458300000
20
122.8460530000
11
258.0010100000
21
123.0302830000
0
LINE
5
75A
100
AcDbEntity
8
SCHRAFFIERT
100
AcDbLine
62
4
6
CONTINUOUS
10
258.0010100000
20
123.0302830000
11
258.0010100000
21
124.1795850000
0
LINE
5
75B
100
AcDbEntity
8
SCHRAFFIERT
100
AcDbLine
62
4
6
CONTINUOUS
10
258.0010100000
20
124.1795850000
11
259.6727220000
21
123.8848170000
0
LINE
5
75C
100
AcDbEntity
8
SCHRAFFIERT
100
AcDbLine
62
4
6
CONTINUOUS
10
259.6727220000
20
123.8848170000
11
259.6727220000
21
122.7355150000
0
LINE
5
75D
100
AcDbEntity
8
SCHRAFFIERT
100
AcDbLine
62
4
6
CONTINUOUS
10
259.6727220000
20
122.7355150000
11
258.6279020000
21
121.0390700000
0
LINE
5
75E
100
AcDbEntity
8
SCHRAFFIERT
100
AcDbLine
62
4
6
CONTINUOUS
10
258.6279020000
20
121.0390700000
11
259.6727220000
21
120.8548400000
0
LINE
5
75F
100
AcDbEntity
8
SCHRAFFIERT
100
AcDbLine
62
4
6
CONTINUOUS
10
259.6727220000
20
120.8548400000
11
259.6727220000
21
119.7055380000
0
LINE
5
760
100
AcDbEntity
8
SCHRAFFIERT
100
AcDbLine
62
4
6
CONTINUOUS
10
259.6727220000
20
119.7055380000
11
258.0010100000
21
120.0003060000
0
LINE
5
761
100
AcDbEntity
8
SCHRAFFIERT
100
AcDbLine
62
4
6
CONTINUOUS
10
258.0010100000
20
120.0003060000
11
258.0010100000
21
121.1496080000
0
LINE
5
762
100
AcDbEntity
8
SCHRAFFIERT
100
AcDbLine
62
4
6
CONTINUOUS
10
258.0010100000
20
121.1496080000
11
259.0458300000
21
122.8460530000
0
LINE
5
763
100
AcDbEntity
8
SCHRAFFIERT
100
AcDbLine
62
4
6
CONTINUOUS
10
258.4189380000
20
118.0459390000
11
258.4189380000
21
116.2697460000
0
LINE
5
764
100
AcDbEntity
8
SCHRAFFIERT
100
AcDbLine
62
4
6
CONTINUOUS
10
258.4189380000
20
116.2697460000
11
258.0010100000
21
116.3434380000
0
LINE
5
765
100
AcDbEntity
8
SCHRAFFIERT
100
AcDbLine
62
4
6
CONTINUOUS
10
258.0010100000
20
116.3434380000
11
258.0010100000
21
119.1644510000
0
LINE
5
766
100
AcDbEntity
8
SCHRAFFIERT
100
AcDbLine
62
4
6
CONTINUOUS
10
258.0010100000
20
119.1644510000
11
259.6727220000
21
118.8696830000
0
LINE
5
767
100
AcDbEntity
8
SCHRAFFIERT
100
AcDbLine
62
4
6
CONTINUOUS
10
259.6727220000
20
118.8696830000
11
259.6727220000
21
116.0486700000
0
LINE
5
768
100
AcDbEntity
8
SCHRAFFIERT
100
AcDbLine
62
4
6
CONTINUOUS
10
259.6727220000
20
116.0486700000
11
259.2547940000
21
116.1223620000
0
LINE
5
769
100
AcDbEntity
8
SCHRAFFIERT
100
AcDbLine
62
4
6
CONTINUOUS
10
259.2547940000
20
116.1223620000
11
259.2547940000
21
117.8985550000
0
LINE
5
76A
100
AcDbEntity
8
SCHRAFFIERT
100
AcDbLine
62
4
6
CONTINUOUS
10
259.2547940000
20
117.8985550000
11
259.0458300000
21
117.9354010000
0
LINE
5
76B
100
AcDbEntity
8
SCHRAFFIERT
100
AcDbLine
62
4
6
CONTINUOUS
10
259.0458300000
20
117.9354010000
11
259.0458300000
21
116.4726540000
0
LINE
5
76C
100
AcDbEntity
8
SCHRAFFIERT
100
AcDbLine
62
4
6
CONTINUOUS
10
259.0458300000
20
116.4726540000
11
258.6279020000
21
116.5463460000
0
LINE
5
76D
100
AcDbEntity
8
SCHRAFFIERT
100
AcDbLine
62
4
6
CONTINUOUS
10
258.6279020000
20
116.5463460000
11
258.6279020000
21
118.0090930000
0
LINE
5
76E
100
AcDbEntity
8
SCHRAFFIERT
100
AcDbLine
62
4
6
CONTINUOUS
10
258.6279020000
20
118.0090930000
11
258.4189380000
21
118.0459390000
0
LINE
5
76F
100
AcDbEntity
8
0
100
AcDbLine
62
4
6
CONTINUOUS
10
185.5966770000
20
179.4484810000
11
185.5966770000
21
159.9358140000
0
LINE
5
770
100
AcDbEntity
8
0
100
AcDbLine
62
4
6
CONTINUOUS
10
324.9817910000
20
184.1158930000
11
324.9817910000
21
178.2246810000
0
LINE
5
771
100
AcDbEntity
8
0
100
AcDbLine
62
4
6
CONTINUOUS
10
189.0966770000
20
160.7358140000
11
321.4817910000
21
160.7358140000
0
LINE
5
772
100
AcDbEntity
8
0
100
AcDbLine
62
4
6
CONTINUOUS
10
189.0966770000
20
160.1524810000
11
185.5966770000
21
160.7358140000
0
LINE
5
773
100
AcDbEntity
8
0
100
AcDbLine
62
4
6
CONTINUOUS
10
185.5966770000
20
160.7358140000
11
189.0966770000
21
161.3191480000
0
LINE
5
774
100
AcDbEntity
8
0
100
AcDbLine
62
4
6
CONTINUOUS
10
189.0966770000
20
161.3191480000
11
189.0966770000
21
160.1524810000
0
SOLID
5
775
100
AcDbEntity
8
0
100
AcDbTrace
62
4
6
CONTINUOUS
10
185.5966770000
20
160.7358140000
11
189.0966770000
21
160.1524810000
12
189.0966770000
22
161.3191480000
13
189.0966770000
23
161.3191480000
0
LINE
5
776
100
AcDbEntity
8
0
100
AcDbLine
62
4
6
CONTINUOUS
10
321.4817910000
20
160.1524810000
11
324.9817910000
21
160.7358140000
0
LINE
5
777
100
AcDbEntity
8
0
100
AcDbLine
62
4
6
CONTINUOUS
10
324.9817910000
20
160.7358140000
11
321.4817910000
21
161.3191480000
0
LINE
5
778
100
AcDbEntity
8
0
100
AcDbLine
62
4
6
CONTINUOUS
10
321.4817910000
20
161.3191480000
11
321.4817910000
21
160.1524810000
0
SOLID
5
779
100
AcDbEntity
8
0
100
AcDbTrace
62
4
6
CONTINUOUS
10
324.9817910000
20
160.7358140000
11
321.4817910000
21
161.3191480000
12
321.4817910000
22
160.1524810000
13
321.4817910000
23
160.1524810000
0
LINE
5
77A
100
AcDbEntity
8
0
100
AcDbLine
62
4
6
CONTINUOUS
10
288.0633820000
20
228.5375520000
11
352.8129430000
21
228.5375520000
0
LINE
5
77B
100
AcDbEntity
8
0
100
AcDbLine
62
4
6
CONTINUOUS
10
288.0633820000
20
176.9430620000
11
352.8129430000
21
176.9430620000
0
LINE
5
77C
100
AcDbEntity
8
0
100
AcDbLine
62
4
6
CONTINUOUS
10
352.0129430000
20
225.0375520000
11
352.0129430000
21
180.4430620000
0
LINE
5
77D
100
AcDbEntity
8
0
100
AcDbLine
62
4
6
CONTINUOUS
10
352.5962770000
20
225.0375520000
11
352.0129430000
21
228.5375520000
0
LINE
5
77E
100
AcDbEntity
8
0
100
AcDbLine
62
4
6
CONTINUOUS
10
352.0129430000
20
228.5375520000
11
351.4296100000
21
225.0375520000
0
LINE
5
77F
100
AcDbEntity
8
0
100
AcDbLine
62
4
6
CONTINUOUS
10
351.4296100000
20
225.0375520000
11
352.5962770000
21
225.0375520000
0
SOLID
5
780
100
AcDbEntity
8
0
100
AcDbTrace
62
4
6
CONTINUOUS
10
351.4296100000
20
225.0375519000
11
352.5962770000
21
225.0375519000
12
352.0129430000
22
228.5375520000
13
352.0129430000
23
228.5375520000
0
LINE
5
781
100
AcDbEntity
8
0
100
AcDbLine
62
4
6
CONTINUOUS
10
352.5962770000
20
180.4430620000
11
352.0129430000
21
176.9430620000
0
LINE
5
782
100
AcDbEntity
8
0
100
AcDbLine
62
4
6
CONTINUOUS
10
352.0129430000
20
176.9430620000
11
351.4296100000
21
180.4430620000
0
LINE
5
783
100
AcDbEntity
8
0
100
AcDbLine
62
4
6
CONTINUOUS
10
351.4296100000
20
180.4430620000
11
352.5962770000
21
180.4430620000
0
SOLID
5
784
100
AcDbEntity
8
0
100
AcDbTrace
62
4
6
CONTINUOUS
10
352.5962770000
20
180.4430619600
11
351.4296100000
21
180.4430619600
12
352.0129430000
22
176.9430620000
13
352.0129430000
23
176.9430620000
0
LINE
5
785
100
AcDbEntity
8
0
100
AcDbLine
62
4
6
CONTINUOUS
10
325.7098890000
20
220.4384170000
11
344.6319910000
21
220.4384170000
0
LINE
5
786
100
AcDbEntity
8
0
100
AcDbLine
62
4
6
CONTINUOUS
10
325.9059650000
20
185.0421970000
11
344.6319910000
21
185.0421970000
0
LINE
5
787
100
AcDbEntity
8
0
100
AcDbLine
62
4
6
CONTINUOUS
10
343.8319910000
20
216.9384170000
11
343.8319910000
21
188.5421970000
0
LINE
5
788
100
AcDbEntity
8
0
100
AcDbLine
62
4
6
CONTINUOUS
10
344.4153240000
20
216.9384170000
11
343.8319910000
21
220.4384170000
0
LINE
5
789
100
AcDbEntity
8
0
100
AcDbLine
62
4
6
CONTINUOUS
10
343.8319910000
20
220.4384170000
11
343.2486570000
21
216.9384170000
0
LINE
5
78A
100
AcDbEntity
8
0
100
AcDbLine
62
4
6
CONTINUOUS
10
343.2486570000
20
216.9384170000
11
344.4153240000
21
216.9384170000
0
SOLID
5
78B
100
AcDbEntity
8
0
100
AcDbTrace
62
4
6
CONTINUOUS
10
343.2486570000
20
216.9384168000
11
344.4153240000
21
216.9384168000
12
343.8319910000
22
220.4384170000
13
343.8319910000
23
220.4384170000
0
LINE
5
78C
100
AcDbEntity
8
0
100
AcDbLine
62
4
6
CONTINUOUS
10
344.4153240000
20
188.5421970000
11
343.8319910000
21
185.0421970000
0
LINE
5
78D
100
AcDbEntity
8
0
100
AcDbLine
62
4
6
CONTINUOUS
10
343.8319910000
20
185.0421970000
11
343.2486570000
21
188.5421970000
0
LINE
5
78E
100
AcDbEntity
8
0
100
AcDbLine
62
4
6
CONTINUOUS
10
343.2486570000
20
188.5421970000
11
344.4153240000
21
188.5421970000
0
SOLID
5
78F
100
AcDbEntity
8
0
100
AcDbTrace
62
4
6
CONTINUOUS
10
344.4153240000
20
188.5421970600
11
343.2486570000
21
188.5421970600
12
343.8319910000
22
185.0421970000
13
343.8319910000
23
185.0421970000
0
LINE
5
790
100
AcDbEntity
8
0
100
AcDbLine
62
4
6
CONTINUOUS
10
324.9817910000
20
175.6388140000
11
324.9817910000
21
159.9358140000
0
TEXT
5
791
100
AcDbEntity
8
05
100
AcDbText
62
4
6
CONTINUOUS
10
360.0000000000
20
16.0000000000
40
1.5000000000
1
Zeichn. Nr.
51
15.0000000000
72
5
11
371.1785714286
21
16.0000000000
100
AcDbText
0
TEXT
5
792
100
AcDbEntity
8
05
100
AcDbText
62
4
6
CONTINUOUS
10
360.0000000000
20
33.0000000000
40
1.5000000000
1
Ersetzt durch:         Blatt
51
15.0000000000
72
5
11
389.1428571429
21
33.0000000000
100
AcDbText
0
TEXT
5
793
100
AcDbEntity
8
05
100
AcDbText
62
4
6
CONTINUOUS
10
360.0000000000
20
48.0000000000
40
1.5000000000
1
Gezeichnet
51
15.0000000000
72
5
11
370.2142857143
21
48.0000000000
100
AcDbText
0
TEXT
5
794
100
AcDbEntity
8
05
100
AcDbText
62
4
6
CONTINUOUS
10
360.0000000000
20
37.0000000000
40
1.5000000000
1
Gesehen
51
15.0000000000
72
5
11
367.6071428571
21
37.0000000000
100
AcDbText
0
TEXT
5
795
100
AcDbEntity
8
05
100
AcDbText
62
4
6
CONTINUOUS
10
379.0000000000
20
52.0000000000
40
1.5000000000
1
Datum     Name
51
15.0000000000
72
5
11
395.3571428571
21
52.0000000000
100
AcDbText
0
TEXT
5
796
100
AcDbEntity
8
05
100
AcDbText
62
4
6
CONTINUOUS
10
319.0000000000
20
52.0000000000
40
1.5000000000
1
Werkstoff:      Massstab:
51
15.0000000000
72
5
11
345.5714285714
21
52.0000000000
100
AcDbText
0
TEXT
5
797
100
AcDbEntity
8
05
100
AcDbText
62
4
6
CONTINUOUS
10
278.0000000000
20
33.0000000000
40
1.5000000000
1
Benennung:
51
15.0000000000
72
5
11
288.2857142857
21
33.0000000000
100
AcDbText
0
TEXT
5
798
100
AcDbEntity
8
05
100
AcDbText
62
4
6
CONTINUOUS
10
278.0000000000
20
49.0000000000
40
1.5000000000
1
*)Lieferant darf ohne 
51
15.0000000000
72
5
11
300.1428571429
21
49.0000000000
100
AcDbText
0
TEXT
5
799
100
AcDbEntity
8
05
100
AcDbText
62
4
6
CONTINUOUS
10
278.0000000000
20
46.5000000000
40
1.5000000000
1
 Ruecksprache nicht 
51
15.0000000000
72
5
11
298.9285714286
21
46.5000000000
100
AcDbText
0
TEXT
5
79A
100
AcDbEntity
8
05
100
AcDbText
62
4
6
CONTINUOUS
10
278.0000000000
20
44.0000000000
40
1.5000000000
1
 geaendert werden
51
15.0000000000
72
5
11
296.4285714286
21
44.0000000000
100
AcDbText
0
TEXT
5
79B
100
AcDbEntity
8
05
100
AcDbText
62
4
6
CONTINUOUS
10
278.0000000000
20
40.0000000000
40
1.5000000000
1
Zeichnung urheberrechtlich
51
15.0000000000
72
5
11
304.3214285714
21
40.0000000000
100
AcDbText
0
TEXT
5
79C
100
AcDbEntity
8
05
100
AcDbText
62
4
6
CONTINUOUS
10
278.0000000000
20
37.5000000000
40
1.5000000000
1
geschuetzt (DIN 34) (C)
51
15.0000000000
72
5
11
301.2857142857
21
37.5000000000
100
AcDbText
0
TEXT
5
79D
100
AcDbEntity
8
05
100
AcDbText
62
4
6
CONTINUOUS
10
360.0000000000
20
42.0000000000
40
1.5000000000
1
Geprueft
51
15.0000000000
72
5
11
368.1428571429
21
42.0000000000
100
AcDbText
0
TEXT
5
79E
100
AcDbEntity
8
05
100
AcDbText
62
4
6
CONTINUOUS
10
360.0000000000
20
25.0000000000
40
1.5000000000
1
Ersatz fuer:           von  Blatt
51
15.0000000000
72
5
11
395.0357142857
21
25.0000000000
100
AcDbText
0
TEXT
5
79F
100
AcDbEntity
8
05
100
AcDbText
62
4
6
CONTINUOUS
10
213.0000000000
20
11.0000000000
40
1.5000000000
1
Ind.  Aenderung             Datum   
51
15.0000000000
72
5
11
253.6785714286
21
11.0000000000
100
AcDbText
0
TEXT
5
7A0
100
AcDbEntity
8
05
100
AcDbText
62
4
6
CONTINUOUS
10
253.6785714286
20
11.0000000000
40
1.5000000000
1
 Name
51
15.0000000000
72
5
11
259.5714285714
21
11.0000000000
100
AcDbText
0
TEXT
5
7A1
100
AcDbEntity
8
035
100
AcDbText
62
4
6
CONTINUOUS
10
332.4230740000
20
13.2646360000
40
2.4848480000
1
FL-9494 SCHAAN
51
15.0000000000
72
5
11
359.5197498095
21
13.2646360000
100
AcDbText
0
TEXT
5
7A2
100
AcDbEntity
8
05
100
AcDbText
62
4
6
CONTINUOUS
10
395.8452380952
20
47.0000000000
40
2.5000000000
1
Alinjak
72
5
11
407.1547619048
21
47.0000000000
100
AcDbText
0
TEXT
5
7A3
100
AcDbEntity
8
05
100
AcDbText
62
4
6
CONTINUOUS
10
378.4464285714
20
47.0000000000
40
2.5000000000
1
01.09.98
51
15.0000000000
72
5
11
392.5535714286
21
47.0000000000
100
AcDbText
0
TEXT
5
7A4
100
AcDbEntity
8
05
100
AcDbText
62
2
6
CONTINUOUS
10
304.0119047619
20
22.5000000000
40
5.0000000000
1
NAC3FCA
51
15.0000000000
72
5
11
331.9880952381
21
22.5000000000
100
AcDbText
0
TEXT
5
7A5
100
AcDbEntity
8
05
100
AcDbText
62
3
6
CONTINUOUS
10
310.5845430000
20
31.0821910000
40
3.5000000000
1
Powercon
51
15.0000000000
72
5
11
331.3345430000
21
31.0821910000
100
AcDbText
0
TEXT
5
7A6
100
AcDbEntity
8
05
100
AcDbText
62
3
6
CONTINUOUS
10
372.8247810000
20
11.9765410000
40
3.5000000000
1
3102 St 20 01
51
15.0000000000
72
5
11
406.0747810000
21
11.9765410000
100
AcDbText
0
TEXT
5
7A7
100
AcDbEntity
8
05
100
AcDbText
62
2
6
CONTINUOUS
10
345.1482807143
20
44.6560560000
40
5.0000000000
1
2:1
51
15.0000000000
72
5
11
353.7197092857
21
44.6560560000
100
AcDbText
0
TEXT
5
7A8
100
AcDbEntity
8
035
100
AcDbText
62
3
6
CONTINUOUS
10
180.2981320000
20
254.2201820000
40
5.7281550000
1
NAC 3 FCA
51
10.0000000000
72
5
11
221.3499095000
21
254.2201820000
100
AcDbText
0
TEXT
5
7A9
100
AcDbEntity
8
010
100
AcDbText
62
7
6
CONTINUOUS
10
302.4412760000
20
212.8819649167
40
1.9093850000
1
250V/20A 2.5
50
270.0000000000
51
12.0000000000
72
5
11
302.4412760000
21
195.3792690833
100
AcDbText
0
TEXT
5
7AA
100
AcDbEntity
8
010
100
AcDbText
62
7
6
CONTINUOUS
10
295.9618020000
20
201.1945490000
40
1.4320390000
1
NS4
72
5
11
299.3373225000
21
201.1945490000
100
AcDbText
0
TEXT
5
7AB
100
AcDbEntity
8
010
100
AcDbText
62
7
6
CONTINUOUS
10
295.7525000000
20
206.2643249286
40
2.1480580000
1
S
50
270.0000000000
72
5
11
295.7525000000
21
204.5765650714
100
AcDbText
0
TEXT
5
7AC
100
AcDbEntity
8
010
100
AcDbText
62
7
6
CONTINUOUS
10
296.2622950000
20
199.1800670000
40
1.2000000000
1
VDE
50
270.0000000000
51
10.0000000000
72
5
11
296.2622950000
21
196.2372098571
100
AcDbText
0
TEXT
5
7AD
100
AcDbEntity
8
SCHRAFFIERT
100
AcDbText
62
4
6
CONTINUOUS
10
241.3805090000
20
119.0083378095
40
1.6000000000
1
LIECHTENSTEIN
50
270.0000000000
51
12.0000000000
72
5
11
241.3805090000
21
103.3892901905
100
AcDbText
0
TEXT
5
7AE
100
AcDbEntity
8
SCHRAFFIERT
100
AcDbText
62
4
6
CONTINUOUS
10
252.4162240000
20
120.7654806667
40
2.8000000000
1
POWERCON
50
270.0000000000
51
10.0000000000
72
5
11
252.4162240000
21
101.6321473333
100
AcDbText
0
TEXT
5
7AF
100
AcDbEntity
8
SCHRAFFIERT
100
AcDbText
62
4
6
CONTINUOUS
10
245.6032400000
20
123.1566270000
40
4.0000000000
1
NAC3FCA
50
270.0000000000
51
12.0000000000
72
5
11
245.6032400000
21
100.7756746190
100
AcDbText
0
TEXT
5
7B0
100
AcDbEntity
8
0
100
AcDbText
62
3
6
CONTINUOUS
10
223.2892340000
20
161.7358140000
40
3.5000000000
1
69.00-73.00 [2.717-2.874"]
72
5
11
287.2892340000
21
161.7358140000
100
AcDbText
0
TEXT
5
7B1
100
AcDbEntity
8
0
100
AcDbText
62
3
6
CONTINUOUS
10
351.0129430000
20
184.2819736667
40
3.5000000000
1
%%c25.80 [1.016"]
50
90.0000000000
72
5
11
351.0129430000
21
221.1986403333
100
AcDbText
0
TEXT
5
7B2
100
AcDbEntity
8
0
100
AcDbText
62
3
6
CONTINUOUS
10
342.8319910000
20
184.1739746667
40
3.5000000000
1
%%c17.70 [0.697"]
50
90.0000000000
72
5
11
342.8319910000
21
222.0906413333
100
AcDbText
0
ENDSEC
0
SECTION
2
OBJECTS
0
DICTIONARY
5
7B3
100
AcDbDictionary
3
ACAD_GROUP
350
7B4
3
ACAD_MLINESTYLE
350
7B5
0
DICTIONARY
5
7B4
102
{ACAD_REACTORS
330
7B3
102
}
100
AcDbDictionary
0
DICTIONARY
5
7B5
102
{ACAD_REACTORS
330
7B3
102
}
100
AcDbDictionary
3
STANDARD
350
7B6
0
MLINESTYLE
5
7B6
102
{ACAD_REACTORS
330
7B5
102
}
100
AcDbMlineStyle
2
STANDARD
70
0
3

62
256
51
90.0
52
90.0
71
2
49
0.5
62
256
6
BYLAYER
49
-0.5
62
256
6
BYLAYER
0
ENDSEC
0
EOF
