  0
SECTION
  2
HEADER
  9
$ACADVER
  1
AC1009
  9
$INSBASE
 10
0.0
 20
0.0
 30
0.0
  9
$EXTMIN
 10
0.0
 20
0.0
 30
0.0
  9
$EXTMAX
 10
420.0
 20
297.0
 30
0.0
  9
$LIMMIN
 10
0.0
 20
0.0
  9
$LIMMAX
 10
410.0
 20
287.0
  9
$ORTHOMODE
 70
     1
  9
$REGENMODE
 70
     1
  9
$FILLMODE
 70
     1
  9
$QTEXTMODE
 70
     0
  9
$MIRRTEXT
 70
     1
  9
$DRAGMODE
 70
     2
  9
$LTSCALE
 40
5.0
  9
$OSMODE
 70
   163
  9
$ATTMODE
 70
     1
  9
$TEXTSIZE
 40
2.5
  9
$TRACEWID
 40
26.0
  9
$TEXTSTYLE
  7
STANDARD
  9
$CLAYER
  8
05
  9
$CELTYPE
  6
BYLAYER
  9
$CECOLOR
 62
   256
  9
$DIMSCALE
 40
1.0
  9
$DIMASZ
 40
3.5
  9
$DIMEXO
 40
0.8
  9
$DIMDLI
 40
8.0
  9
$DIMRND
 40
0.0
  9
$DIMDLE
 40
0.0
  9
$DIMEXE
 40
1.8
  9
$DIMTP
 40
0.0
  9
$DIMTM
 40
0.0
  9
$DIMTXT
 40
3.5
  9
$DIMCEN
 40
1.5
  9
$DIMTSZ
 40
0.0
  9
$DIMTOL
 70
     0
  9
$DIMLIM
 70
     0
  9
$DIMTIH
 70
     0
  9
$DIMTOH
 70
     0
  9
$DIMSE1
 70
     0
  9
$DIMSE2
 70
     0
  9
$DIMTAD
 70
     1
  9
$DIMZIN
 70
     0
  9
$DIMBLK
  1

  9
$DIMASO
 70
     0
  9
$DIMSHO
 70
     0
  9
$DIMPOST
  1

  9
$DIMAPOST
  1
"
  9
$DIMALT
 70
     0
  9
$DIMALTD
 70
     3
  9
$DIMALTF
 40
0.03937
  9
$DIMLFAC
 40
0.333333
  9
$DIMTOFL
 70
     0
  9
$DIMTVP
 40
0.0
  9
$DIMTIX
 70
     0
  9
$DIMSOXD
 70
     0
  9
$DIMSAH
 70
     0
  9
$DIMBLK1
  1

  9
$DIMBLK2
  1

  9
$DIMSTYLE
  2
STANDARD
  9
$DIMCLRD
 70
     0
  9
$DIMCLRE
 70
     0
  9
$DIMCLRT
 70
     0
  9
$DIMTFAC
 40
1.0
  9
$DIMGAP
 40
0.09
  9
$LUNITS
 70
     2
  9
$LUPREC
 70
     2
  9
$SKETCHINC
 40
1.0
  9
$FILLETRAD
 40
5.0
  9
$AUNITS
 70
     0
  9
$AUPREC
 70
     0
  9
$MENU
  1
acad
  9
$ELEVATION
 40
0.0
  9
$PELEVATION
 40
0.0
  9
$THICKNESS
 40
0.0
  9
$LIMCHECK
 70
     0
  9
$BLIPMODE
 70
     0
  9
$CHAMFERA
 40
0.0
  9
$CHAMFERB
 40
0.0
  9
$SKPOLY
 70
     0
  9
$TDCREATE
 40
2450031.33094
  9
$TDUPDATE
 40
2451192.49982
  9
$TDINDWG
 40
0.043634
  9
$TDUSRTIMER
 40
0.043634
  9
$USRTIMER
 70
     1
  9
$ANGBASE
 50
0.0
  9
$ANGDIR
 70
     0
  9
$PDMODE
 70
     0
  9
$PDSIZE
 40
0.0
  9
$PLINEWID
 40
0.0
  9
$COORDS
 70
     2
  9
$SPLFRAME
 70
     0
  9
$SPLINETYPE
 70
     6
  9
$SPLINESEGS
 70
     8
  9
$ATTDIA
 70
     0
  9
$ATTREQ
 70
     1
  9
$HANDLING
 70
     1
  9
$HANDSEED
  5
C5F
  9
$SURFTAB1
 70
     6
  9
$SURFTAB2
 70
     6
  9
$SURFTYPE
 70
     6
  9
$SURFU
 70
     6
  9
$SURFV
 70
     6
  9
$UCSNAME
  2

  9
$UCSORG
 10
0.0
 20
0.0
 30
0.0
  9
$UCSXDIR
 10
1.0
 20
0.0
 30
0.0
  9
$UCSYDIR
 10
0.0
 20
1.0
 30
0.0
  9
$PUCSNAME
  2

  9
$PUCSORG
 10
0.0
 20
0.0
 30
0.0
  9
$PUCSXDIR
 10
1.0
 20
0.0
 30
0.0
  9
$PUCSYDIR
 10
0.0
 20
1.0
 30
0.0
  9
$USERI1
 70
     0
  9
$USERI2
 70
     0
  9
$USERI3
 70
     0
  9
$USERI4
 70
     0
  9
$USERI5
 70
     0
  9
$USERR1
 40
0.0
  9
$USERR2
 40
0.0
  9
$USERR3
 40
0.0
  9
$USERR4
 40
0.0
  9
$USERR5
 40
0.0
  9
$WORLDVIEW
 70
     1
  9
$SHADEDGE
 70
     3
  9
$SHADEDIF
 70
    70
  9
$TILEMODE
 70
     1
  9
$MAXACTVP
 70
    16
  9
$PLIMCHECK
 70
     0
  9
$PEXTMIN
 10
1.000000E+020
 20
1.000000E+020
 30
1.000000E+020
  9
$PEXTMAX
 10
-1.000000E+020
 20
-1.000000E+020
 30
-1.000000E+020
  9
$PLIMMIN
 10
0.0
 20
0.0
  9
$PLIMMAX
 10
12.0
 20
9.0
  9
$UNITMODE
 70
     0
  9
$VISRETAIN
 70
     0
  9
$PLINEGEN
 70
     0
  9
$PSLTSCALE
 70
     0
  0
ENDSEC
  0
SECTION
  2
TABLES
  0
TABLE
  2
VPORT
 70
     2
  0
VPORT
  2
*ACTIVE
 70
     0
 10
0.0
 20
0.0
 11
1.0
 21
1.0
 12
232.398002
 22
148.500001
 13
0.0
 23
0.0
 14
1.0
 24
1.0
 15
2.0
 25
2.0
 16
0.0
 26
0.0
 36
1.0
 17
0.0
 27
0.0
 37
0.0
 40
306.297443
 41
1.525
 42
50.0
 43
0.0
 44
0.0
 50
0.0
 51
0.0
 71
     0
 72
   500
 73
     1
 74
     0
 75
     0
 76
     0
 77
     0
 78
     0
  0
ENDTAB
  0
TABLE
  2
LTYPE
 70
     2
  0
LTYPE
  2
AUSGEZOGEN
 70
     0
  3
Ausgezogene Linie
 72
    65
 73
     0
 40
0.0
  0
LTYPE
  2
CENTER
 70
     0
  3
____ _ ____ _ ____ _ ____ _ ____ _ ____ _ ____
 72
    65
 73
     4
 40
2.0
 49
1.25
 49
-0.25
 49
0.25
 49
-0.25
  0
ENDTAB
  0
TABLE
  2
LAYER
 70
    11
  0
LAYER
  2
0
 70
     0
 62
     8
  6
AUSGEZOGEN
  0
LAYER
  2
05
 70
     0
 62
     2
  6
AUSGEZOGEN
  0
LAYER
  2
BEM1
 70
     0
 62
     4
  6
AUSGEZOGEN
  0
LAYER
  2
035
 70
     0
 62
     3
  6
AUSGEZOGEN
  0
LAYER
  2
MITTE
 70
     0
 62
     4
  6
CENTER
  0
LAYER
  2
SCHRAFFIERT
 70
     0
 62
     4
  6
AUSGEZOGEN
  0
LAYER
  2
025
 70
     0
 62
     4
  6
AUSGEZOGEN
  0
LAYER
  2
RAHMEN
 70
     0
 62
     2
  6
AUSGEZOGEN
  0
LAYER
  2
BEM2
 70
     0
 62
     6
  6
AUSGEZOGEN
  0
LAYER
  2
SCHRIFTKOPF
 70
     0
 62
     2
  6
AUSGEZOGEN
  0
LAYER
  2
07
 70
     0
 62
     1
  6
AUSGEZOGEN
  0
ENDTAB
  0
TABLE
  2
STYLE
 70
     6
  0
STYLE
  2
STANDARD
 70
     0
 40
0.0
 41
0.7
 50
15.0
 71
     0
 42
2.5
  3
txt
  4

  0
STYLE
  2
UNIV
 70
     0
 40
0.0
 41
1.0
 50
0.0
 71
     0
 42
2.5
  3
univ
  4

  0
STYLE
  2
SCRIPTS
 70
     0
 40
0.0
 41
1.0
 50
0.0
 71
     0
 42
5.0
  3
scripts
  4

  0
STYLE
  2
HELV
 70
     0
 40
0.0
 41
0.8
 50
10.0
 71
     0
 42
2.0
  3
HELV.SHX
  4

  0
STYLE
  2
HELVL
 70
     0
 40
0.0
 41
0.7
 50
0.0
 71
     0
 42
2.0
  3
helvl
  4

  0
STYLE
  2
ARIAL
 70
     0
 40
0.0
 41
1.0
 50
0.0
 71
     0
 42
2.5
  3
txt
  4

  0
ENDTAB
  0
TABLE
  2
VIEW
 70
     0
  0
ENDTAB
  0
TABLE
  2
UCS
 70
     0
  0
ENDTAB
  0
TABLE
  2
APPID
 70
     1
  0
APPID
  2
ACAD
 70
     0
  0
ENDTAB
  0
TABLE
  2
DIMSTYLE
 70
     1
  0
DIMSTYLE
  2
STANDARD
 70
     0
  3

  4

  5

  6

  7

 40
1.0
 41
0.18
 42
0.0625
 43
0.38
 44
0.18
 45
0.0
 46
0.0
 47
0.0
 48
0.0
140
0.18
141
0.09
142
0.0
143
25.4
144
1.0
145
0.0
146
1.0
147
0.09
 71
     0
 72
     0
 73
     1
 74
     1
 75
     0
 76
     0
 77
     0
 78
     0
170
     0
171
     2
172
     0
173
     0
174
     0
175
     0
176
     0
177
     0
178
     0
  0
ENDTAB
  0
ENDSEC
  0
SECTION
  2
BLOCKS
  0
BLOCK
  8
0
  2
$MODEL_SPACE
 70
     0
 10
0.0
 20
0.0
 30
0.0
  3
$MODEL_SPACE
  1

  0
ENDBLK
  5
6
  8
0
  0
BLOCK
 67
     1
  8
0
  2
$PAPER_SPACE
 70
     0
 10
0.0
 20
0.0
 30
0.0
  3
$PAPER_SPACE
  1

  0
ENDBLK
  5
9
 67
     1
  8
0
  0
BLOCK
  8
0
  2
3
 70
     0
 10
74.0
 20
118.0
 30
0.0
  3
3
  1

  0
TEXT
  5
379
  8
SCHRAFFIERT
 10
74.0
 20
117.0
 30
0.0
 40
2.5
  1
%%P0.1
 41
0.7
 51
15.0
  0
ENDBLK
  5
37B
  8
0
  0
BLOCK
  8
0
  2
ZKOPF
 70
     2
 10
0.0
 20
0.0
 30
0.0
  3
ZKOPF
  1

  0
ATTDEF
  5
52
  8
0
 62
     4
 10
-13.321429
 20
37.0
 30
0.0
 40
2.5
  1
Dobler
  7
SCRIPTS
 72
     1
 11
-8.5
 21
37.0
 31
0.0
  3
Name des Konstrukteurs ?
  2
NAME
 70
     0
  0
POLYLINE
  5
53
  8
0
 62
     2
 66
     1
 10
0.0
 20
0.0
 30
0.0
  0
VERTEX
  5
AAB
  8
0
 62
     2
 10
-51.0
 20
0.0
 30
0.0
  0
VERTEX
  5
AAC
  8
0
 62
     2
 10
-51.0
 20
46.0
 30
0.0
  0
SEQEND
  5
AAD
  8
0
 62
     2
  0
POLYLINE
  5
54
  8
0
 62
     2
 66
     1
 10
0.0
 20
0.0
 30
0.0
  0
VERTEX
  5
AAE
  8
0
 62
     2
 10
-17.0
 20
9.0
 30
0.0
  0
VERTEX
  5
AAF
  8
0
 62
     2
 10
-17.0
 20
46.0
 30
0.0
  0
SEQEND
  5
AB0
  8
0
 62
     2
  0
POLYLINE
  5
55
  8
0
 62
     2
 66
     1
 10
0.0
 20
0.0
 30
0.0
  0
VERTEX
  5
AB1
  8
0
 62
     2
 10
-32.0
 20
26.0
 30
0.0
  0
VERTEX
  5
AB2
  8
0
 62
     2
 10
-32.0
 20
46.0
 30
0.0
  0
SEQEND
  5
AB3
  8
0
 62
     2
  0
POLYLINE
  5
56
  8
0
 62
     2
 66
     1
 10
0.0
 20
0.0
 30
0.0
  0
VERTEX
  5
AB4
  8
0
 62
     2
 10
-133.0
 20
41.0
 30
0.0
  0
VERTEX
  5
AB5
  8
0
 62
     2
 10
-92.0
 20
41.0
 30
0.0
  0
SEQEND
  5
AB6
  8
0
 62
     2
  0
POLYLINE
  5
57
  8
0
 62
     2
 66
     1
 10
0.0
 20
0.0
 30
0.0
  0
VERTEX
  5
AB7
  8
0
 62
     2
 10
-145.0
 20
0.0
 30
0.0
  0
VERTEX
  5
AB8
  8
0
 62
     2
 10
-145.0
 20
46.0
 30
0.0
  0
SEQEND
  5
AB9
  8
0
 62
     2
  0
POLYLINE
  5
58
  8
0
 62
     2
 66
     1
 10
0.0
 20
0.0
 30
0.0
  0
VERTEX
  5
ABA
  8
0
 62
     2
 10
-158.0
 20
0.0
 30
0.0
  0
VERTEX
  5
ABB
  8
0
 62
     2
 10
-158.0
 20
46.0
 30
0.0
  0
SEQEND
  5
ABC
  8
0
 62
     2
  0
LINE
  5
59
  8
0
 62
     2
 10
-200.0
 20
6.0
 30
0.0
 11
-133.0
 21
6.0
 31
0.0
  0
POLYLINE
  5
5A
  8
0
 62
     4
 66
     1
 10
0.0
 20
0.0
 30
0.0
  0
VERTEX
  5
ABD
  8
0
 62
     4
 10
-200.0
 20
11.0
 30
0.0
  0
VERTEX
  5
ABE
  8
0
 62
     4
 10
-133.0
 20
11.0
 30
0.0
  0
SEQEND
  5
ABF
  8
0
 62
     4
  0
POLYLINE
  5
5B
  8
0
 62
     4
 66
     1
 10
0.0
 20
0.0
 30
0.0
  0
VERTEX
  5
AC0
  8
0
 62
     4
 10
-200.0
 20
16.0
 30
0.0
  0
VERTEX
  5
AC1
  8
0
 62
     4
 10
-133.0
 20
16.0
 30
0.0
  0
SEQEND
  5
AC2
  8
0
 62
     4
  0
POLYLINE
  5
5C
  8
0
 62
     4
 66
     1
 10
0.0
 20
0.0
 30
0.0
  0
VERTEX
  5
AC3
  8
0
 62
     4
 10
-200.0
 20
21.0
 30
0.0
  0
VERTEX
  5
AC4
  8
0
 62
     4
 10
-133.0
 20
21.0
 30
0.0
  0
SEQEND
  5
AC5
  8
0
 62
     4
  0
POLYLINE
  5
5D
  8
0
 62
     4
 66
     1
 10
0.0
 20
0.0
 30
0.0
  0
VERTEX
  5
AC6
  8
0
 62
     4
 10
-200.0
 20
26.0
 30
0.0
  0
VERTEX
  5
AC7
  8
0
 62
     4
 10
-133.0
 20
26.0
 30
0.0
  0
SEQEND
  5
AC8
  8
0
 62
     4
  0
POLYLINE
  5
5E
  8
0
 62
     4
 66
     1
 10
0.0
 20
0.0
 30
0.0
  0
VERTEX
  5
AC9
  8
0
 62
     4
 10
-200.0
 20
31.0
 30
0.0
  0
VERTEX
  5
ACA
  8
0
 62
     4
 10
-133.0
 20
31.0
 30
0.0
  0
SEQEND
  5
ACB
  8
0
 62
     4
  0
POLYLINE
  5
5F
  8
0
 62
     4
 66
     1
 10
0.0
 20
0.0
 30
0.0
  0
VERTEX
  5
ACC
  8
0
 62
     4
 10
-200.0
 20
36.0
 30
0.0
  0
VERTEX
  5
ACD
  8
0
 62
     4
 10
-133.0
 20
36.0
 30
0.0
  0
SEQEND
  5
ACE
  8
0
 62
     4
  0
POLYLINE
  5
60
  8
0
 62
     4
 66
     1
 10
0.0
 20
0.0
 30
0.0
  0
VERTEX
  5
ACF
  8
0
 62
     4
 10
-200.0
 20
41.0
 30
0.0
  0
VERTEX
  5
AD0
  8
0
 62
     4
 10
-133.0
 20
41.0
 30
0.0
  0
SEQEND
  5
AD1
  8
0
 62
     4
  0
TEXT
  5
61
  8
0
 62
     4
 10
-50.0
 20
6.0
 30
0.0
 40
1.5
  1
Zeichn. Nr.
 51
15.0
  0
TEXT
  5
62
  8
0
 62
     4
 10
-50.0
 20
23.0
 30
0.0
 40
1.5
  1
Ersetzt durch:         Blatt
 51
15.0
  0
TEXT
  5
63
  8
0
 62
     4
 10
-50.0
 20
38.0
 30
0.0
 40
1.5
  1
Gezeichnet
 51
15.0
  0
TEXT
  5
64
  8
0
 62
     4
 10
-50.0
 20
27.0
 30
0.0
 40
1.5
  1
Gesehen
 51
15.0
  0
TEXT
  5
65
  8
0
 62
     4
 10
-31.0
 20
42.0
 30
0.0
 40
1.5
  1
Datum     Name
 51
15.0
  0
TEXT
  5
66
  8
0
 62
     4
 10
-91.0
 20
42.0
 30
0.0
 40
1.5
  1
Werkstoff:      Massstab:
 51
15.0
  0
TEXT
  5
67
  8
0
 62
     4
 10
-132.0
 20
23.0
 30
0.0
 40
1.5
  1
Benennung:
 51
15.0
  0
LINE
  5
68
  8
0
 62
     2
 10
-133.0
 20
33.0
 30
0.0
 11
-92.0
 21
33.0
 31
0.0
  0
TEXT
  5
69
  8
0
 62
     4
 10
-132.0
 20
39.0
 30
0.0
 40
1.5
  1
*)Lieferant darf ohne 
 51
15.0
  0
TEXT
  5
6A
  8
0
 62
     4
 10
-132.0
 20
36.5
 30
0.0
 40
1.5
  1
 Ruecksprache nicht 
 51
15.0
  0
TEXT
  5
6B
  8
0
 62
     4
 10
-132.0
 20
34.0
 30
0.0
 40
1.5
  1
 geaendert werden
 51
15.0
  0
TEXT
  5
6C
  8
0
 62
     4
 10
-132.0
 20
30.0
 30
0.0
 40
1.5
  1
Zeichnung urheberrechtlich
 51
15.0
  0
TEXT
  5
6D
  8
0
 62
     4
 10
-132.0
 20
27.5
 30
0.0
 40
1.5
  1
geschuetzt (DIN 34) (C)
 51
15.0
  0
TEXT
  5
6E
  8
0
 62
     4
 10
-50.0
 20
32.0
 30
0.0
 40
1.5
  1
Geprueft
 51
15.0
  0
TEXT
  5
6F
  8
0
 62
     4
 10
-50.0
 20
15.0
 30
0.0
 40
1.5
  1
Ersatz fuer:           von  Blatt
 51
15.0
  0
TEXT
  5
70
  8
0
 62
     4
 10
-197.0
 20
1.0
 30
0.0
 40
1.5
  1
Ind.  Aenderung             Datum    Name
 51
15.0
  0
ATTDEF
  5
71
  8
0
 62
     4
 10
-28.875
 20
37.0
 30
0.0
 40
2.5
  1
01.10.91
 41
0.7
 51
15.0
 72
     1
 11
-24.5
 21
37.0
 31
0.0
  3
Datum der Zeichnung ?
  2
DATE
 70
     0
  0
ATTDEF
  5
72
  8
0
 62
     4
 10
-80.5
 20
36.0
 30
0.0
 40
2.5
  1

 41
0.7
 51
15.0
 72
     1
 11
-80.5
 21
36.0
 31
0.0
  3
Aus welchem Werkstoff ?
  2
WERKSTOFF
 70
     0
  0
ATTDEF
  5
73
  8
0
 62
     2
 10
-92.0
 20
12.5
 30
0.0
 40
5.0
  1

 41
0.7
 51
15.0
 72
     1
 11
-92.0
 21
12.5
 31
0.0
  3
Zeichnungsname ?
  2
BENENNUNG
 70
     0
  0
ATTDEF
  5
74
  8
0
 62
     3
 10
-90.265457
 20
21.082191
 30
0.0
 40
3.5
  1
()
 41
0.7
 51
15.0
 72
     1
 11
-89.040457
 21
21.082191
 31
0.0
  3
Zu welchem Produkt ?
  2
TEIL
 70
     0
  0
ATTDEF
  5
75
  8
0
 62
     3
 10
-20.550219
 20
1.976541
 30
0.0
 40
3.5
  1

 41
0.7
 51
15.0
 72
     1
 11
-20.550219
 21
1.976541
 31
0.0
  3
Zeichnungsnummer ?
  2
NUMMER
 70
     0
  0
ATTDEF
  5
76
  8
0
 62
     2
 10
-63.482672
 20
34.656056
 30
0.0
 40
5.0
  1
5:1
 41
0.7
 51
15.0
 72
     1
 11
-60.566005
 21
34.656056
 31
0.0
  3
Hauptmassstab:
  2
MASS
 70
     0
  0
ATTDEF
  5
77
  8
0
 62
     3
 10
-60.480701
 20
28.210451
 30
0.0
 40
3.5
  1

 41
0.7
 51
15.0
 72
     1
 11
-60.480701
 21
28.210451
 31
0.0
  3
Nebenmassstab:
  2
MASS2
 70
     0
  0
ATTDEF
  5
78
  8
0
 62
     4
 10
-81.0
 20
29.0
 30
0.0
 40
2.5
  1

 41
0.7
 51
15.0
 72
     1
 11
-81.0
 21
29.0
 31
0.0
  3
Werkstoffzusatz:
  2
TEIL
 70
     0
  0
ATTDEF
  5
79
  8
0
 62
     3
 10
-107.711452
 20
59.004319
 30
0.0
 40
3.5
  1
Freimasstoleranzen %%p0.1
 41
0.7
 51
15.0
  3
Freimasstoleranzen:
  2
TOL
 70
     0
  0
ATTDEF
  5
7A
  8
0
 62
     3
 10
-107.711452
 20
54.004319
 30
0.0
 40
3.5
  1
nicht bemasste Radien R=0.2
 41
0.7
 51
15.0
  3
Nicht bemasste Radien:
  2
RADIEN
 70
     0
  0
ATTDEF
  5
7B
  8
0
 62
     3
 10
-107.711452
 20
49.004319
 30
0.0
 40
3.5
  1
nicht bemasste Facetten 0.5 x 45%%D
 41
0.7
 51
15.0
  3
nicht bemasste Facetten:
  2
FACETTE
 70
     0
  0
POLYLINE
  5
7C
  8
0
 62
     2
 66
     1
 10
0.0
 20
0.0
 30
0.0
  0
VERTEX
  5
AD2
  8
0
 62
     2
 10
-191.0
 20
0.0
 30
0.0
  0
VERTEX
  5
AD3
  8
0
 62
     2
 10
-191.0
 20
46.0
 30
0.0
  0
SEQEND
  5
AD4
  8
0
 62
     2
  0
POLYLINE
  5
7D
  8
0
 62
     2
 66
     1
 10
0.0
 20
0.0
 30
0.0
  0
VERTEX
  5
AD5
  8
0
 62
     2
 10
-133.0
 20
0.0
 30
0.0
  0
VERTEX
  5
AD6
  8
0
 62
     2
 10
-133.0
 20
46.0
 30
0.0
  0
SEQEND
  5
AD7
  8
0
 62
     2
  0
POLYLINE
  5
7E
  8
0
 62
     2
 66
     1
 10
0.0
 20
0.0
 30
0.0
  0
VERTEX
  5
AD8
  8
0
 62
     2
 10
-92.0
 20
26.0
 30
0.0
  0
VERTEX
  5
AD9
  8
0
 62
     2
 10
-92.0
 20
46.0
 30
0.0
  0
SEQEND
  5
ADA
  8
0
 62
     2
  0
POLYLINE
  5
7F
  8
0
 62
     2
 66
     1
 10
0.0
 20
0.0
 30
0.0
  0
VERTEX
  5
ADB
  8
0
 62
     2
 10
-69.0
 20
26.0
 30
0.0
  0
VERTEX
  5
ADC
  8
0
 62
     2
 10
-69.0
 20
46.0
 30
0.0
  0
SEQEND
  5
ADD
  8
0
 62
     2
  0
ATTDEF
  5
80
  8
0
 62
     4
 10
-197.186267
 20
7.0
 30
0.0
 40
2.5
  1

 41
0.7
 51
15.0
  3
Index1:
  2
INDEX1
 70
     0
  0
ATTDEF
  5
81
  8
0
 62
     4
 10
-190.348743
 20
7.0
 30
0.0
 40
2.5
  1

 41
0.7
 51
15.0
  3
Aenderung1:
  2
A1
 70
     0
  0
ATTDEF
  5
82
  8
0
 62
     4
 10
-157.348743
 20
7.0
 30
0.0
 40
2.5
  1

 41
0.7
 51
15.0
  3
Datum1:
  2
DATUM1
 70
     0
  0
ATTDEF
  5
83
  8
0
 62
     4
 10
-144.46499
 20
7.0
 30
0.0
 40
2.5
  1

 41
0.7
 51
15.0
  3
Name1:
  2
NAME1
 70
     0
  0
ATTDEF
  5
84
  8
0
 62
     4
 10
-197.186267
 20
12.0
 30
0.0
 40
2.5
  1

 41
0.7
 51
15.0
  3
Index2:
  2
INDEX2
 70
     0
  0
ATTDEF
  5
85
  8
0
 62
     4
 10
-190.348743
 20
12.0
 30
0.0
 40
2.5
  1

 41
0.7
 51
15.0
  3
Aenderung2:
  2
A2
 70
     0
  0
ATTDEF
  5
86
  8
0
 62
     4
 10
-157.348743
 20
12.0
 30
0.0
 40
2.5
  1

 41
0.7
 51
15.0
  3
Datum2:
  2
DATUM2
 70
     0
  0
ATTDEF
  5
87
  8
0
 62
     4
 10
-144.46499
 20
12.0
 30
0.0
 40
2.5
  1

 41
0.7
 51
15.0
  3
Name2
  2
NAME2
 70
     0
  0
ATTDEF
  5
88
  8
0
 62
     4
 10
-197.186267
 20
17.0
 30
0.0
 40
2.5
  1

 41
0.7
 51
15.0
  3
Index3:
  2
INDEX3
 70
     0
  0
ATTDEF
  5
89
  8
0
 62
     4
 10
-190.348743
 20
17.0
 30
0.0
 40
2.5
  1

 41
0.7
 51
15.0
  3
Aenderung3
  2
A3
 70
     0
  0
ATTDEF
  5
8A
  8
0
 62
     4
 10
-157.348743
 20
17.0
 30
0.0
 40
2.5
  1

 41
0.7
 51
15.0
  3
Datum3:
  2
DATUM3
 70
     0
  0
ATTDEF
  5
8B
  8
0
 62
     4
 10
-144.46499
 20
17.0
 30
0.0
 40
2.5
  1

 41
0.7
 51
15.0
  3
Name3:
  2
NAME3
 70
     0
  0
ATTDEF
  5
8C
  8
0
 62
     4
 10
-197.186267
 20
22.0
 30
0.0
 40
2.5
  1

 41
0.7
 51
15.0
  3
Index4:
  2
INDEX4
 70
     0
  0
ATTDEF
  5
8D
  8
0
 62
     4
 10
-190.348743
 20
22.0
 30
0.0
 40
2.5
  1

 41
0.7
 51
15.0
  3
Aenderung4:
  2
A4
 70
     0
  0
ATTDEF
  5
8E
  8
0
 62
     4
 10
-157.348743
 20
22.0
 30
0.0
 40
2.5
  1

 41
0.7
 51
15.0
  3
Datum4:
  2
DATUM4
 70
     0
  0
ATTDEF
  5
8F
  8
0
 62
     4
 10
-144.46499
 20
22.0
 30
0.0
 40
2.5
  1

 41
0.7
 51
15.0
  3
Name4:
  2
NAME4
 70
     0
  0
ATTDEF
  5
90
  8
0
 62
     4
 10
-197.186267
 20
27.0
 30
0.0
 40
2.5
  1

 41
0.7
 51
15.0
  3
Index5:
  2
INDEX5
 70
     0
  0
ATTDEF
  5
91
  8
0
 62
     4
 10
-190.348743
 20
27.0
 30
0.0
 40
2.5
  1

 41
0.7
 51
15.0
  3
Aenderung5:
  2
A5
 70
     0
  0
ATTDEF
  5
92
  8
0
 62
     4
 10
-157.348743
 20
27.0
 30
0.0
 40
2.5
  1

 41
0.7
 51
15.0
  3
Datum5:
  2
DATUM5
 70
     0
  0
ATTDEF
  5
93
  8
0
 62
     4
 10
-144.46499
 20
27.0
 30
0.0
 40
2.5
  1

 41
0.7
 51
15.0
  3
Name5
  2
NAME5
 70
     0
  0
ATTDEF
  5
94
  8
0
 62
     4
 10
-197.186267
 20
32.0
 30
0.0
 40
2.5
  1

 41
0.7
 51
15.0
  3
Index6:
  2
INDEX6
 70
     0
  0
ATTDEF
  5
95
  8
0
 62
     4
 10
-190.348743
 20
32.0
 30
0.0
 40
2.5
  1

 41
0.7
 51
15.0
  3
Aenderung6:
  2
A6
 70
     0
  0
ATTDEF
  5
96
  8
0
 62
     4
 10
-157.348743
 20
32.0
 30
0.0
 40
2.5
  1

 41
0.7
 51
15.0
  3
Datum6:
  2
DATUM6
 70
     0
  0
ATTDEF
  5
97
  8
0
 62
     4
 10
-144.46499
 20
32.0
 30
0.0
 40
2.5
  1

 41
0.7
 51
15.0
  3
Name6:
  2
NAME6
 70
     0
  0
ATTDEF
  5
98
  8
0
 62
     4
 10
-197.186267
 20
37.0
 30
0.0
 40
2.5
  1

 41
0.7
 51
15.0
  3
Index7:
  2
INDEX7
 70
     0
  0
ATTDEF
  5
99
  8
0
 62
     4
 10
-190.348743
 20
37.0
 30
0.0
 40
2.5
  1

 41
0.7
 51
15.0
  3
Aenderung7:
  2
A7
 70
     0
  0
ATTDEF
  5
9A
  8
0
 62
     4
 10
-157.348743
 20
37.0
 30
0.0
 40
2.5
  1

 41
0.7
 51
15.0
  3
Datum7:
  2
DATUM7
 70
     0
  0
ATTDEF
  5
9B
  8
0
 62
     4
 10
-144.46499
 20
37.0
 30
0.0
 40
2.5
  1

 41
0.7
 51
15.0
  3
Name7:
  2
NAME7
 70
     0
  0
ATTDEF
  5
9C
  8
0
 62
     4
 10
-197.186267
 20
42.0
 30
0.0
 40
2.5
  1

 41
0.7
 51
15.0
  3
Index8:
  2
INDEX8
 70
     0
  0
ATTDEF
  5
9D
  8
0
 62
     4
 10
-190.348743
 20
42.0
 30
0.0
 40
2.5
  1

 41
0.7
 51
15.0
  3
Aenderung8:
  2
A8
 70
     0
  0
ATTDEF
  5
9E
  8
0
 62
     4
 10
-157.348743
 20
42.0
 30
0.0
 40
2.5
  1

 41
0.7
 51
15.0
  3
Datum8:
  2
DATUM8
 70
     0
  0
ATTDEF
  5
9F
  8
0
 62
     4
 10
-144.46499
 20
42.0
 30
0.0
 40
2.5
  1

 41
0.7
 51
15.0
  3
Name8:
  2
NAME8
 70
     0
  0
POLYLINE
  5
A0
  8
0
 62
     2
 66
     1
 10
0.0
 20
0.0
 30
0.0
  0
VERTEX
  5
ADE
  8
0
 62
     2
 10
0.0
 20
0.0
 30
0.0
  0
VERTEX
  5
ADF
  8
0
 62
     2
 10
0.0
 20
46.0
 30
0.0
  0
SEQEND
  5
AE0
  8
0
 62
     2
  0
POLYLINE
  5
A1
  8
0
 62
     2
 66
     1
 10
0.0
 20
0.0
 30
0.0
  0
VERTEX
  5
AE1
  8
0
 62
     2
 10
-200.0
 20
46.0
 30
0.0
  0
VERTEX
  5
AE2
  8
0
 62
     2
 10
-200.0
 20
0.0
 30
0.0
  0
SEQEND
  5
AE3
  8
0
 62
     2
  0
POLYLINE
  5
A2
  8
0
 62
     2
 66
     1
 10
0.0
 20
0.0
 30
0.0
  0
VERTEX
  5
AE4
  8
0
 62
     2
 10
0.0
 20
9.0
 30
0.0
  0
VERTEX
  5
AE5
  8
0
 62
     2
 10
-133.0
 20
9.0
 30
0.0
  0
SEQEND
  5
AE6
  8
0
 62
     2
  0
POLYLINE
  5
A3
  8
0
 62
     2
 66
     1
 10
0.0
 20
0.0
 30
0.0
  0
VERTEX
  5
AE7
  8
0
 62
     2
 10
0.0
 20
18.0
 30
0.0
  0
VERTEX
  5
AE8
  8
0
 62
     2
 10
-51.0
 20
18.0
 30
0.0
  0
SEQEND
  5
AE9
  8
0
 62
     2
  0
POLYLINE
  5
A4
  8
0
 62
     2
 66
     1
 10
0.0
 20
0.0
 30
0.0
  0
VERTEX
  5
AEA
  8
0
 62
     2
 10
0.0
 20
26.0
 30
0.0
  0
VERTEX
  5
AEB
  8
0
 62
     2
 10
-133.0
 20
26.0
 30
0.0
  0
SEQEND
  5
AEC
  8
0
 62
     2
  0
POLYLINE
  5
A5
  8
0
 62
     2
 66
     1
 10
0.0
 20
0.0
 30
0.0
  0
VERTEX
  5
AED
  8
0
 62
     2
 10
0.0
 20
31.0
 30
0.0
  0
VERTEX
  5
AEE
  8
0
 62
     2
 10
-51.0
 20
31.0
 30
0.0
  0
SEQEND
  5
AEF
  8
0
 62
     2
  0
POLYLINE
  5
A6
  8
0
 62
     2
 66
     1
 10
0.0
 20
0.0
 30
0.0
  0
VERTEX
  5
AF0
  8
0
 62
     2
 10
0.0
 20
36.0
 30
0.0
  0
VERTEX
  5
AF1
  8
0
 62
     2
 10
-51.0
 20
36.0
 30
0.0
  0
SEQEND
  5
AF2
  8
0
 62
     2
  0
POLYLINE
  5
A7
  8
0
 62
     2
 66
     1
 10
0.0
 20
0.0
 30
0.0
  0
VERTEX
  5
AF3
  8
0
 62
     2
 10
0.0
 20
41.0
 30
0.0
  0
VERTEX
  5
AF4
  8
0
 62
     2
 10
-51.0
 20
41.0
 30
0.0
  0
SEQEND
  5
AF5
  8
0
 62
     2
  0
POLYLINE
  5
A8
  8
0
 62
     2
 66
     1
 10
0.0
 20
0.0
 30
0.0
  0
VERTEX
  5
AF6
  8
0
 62
     2
 10
0.0
 20
46.0
 30
0.0
  0
VERTEX
  5
AF7
  8
0
 62
     2
 10
-200.0
 20
46.0
 30
0.0
  0
SEQEND
  5
AF8
  8
0
 62
     2
  0
TEXT
  5
A9
  8
035
 10
517.653158
 20
512.84859
 30
0.0
 40
3.5
  1
  
 41
0.7
 51
15.0
  0
LINE
  5
AA
  8
035
 10
-131.889278
 20
3.208952
 30
0.0
 11
-130.181445
 21
3.208952
 31
0.0
  0
LINE
  5
AB
  8
035
 10
-131.338562
 20
5.693072
 30
0.0
 11
-129.320214
 21
5.693072
 31
0.0
  0
LINE
  5
AC
  8
035
 10
-131.889278
 20
3.208952
 30
0.0
 11
-131.338562
 21
5.693072
 31
0.0
  0
LINE
  5
AD
  8
035
 10
-130.181445
 20
3.208952
 30
0.0
 11
-129.871668
 21
4.60627
 31
0.0
  0
LINE
  5
AE
  8
035
 10
-126.377637
 20
3.208952
 30
0.0
 11
-125.826921
 21
5.693072
 31
0.0
  0
LINE
  5
AF
  8
035
 10
-127.775692
 20
4.60627
 30
0.0
 11
-127.534753
 21
5.693072
 31
0.0
  0
LINE
  5
B0
  8
035
 10
-129.871668
 20
4.60627
 30
0.0
 11
-128.318356
 21
3.208952
 31
0.0
  0
LINE
  5
B1
  8
035
 10
-129.320214
 20
5.693072
 30
0.0
 11
-127.775692
 21
4.60627
 31
0.0
  0
LINE
  5
B2
  8
035
 10
-127.534753
 20
5.693072
 30
0.0
 11
-125.826921
 21
5.693072
 31
0.0
  0
LINE
  5
B3
  8
035
 10
-128.318356
 20
3.208952
 30
0.0
 11
-126.377637
 21
3.208952
 31
0.0
  0
LINE
  5
B4
  8
035
 10
-125.523721
 20
3.208952
 30
0.0
 11
-124.973005
 21
5.693072
 31
0.0
  0
LINE
  5
B5
  8
035
 10
-123.718348
 20
3.648931
 30
0.0
 11
-123.572674
 21
4.306023
 31
0.0
  0
LINE
  5
B6
  8
035
 10
-120.855668
 20
4.306023
 30
0.0
 11
-120.791381
 21
4.596001
 31
0.0
  0
LINE
  5
B7
  8
035
 10
-120.865996
 20
3.208952
 30
0.0
 11
-120.768456
 21
3.648931
 31
0.0
  0
LINE
  5
B8
  8
035
 10
-125.523721
 20
3.208952
 30
0.0
 11
-120.865996
 21
3.208952
 31
0.0
  0
LINE
  5
B9
  8
035
 10
-124.973005
 20
5.693072
 30
0.0
 11
-120.31528
 21
5.693072
 31
0.0
  0
LINE
  5
BA
  8
035
 10
-123.508387
 20
4.596001
 30
0.0
 11
-123.362713
 21
5.253094
 31
0.0
  0
LINE
  5
BB
  8
035
 10
-120.412821
 20
5.253094
 30
0.0
 11
-120.31528
 21
5.693072
 31
0.0
  0
LINE
  5
BC
  8
035
 10
-119.921488
 20
3.967747
 30
0.0
 11
-119.538993
 21
5.693072
 31
0.0
  0
LINE
  5
BD
  8
035
 10
-118.170584
 20
4.181432
 30
0.0
 11
-117.835462
 21
5.693072
 31
0.0
  0
LINE
  5
BE
  8
035
 10
-116.302927
 20
4.100887
 30
0.0
 11
-115.949949
 21
5.693072
 31
0.0
  0
LINE
  5
BF
  8
035
 10
-114.655674
 20
3.847099
 30
0.0
 11
-114.246432
 21
5.693072
 31
0.0
  0
LINE
  5
C0
  8
035
 10
-119.538993
 20
5.693072
 30
0.0
 11
-117.835462
 21
5.693072
 31
0.0
  0
POLYLINE
  5
C1
  8
035
 66
     1
 10
0.0
 20
0.0
 30
0.0
  0
VERTEX
  5
AF9
  8
035
 10
-119.921488
 20
3.967747
 30
0.0
 42
0.053304
  0
VERTEX
  5
AFA
  8
035
 10
-119.927918
 20
3.907611
 30
0.0
 42
0.242955
  0
SEQEND
  5
AFB
  8
035
  0
POLYLINE
  5
C2
  8
035
 66
     1
 10
0.0
 20
0.0
 30
0.0
  0
VERTEX
  5
AFC
  8
035
 10
-119.927918
 20
3.907611
 30
0.0
 42
0.242955
  0
VERTEX
  5
AFD
  8
035
 10
-119.808149
 20
3.675677
 30
0.0
 42
0.083039
  0
VERTEX
  5
AFE
  8
035
 10
-119.154862
 20
3.358693
 30
0.0
 42
0.041229
  0
VERTEX
  5
AFF
  8
035
 10
-118.372334
 20
3.197098
 30
0.0
 42
0.030317
  0
VERTEX
  5
B00
  8
035
 10
-117.28854
 20
3.131323
 30
0.0
 42
0.030317
  0
VERTEX
  5
B01
  8
035
 10
-116.204747
 20
3.197098
 30
0.0
 42
0.041229
  0
VERTEX
  5
B02
  8
035
 10
-115.422219
 20
3.358693
 30
0.0
 42
0.083039
  0
VERTEX
  5
B03
  8
035
 10
-114.768932
 20
3.675677
 30
0.0
 42
0.186877
  0
VERTEX
  5
B04
  8
035
 10
-114.655674
 20
3.847099
 30
0.0
 42
0.242955
  0
SEQEND
  5
B05
  8
035
  0
POLYLINE
  5
C3
  8
035
 66
     1
 10
0.0
 20
0.0
 30
0.0
  0
VERTEX
  5
B06
  8
035
 10
-118.175358
 20
4.140497
 30
0.0
 42
0.199105
  0
VERTEX
  5
B07
  8
035
 10
-118.123163
 20
4.014618
 30
0.0
 42
0.098437
  0
VERTEX
  5
B08
  8
035
 10
-117.900493
 20
3.866038
 30
0.0
 42
0.055684
  0
VERTEX
  5
B09
  8
035
 10
-117.619171
 20
3.784861
 30
0.0
 42
0.042444
  0
VERTEX
  5
B0A
  8
035
 10
-117.23691
 20
3.752353
 30
0.0
 42
0.042444
  0
VERTEX
  5
B0B
  8
035
 10
-116.854649
 20
3.784861
 30
0.0
 42
0.055684
  0
VERTEX
  5
B0C
  8
035
 10
-116.573327
 20
3.866038
 30
0.0
 42
0.098437
  0
VERTEX
  5
B0D
  8
035
 10
-116.350657
 20
4.014618
 30
0.0
 42
0.141327
  0
VERTEX
  5
B0E
  8
035
 10
-116.302927
 20
4.100887
 30
0.0
 42
0.199105
  0
SEQEND
  5
B0F
  8
035
  0
POLYLINE
  5
C4
  8
035
 66
     1
 10
0.0
 20
0.0
 30
0.0
  0
VERTEX
  5
B10
  8
035
 10
-118.170584
 20
4.181432
 30
0.0
 42
0.058115
  0
VERTEX
  5
B11
  8
035
 10
-118.175358
 20
4.140497
 30
0.0
 42
0.199105
  0
SEQEND
  5
B12
  8
035
  0
LINE
  5
C5
  8
035
 10
-115.949949
 20
5.693072
 30
0.0
 11
-114.246432
 21
5.693072
 31
0.0
  0
LINE
  5
C6
  8
035
 10
-113.932145
 20
5.072042
 30
0.0
 11
-113.794466
 21
5.693072
 31
0.0
  0
LINE
  5
C7
  8
035
 10
-112.792607
 20
3.208952
 30
0.0
 11
-112.37957
 21
5.072042
 31
0.0
  0
LINE
  5
C8
  8
035
 10
-111.084775
 20
3.208952
 30
0.0
 11
-110.671738
 21
5.072042
 31
0.0
  0
LINE
  5
C9
  8
035
 10
-109.041534
 20
5.072042
 30
0.0
 11
-108.903855
 21
5.693072
 31
0.0
  0
LINE
  5
CA
  8
035
 10
-113.932145
 20
5.072042
 30
0.0
 11
-112.37957
 21
5.072042
 31
0.0
  0
LINE
  5
CB
  8
035
 10
-112.792607
 20
3.208952
 30
0.0
 11
-111.084775
 21
3.208952
 31
0.0
  0
LINE
  5
CC
  8
035
 10
-113.794466
 20
5.693072
 30
0.0
 11
-108.903855
 21
5.693072
 31
0.0
  0
LINE
  5
CD
  8
035
 10
-110.671738
 20
5.072042
 30
0.0
 11
-109.041534
 21
5.072042
 31
0.0
  0
LINE
  5
CE
  8
035
 10
-108.91117
 20
3.208952
 30
0.0
 11
-108.360454
 21
5.693072
 31
0.0
  0
LINE
  5
CF
  8
035
 10
-107.203338
 20
3.208952
 30
0.0
 11
-106.997985
 21
4.13524
 31
0.0
  0
LINE
  5
D0
  8
035
 10
-108.91117
 20
3.208952
 30
0.0
 11
-107.203338
 21
3.208952
 31
0.0
  0
LINE
  5
D1
  8
035
 10
-108.360454
 20
5.693072
 30
0.0
 11
-104.002078
 21
5.693072
 31
0.0
  0
LINE
  5
D2
  8
035
 10
-103.691866
 20
3.468914
 30
0.0
 11
-103.651414
 21
4.047405
 31
0.0
  0
LINE
  5
D3
  8
035
 10
-105.404037
 20
3.406868
 30
0.0
 11
-105.372771
 21
3.861921
 31
0.0
  0
LINE
  5
D4
  8
035
 10
-106.933698
 20
4.425218
 30
0.0
 11
-106.750163
 21
5.253094
 31
0.0
  0
ARC
  5
D5
  8
035
 10
-103.304668
 20
3.441838
 30
0.0
 40
0.388144
 50
176.0
 51
216.869898
  0
ARC
  5
D6
  8
035
 10
-105.030247
 20
3.411905
 30
0.0
 40
0.373824
 50
180.772005
 51
212.881875
  0
LINE
  5
D7
  8
035
 10
-105.344182
 20
3.208952
 30
0.0
 11
-103.615183
 21
3.208952
 31
0.0
  0
POLYLINE
  5
D8
  8
035
 66
     1
 10
0.0
 20
0.0
 30
0.0
  0
VERTEX
  5
B13
  8
035
 10
-103.651414
 20
4.047405
 30
0.0
 42
0.084831
  0
VERTEX
  5
B14
  8
035
 10
-103.660284
 20
4.142982
 30
0.0
 42
0.153048
  0
VERTEX
  5
B15
  8
035
 10
-103.751613
 20
4.286875
 30
0.0
 42
0.025315
  0
VERTEX
  5
B16
  8
035
 10
-103.797537
 20
4.321852
 30
0.0
 42
0.067948
  0
SEQEND
  5
B17
  8
035
  0
POLYLINE
  5
D9
  8
035
 66
     1
 10
0.0
 20
0.0
 30
0.0
  0
VERTEX
  5
B18
  8
035
 10
-103.797537
 20
4.321852
 30
0.0
 42
0.015369
  0
VERTEX
  5
B19
  8
035
 10
-103.68387
 20
4.380025
 30
0.0
 42
0.073981
  0
VERTEX
  5
B1A
  8
035
 10
-103.356816
 20
4.629409
 30
0.0
 42
0.106894
  0
VERTEX
  5
B1B
  8
035
 10
-103.152297
 20
4.956595
 30
0.0
 42
0.153048
  0
VERTEX
  5
B1C
  8
035
 10
-103.140863
 20
5.229042
 30
0.0
 42
0.153048
  0
VERTEX
  5
B1D
  8
035
 10
-103.286988
 20
5.459272
 30
0.0
 42
0.106894
  0
VERTEX
  5
B1E
  8
035
 10
-103.627701
 20
5.640364
 30
0.0
 42
0.067948
  0
VERTEX
  5
B1F
  8
035
 10
-104.002078
 20
5.693072
 30
0.0
 42
0.060566
  0
SEQEND
  5
B20
  8
035
  0
LINE
  5
DA
  8
035
 10
-102.856129
 20
3.208952
 30
0.0
 11
-102.305412
 21
5.693072
 31
0.0
  0
LINE
  5
DB
  8
035
 10
-101.148296
 20
3.208952
 30
0.0
 11
-100.59758
 21
5.693072
 31
0.0
  0
LINE
  5
DC
  8
035
 10
-102.856129
 20
3.208952
 30
0.0
 11
-101.148296
 21
3.208952
 31
0.0
  0
LINE
  5
DD
  8
035
 10
-102.305412
 20
5.693072
 30
0.0
 11
-100.59758
 21
5.693072
 31
0.0
  0
LINE
  5
DE
  8
035
 10
-100.139123
 20
3.208952
 30
0.0
 11
-99.588406
 21
5.693072
 31
0.0
  0
LINE
  5
DF
  8
035
 10
-98.508919
 20
3.208952
 30
0.0
 11
-98.37124
 21
3.829982
 31
0.0
  0
LINE
  5
E0
  8
035
 10
-99.588406
 20
5.693072
 30
0.0
 11
-97.958203
 21
5.693072
 31
0.0
  0
LINE
  5
E1
  8
035
 10
-100.139123
 20
3.208952
 30
0.0
 11
-98.508919
 21
3.208952
 31
0.0
  0
LINE
  5
E2
  8
035
 10
-98.37124
 20
3.829982
 30
0.0
 11
-97.642556
 21
4.140497
 31
0.0
  0
LINE
  5
E3
  8
035
 10
-98.144475
 20
4.852855
 30
0.0
 11
-96.172742
 21
5.693072
 31
0.0
  0
LINE
  5
E4
  8
035
 10
-96.172742
 20
5.693072
 30
0.0
 11
-93.999137
 21
5.693072
 31
0.0
  0
LINE
  5
E5
  8
035
 10
-97.642556
 20
4.140497
 30
0.0
 11
-96.723458
 21
3.208952
 31
0.0
  0
LINE
  5
E6
  8
035
 10
-96.003018
 20
4.839156
 30
0.0
 11
-94.394596
 21
3.208952
 31
0.0
  0
LINE
  5
E7
  8
035
 10
-96.003018
 20
4.839156
 30
0.0
 11
-93.999137
 21
5.693072
 31
0.0
  0
LINE
  5
E8
  8
035
 10
-98.144475
 20
4.852855
 30
0.0
 11
-97.958203
 21
5.693072
 31
0.0
  0
LINE
  5
E9
  8
035
 10
-96.723458
 20
3.208952
 30
0.0
 11
-94.394596
 21
3.208952
 31
0.0
  0
LINE
  5
EA
  8
035
 10
-91.535849
 20
3.208952
 30
0.0
 11
-89.859713
 21
3.208952
 31
0.0
  0
LINE
  5
EB
  8
035
 10
-89.672213
 20
5.693801
 30
0.0
 11
-86.717509
 21
5.693801
 31
0.0
  0
LINE
  5
EC
  8
035
 10
-91.535849
 20
3.208952
 30
0.0
 11
-89.672213
 21
5.693801
 31
0.0
  0
LINE
  5
ED
  8
035
 10
-86.717509
 20
5.693801
 30
0.0
 11
-86.096297
 21
3.208952
 31
0.0
  0
LINE
  5
EE
  8
035
 10
-89.499689
 20
3.688984
 30
0.0
 11
-87.773968
 21
3.688984
 31
0.0
  0
LINE
  5
EF
  8
035
 10
-89.219798
 20
4.062171
 30
0.0
 11
-87.867265
 21
4.062171
 31
0.0
  0
LINE
  5
F0
  8
035
 10
-85.384981
 20
3.719952
 30
0.0
 11
-85.11662
 21
5.241907
 31
0.0
  0
LINE
  5
F1
  8
035
 10
-80.632927
 20
3.208952
 30
0.0
 11
-80.440303
 21
4.301376
 31
0.0
  0
LINE
  5
F2
  8
035
 10
-83.773875
 20
4.049318
 30
0.0
 11
-83.613979
 21
4.956134
 31
0.0
  0
LINE
  5
F3
  8
035
 10
-82.185958
 20
3.208952
 30
0.0
 11
-82.180952
 21
3.237338
 31
0.0
  0
LINE
  5
F4
  8
035
 10
-82.653819
 20
4.078649
 30
0.0
 11
-82.614546
 21
4.301376
 31
0.0
  0
LINE
  5
F5
  8
035
 10
-82.653819
 20
4.078649
 30
0.0
 11
-82.032607
 21
4.078649
 31
0.0
  0
ARC
  5
F6
  8
035
 10
-82.531573
 20
-8.003128
 30
0.0
 40
13.697153
 50
81.659895
 51
99.80279
  0
ARC
  5
F7
  8
035
 10
-83.091534
 20
16.90419
 30
0.0
 40
13.697153
 50
261.461473
 51
273.811815
  0
ARC
  5
F8
  8
035
 10
-84.810733
 20
5.187971
 30
0.0
 40
0.310606
 50
99.80279
 51
170.0
  0
ARC
  5
F9
  8
035
 10
-85.079094
 20
3.666016
 30
0.0
 40
0.310606
 50
170.0
 51
261.461473
  0
ARC
  5
FA
  8
035
 10
-80.58987
 20
5.24185
 30
0.0
 40
0.310606
 50
350.0
 51
81.659895
  0
LINE
  5
FB
  8
035
 10
-81.898429
 20
4.963993
 30
0.0
 11
-80.323466
 21
4.963993
 31
0.0
  0
LINE
  5
FC
  8
035
 10
-80.323466
 20
4.963993
 30
0.0
 11
-80.283983
 21
5.187914
 31
0.0
  0
LINE
  5
FD
  8
035
 10
-82.052147
 20
3.967832
 30
0.0
 11
-82.032607
 21
4.078649
 31
0.0
  0
ARC
  5
FE
  8
035
 10
-82.755724
 20
1.698274
 30
0.0
 40
3.561797
 50
80.208339
 51
99.781825
  0
ARC
  5
FF
  8
035
 10
-82.989141
 20
7.211117
 30
0.0
 40
3.561797
 50
261.530468
 51
281.193068
  0
ARC
  5
100
  8
035
 10
-83.308092
 20
4.902198
 30
0.0
 40
0.310606
 50
99.781825
 51
170.0
  0
ARC
  5
101
  8
035
 10
-82.202807
 20
4.902103
 30
0.0
 40
0.310606
 50
11.493425
 51
80.208339
  0
ARC
  5
102
  8
035
 10
-83.467988
 20
3.995382
 30
0.0
 40
0.310606
 50
170.0
 51
261.530468
  0
ARC
  5
103
  8
035
 10
-82.358034
 20
4.021768
 30
0.0
 40
0.310606
 50
281.193068
 51
350.0
  0
LINE
  5
104
  8
035
 10
-82.185958
 20
3.208952
 30
0.0
 11
-80.632927
 21
3.208952
 31
0.0
  0
LINE
  5
105
  8
035
 10
-87.65396
 20
3.208952
 30
0.0
 11
-86.096297
 21
3.208952
 31
0.0
  0
TEXT
  5
106
  8
035
 62
     4
 10
-77.576926
 20
3.264636
 30
0.0
 40
2.484848
  1
FL-9494 SCHAAN
 41
0.7
 51
15.0
  7
HELV
  0
LINE
  5
108
  8
035
 10
-123.362713
 20
5.253094
 30
0.0
 11
-120.412821
 21
5.253094
 31
0.0
  0
LINE
  5
109
  8
035
 10
-123.508387
 20
4.596001
 30
0.0
 11
-120.791381
 21
4.596001
 31
0.0
  0
LINE
  5
10A
  8
035
 10
-123.572674
 20
4.306023
 30
0.0
 11
-120.855668
 21
4.306023
 31
0.0
  0
LINE
  5
10B
  8
035
 10
-123.718348
 20
3.648931
 30
0.0
 11
-120.768456
 21
3.648931
 31
0.0
  0
LINE
  5
10C
  8
0
 62
     4
 10
-94.088306
 20
5.655074
 30
0.0
 11
-94.050308
 21
5.693072
 31
0.0
  0
LINE
  5
10D
  8
0
 62
     4
 10
-94.413108
 20
3.208952
 30
0.0
 11
-94.40379
 21
3.21827
 31
0.0
  0
LINE
  5
10E
  8
035
 10
-106.750163
 20
5.253094
 30
0.0
 11
-105.343603
 21
5.253094
 31
0.0
  0
LINE
  5
10F
  8
035
 10
-106.933698
 20
4.425218
 30
0.0
 11
-105.573373
 21
4.425218
 31
0.0
  0
LINE
  5
110
  8
035
 10
-106.997985
 20
4.13524
 30
0.0
 11
-105.5491
 21
4.13524
 31
0.0
  0
LINE
  5
111
  8
035
 10
-105.343603
 20
5.253094
 30
0.0
 11
-105.232586
 21
5.23493
 31
0.0
  0
LINE
  5
112
  8
035
 10
-105.232586
 20
5.23493
 30
0.0
 11
-105.136389
 21
5.186199
 31
0.0
  0
LINE
  5
113
  8
035
 10
-105.136389
 20
5.186199
 30
0.0
 11
-105.090213
 21
5.111822
 31
0.0
  0
LINE
  5
114
  8
035
 10
-105.090213
 20
5.111822
 30
0.0
 11
-105.054301
 21
5.022057
 31
0.0
  0
LINE
  5
115
  8
035
 10
-105.054301
 20
5.022057
 30
0.0
 11
-105.053017
 21
4.9246
 31
0.0
  0
LINE
  5
116
  8
035
 10
-105.053017
 20
4.9246
 30
0.0
 11
-105.063278
 21
4.783539
 31
0.0
  0
LINE
  5
117
  8
035
 10
-105.063278
 20
4.783539
 30
0.0
 11
-105.114586
 21
4.697624
 31
0.0
  0
LINE
  5
118
  8
035
 10
-105.114586
 20
4.697624
 30
0.0
 11
-105.20565
 21
4.591186
 31
0.0
  0
LINE
  5
119
  8
035
 10
-105.20565
 20
4.591186
 30
0.0
 11
-105.342894
 21
4.509116
 31
0.0
  0
LINE
  5
11A
  8
035
 10
-105.342894
 20
4.509116
 30
0.0
 11
-105.473724
 21
4.442434
 31
0.0
  0
LINE
  5
11B
  8
035
 10
-105.473724
 20
4.442434
 30
0.0
 11
-105.573373
 21
4.425218
 31
0.0
  0
LINE
  5
11C
  8
035
 10
-105.5491
 20
4.13524
 30
0.0
 11
-105.466219
 21
4.123579
 31
0.0
  0
LINE
  5
11D
  8
035
 10
-105.466219
 20
4.123579
 30
0.0
 11
-105.413019
 21
4.089933
 31
0.0
  0
LINE
  5
11E
  8
035
 10
-105.413019
 20
4.089933
 30
0.0
 11
-105.380449
 21
4.036745
 31
0.0
  0
LINE
  5
11F
  8
035
 10
-105.380449
 20
4.036745
 30
0.0
 11
-105.365249
 21
3.972704
 31
0.0
  0
LINE
  5
120
  8
035
 10
-105.365249
 20
3.972704
 30
0.0
 11
-105.372771
 21
3.861921
 31
0.0
  0
LINE
  5
121
  8
035
 10
-88.205398
 20
5.414705
 30
0.0
 11
-87.867265
 21
4.062171
 31
0.0
  0
LINE
  5
122
  8
035
 10
-89.219798
 20
4.062171
 30
0.0
 11
-88.205398
 21
5.414705
 31
0.0
  0
LINE
  5
123
  8
035
 10
-87.773968
 20
3.688984
 30
0.0
 11
-87.65396
 21
3.208952
 31
0.0
  0
LINE
  5
124
  8
035
 10
-89.859713
 20
3.208952
 30
0.0
 11
-89.499689
 21
3.688984
 31
0.0
  0
LINE
  5
125
  8
035
 10
-82.614546
 20
4.301376
 30
0.0
 11
-80.440303
 21
4.301376
 31
0.0
  0
INSERT
  5
126
  8
035
 62
     4
  2
*X2
 10
-280.0
 20
-100.0
 30
0.0
1001
ACAD
1000
HATCH
1002
{
1070
    16
1000
ANSI37,I
1040
1.8
1040
0.0
1002
}
  0
ENDBLK
  5
330
  8
0
  0
BLOCK
  8
0
  2
*X2
 70
     1
 10
0.0
 20
0.0
 30
0.0
  3
*X2
  1

  0
LINE
  5
128
  8
0
 62
     0
 10
172.576127
 20
103.208952
 30
0.0
 11
172.85948
 21
103.492304
 31
0.0
  0
LINE
  5
129
  8
0
 62
     0
 10
174.620269
 20
105.253094
 30
0.0
 11
175.060247
 21
105.693072
 31
0.0
  0
LINE
  5
12A
  8
0
 62
     0
 10
173.502415
 20
104.13524
 30
0.0
 11
173.792393
 21
104.425218
 31
0.0
  0
LINE
  5
12B
  8
0
 62
     0
 10
172.257929
 20
103.208952
 30
0.0
 11
172.950116
 21
103.901139
 31
0.0
  0
LINE
  5
12C
  8
0
 62
     0
 10
174.302071
 20
105.253094
 30
0.0
 11
174.742049
 21
105.693072
 31
0.0
  0
LINE
  5
12D
  8
0
 62
     0
 10
173.184217
 20
104.13524
 30
0.0
 11
173.474195
 21
104.425218
 31
0.0
  0
LINE
  5
12E
  8
0
 62
     0
 10
171.939731
 20
103.208952
 30
0.0
 11
173.155997
 21
104.425218
 31
0.0
  0
LINE
  5
12F
  8
0
 62
     0
 10
173.983873
 20
105.253094
 30
0.0
 11
174.423851
 21
105.693072
 31
0.0
  0
LINE
  5
130
  8
0
 62
     0
 10
171.621533
 20
103.208952
 30
0.0
 11
173.131389
 21
104.718808
 31
0.0
  0
LINE
  5
131
  8
0
 62
     0
 10
173.665675
 20
105.253094
 30
0.0
 11
174.105653
 21
105.693072
 31
0.0
  0
LINE
  5
132
  8
0
 62
     0
 10
171.303335
 20
103.208952
 30
0.0
 11
173.222025
 21
105.127642
 31
0.0
  0
LINE
  5
133
  8
0
 62
     0
 10
173.347477
 20
105.253094
 30
0.0
 11
173.787455
 21
105.693072
 31
0.0
  0
LINE
  5
134
  8
0
 62
     0
 10
171.118366
 20
103.342181
 30
0.0
 11
173.469257
 21
105.693072
 31
0.0
  0
LINE
  5
135
  8
0
 62
     0
 10
171.209002
 20
103.751015
 30
0.0
 11
173.151059
 21
105.693072
 31
0.0
  0
LINE
  5
136
  8
0
 62
     0
 10
171.299639
 20
104.15985
 30
0.0
 11
172.832861
 21
105.693072
 31
0.0
  0
LINE
  5
137
  8
0
 62
     0
 10
171.390275
 20
104.568684
 30
0.0
 11
172.514663
 21
105.693072
 31
0.0
  0
LINE
  5
138
  8
0
 62
     0
 10
171.480911
 20
104.977519
 30
0.0
 11
172.196465
 21
105.693072
 31
0.0
  0
LINE
  5
139
  8
0
 62
     0
 10
171.571548
 20
105.386353
 30
0.0
 11
171.878267
 21
105.693072
 31
0.0
  0
LINE
  5
13A
  8
0
 62
     0
 10
170.939039
 20
105.072042
 30
0.0
 11
170.963999
 21
105.097002
 31
0.0
  0
LINE
  5
13B
  8
0
 62
     0
 10
168.757751
 20
103.208952
 30
0.0
 11
168.96008
 21
103.411282
 31
0.0
  0
LINE
  5
13C
  8
0
 62
     0
 10
170.620841
 20
105.072042
 30
0.0
 11
171.054636
 21
105.505837
 31
0.0
  0
LINE
  5
13D
  8
0
 62
     0
 10
168.439553
 20
103.208952
 30
0.0
 11
169.050717
 21
103.820116
 31
0.0
  0
LINE
  5
13E
  8
0
 62
     0
 10
170.302643
 20
105.072042
 30
0.0
 11
170.923673
 21
105.693072
 31
0.0
  0
LINE
  5
13F
  8
0
 62
     0
 10
168.121355
 20
103.208952
 30
0.0
 11
169.141353
 21
104.228951
 31
0.0
  0
LINE
  5
140
  8
0
 62
     0
 10
169.984445
 20
105.072042
 30
0.0
 11
170.605474
 21
105.693072
 31
0.0
  0
LINE
  5
141
  8
0
 62
     0
 10
167.803157
 20
103.208952
 30
0.0
 11
169.23199
 21
104.637785
 31
0.0
  0
LINE
  5
142
  8
0
 62
     0
 10
169.666246
 20
105.072042
 30
0.0
 11
170.287276
 21
105.693072
 31
0.0
  0
LINE
  5
143
  8
0
 62
     0
 10
167.484959
 20
103.208952
 30
0.0
 11
169.322626
 21
105.04662
 31
0.0
  0
LINE
  5
144
  8
0
 62
     0
 10
169.348048
 20
105.072042
 30
0.0
 11
169.969078
 21
105.693072
 31
0.0
  0
LINE
  5
145
  8
0
 62
     0
 10
167.218966
 20
103.261158
 30
0.0
 11
169.65088
 21
105.693072
 31
0.0
  0
LINE
  5
146
  8
0
 62
     0
 10
167.309603
 20
103.669992
 30
0.0
 11
169.332682
 21
105.693072
 31
0.0
  0
LINE
  5
147
  8
0
 62
     0
 10
167.400239
 20
104.078827
 30
0.0
 11
169.014484
 21
105.693072
 31
0.0
  0
LINE
  5
148
  8
0
 62
     0
 10
167.490876
 20
104.487661
 30
0.0
 11
168.696286
 21
105.693072
 31
0.0
  0
LINE
  5
149
  8
0
 62
     0
 10
167.581512
 20
104.896496
 30
0.0
 11
168.378088
 21
105.693072
 31
0.0
  0
LINE
  5
14A
  8
0
 62
     0
 10
167.43886
 20
105.072042
 30
0.0
 11
168.05989
 21
105.693072
 31
0.0
  0
LINE
  5
14B
  8
0
 62
     0
 10
167.120662
 20
105.072042
 30
0.0
 11
167.741692
 21
105.693072
 31
0.0
  0
LINE
  5
14C
  8
0
 62
     0
 10
166.802464
 20
105.072042
 30
0.0
 11
167.423494
 21
105.693072
 31
0.0
  0
LINE
  5
14D
  8
0
 62
     0
 10
164.888376
 20
103.476152
 30
0.0
 11
165.368539
 21
103.956315
 31
0.0
  0
LINE
  5
14E
  8
0
 62
     0
 10
166.484266
 20
105.072042
 30
0.0
 11
167.105296
 21
105.693072
 31
0.0
  0
LINE
  5
14F
  8
0
 62
     0
 10
164.405466
 20
103.31144
 30
0.0
 11
165.459175
 21
104.365149
 31
0.0
  0
LINE
  5
150
  8
0
 62
     0
 10
166.166068
 20
105.072042
 30
0.0
 11
166.787098
 21
105.693072
 31
0.0
  0
LINE
  5
151
  8
0
 62
     0
 10
164.002769
 20
103.226941
 30
0.0
 11
165.549811
 21
104.773984
 31
0.0
  0
LINE
  5
152
  8
0
 62
     0
 10
166.130516
 20
105.354688
 30
0.0
 11
166.4689
 21
105.693072
 31
0.0
  0
LINE
  5
153
  8
0
 62
     0
 10
163.636859
 20
103.17923
 30
0.0
 11
165.640448
 21
105.182818
 31
0.0
  0
LINE
  5
154
  8
0
 62
     0
 10
163.289411
 20
103.149979
 30
0.0
 11
165.731084
 21
105.591652
 31
0.0
  0
LINE
  5
155
  8
0
 62
     0
 10
162.955891
 20
103.134657
 30
0.0
 11
165.514306
 21
105.693072
 31
0.0
  0
LINE
  5
156
  8
0
 62
     0
 10
162.634688
 20
103.131652
 30
0.0
 11
163.335119
 21
103.832084
 31
0.0
  0
LINE
  5
157
  8
0
 62
     0
 10
163.723606
 20
104.22057
 30
0.0
 11
165.196108
 21
105.693072
 31
0.0
  0
LINE
  5
158
  8
0
 62
     0
 10
162.324518
 20
103.139681
 30
0.0
 11
162.944469
 21
103.759631
 31
0.0
  0
LINE
  5
159
  8
0
 62
     0
 10
163.814242
 20
104.629404
 30
0.0
 11
164.87791
 21
105.693072
 31
0.0
  0
LINE
  5
15A
  8
0
 62
     0
 10
162.024343
 20
103.157703
 30
0.0
 11
162.623312
 21
103.756673
 31
0.0
  0
LINE
  5
15B
  8
0
 62
     0
 10
163.904878
 20
105.038239
 30
0.0
 11
164.559711
 21
105.693072
 31
0.0
  0
LINE
  5
15C
  8
0
 62
     0
 10
161.733306
 20
103.184864
 30
0.0
 11
162.340799
 21
103.792357
 31
0.0
  0
LINE
  5
15D
  8
0
 62
     0
 10
163.995515
 20
105.447073
 30
0.0
 11
164.241513
 21
105.693072
 31
0.0
  0
LINE
  5
15E
  8
0
 62
     0
 10
161.452007
 20
103.221764
 30
0.0
 11
162.097229
 21
103.866985
 31
0.0
  0
LINE
  5
15F
  8
0
 62
     0
 10
161.184171
 20
103.272125
 30
0.0
 11
161.902409
 21
103.990363
 31
0.0
  0
LINE
  5
160
  8
0
 62
     0
 10
160.928758
 20
103.33491
 30
0.0
 11
161.844836
 21
104.250989
 31
0.0
  0
LINE
  5
161
  8
0
 62
     0
 10
160.687321
 20
103.411671
 30
0.0
 11
161.935473
 21
104.659823
 31
0.0
  0
LINE
  5
162
  8
0
 62
     0
 10
160.466718
 20
103.509267
 30
0.0
 11
162.026109
 21
105.068658
 31
0.0
  0
LINE
  5
163
  8
0
 62
     0
 10
160.265103
 20
103.62585
 30
0.0
 11
162.116745
 21
105.477492
 31
0.0
  0
LINE
  5
164
  8
0
 62
     0
 10
160.101894
 20
103.780839
 30
0.0
 11
162.014127
 21
105.693072
 31
0.0
  0
LINE
  5
165
  8
0
 62
     0
 10
160.109248
 20
104.106391
 30
0.0
 11
161.695929
 21
105.693072
 31
0.0
  0
LINE
  5
166
  8
0
 62
     0
 10
158.893611
 20
103.208952
 30
0.0
 11
159.202478
 21
103.517819
 31
0.0
  0
LINE
  5
167
  8
0
 62
     0
 10
160.199885
 20
104.515226
 30
0.0
 11
161.377731
 21
105.693072
 31
0.0
  0
LINE
  5
168
  8
0
 62
     0
 10
158.575413
 20
103.208952
 30
0.0
 11
159.015392
 21
103.648931
 31
0.0
  0
LINE
  5
169
  8
0
 62
     0
 10
160.290521
 20
104.92406
 30
0.0
 11
161.059533
 21
105.693072
 31
0.0
  0
LINE
  5
16A
  8
0
 62
     0
 10
158.257215
 20
103.208952
 30
0.0
 11
158.697194
 21
103.648931
 31
0.0
  0
LINE
  5
16B
  8
0
 62
     0
 10
160.381158
 20
105.332895
 30
0.0
 11
160.741335
 21
105.693072
 31
0.0
  0
LINE
  5
16C
  8
0
 62
     0
 10
157.939017
 20
103.208952
 30
0.0
 11
158.378996
 21
103.648931
 31
0.0
  0
LINE
  5
16D
  8
0
 62
     0
 10
159.036088
 20
104.306023
 30
0.0
 11
159.175165
 21
104.4451
 31
0.0
  0
LINE
  5
16E
  8
0
 62
     0
 10
157.620819
 20
103.208952
 30
0.0
 11
158.060797
 21
103.648931
 31
0.0
  0
LINE
  5
16F
  8
0
 62
     0
 10
158.71789
 20
104.306023
 30
0.0
 11
159.007868
 21
104.596001
 31
0.0
  0
LINE
  5
170
  8
0
 62
     0
 10
157.302621
 20
103.208952
 30
0.0
 11
157.742599
 21
103.648931
 31
0.0
  0
LINE
  5
171
  8
0
 62
     0
 10
159.346762
 20
105.253094
 30
0.0
 11
159.65566
 21
105.561991
 31
0.0
  0
LINE
  5
172
  8
0
 62
     0
 10
158.399692
 20
104.306023
 30
0.0
 11
158.68967
 21
104.596001
 31
0.0
  0
LINE
  5
173
  8
0
 62
     0
 10
156.984423
 20
103.208952
 30
0.0
 11
157.424401
 21
103.648931
 31
0.0
  0
LINE
  5
174
  8
0
 62
     0
 10
159.028564
 20
105.253094
 30
0.0
 11
159.468543
 21
105.693072
 31
0.0
  0
LINE
  5
175
  8
0
 62
     0
 10
158.081494
 20
104.306023
 30
0.0
 11
158.371472
 21
104.596001
 31
0.0
  0
LINE
  5
176
  8
0
 62
     0
 10
156.666225
 20
103.208952
 30
0.0
 11
157.106203
 21
103.648931
 31
0.0
  0
LINE
  5
177
  8
0
 62
     0
 10
158.710366
 20
105.253094
 30
0.0
 11
159.150345
 21
105.693072
 31
0.0
  0
LINE
  5
178
  8
0
 62
     0
 10
157.763296
 20
104.306023
 30
0.0
 11
158.053274
 21
104.596001
 31
0.0
  0
LINE
  5
179
  8
0
 62
     0
 10
156.348027
 20
103.208952
 30
0.0
 11
156.788005
 21
103.648931
 31
0.0
  0
LINE
  5
17A
  8
0
 62
     0
 10
158.392168
 20
105.253094
 30
0.0
 11
158.832147
 21
105.693072
 31
0.0
  0
LINE
  5
17B
  8
0
 62
     0
 10
157.445097
 20
104.306023
 30
0.0
 11
157.735076
 21
104.596001
 31
0.0
  0
LINE
  5
17C
  8
0
 62
     0
 10
156.029829
 20
103.208952
 30
0.0
 11
156.469807
 21
103.648931
 31
0.0
  0
LINE
  5
17D
  8
0
 62
     0
 10
158.07397
 20
105.253094
 30
0.0
 11
158.513948
 21
105.693072
 31
0.0
  0
LINE
  5
17E
  8
0
 62
     0
 10
157.126899
 20
104.306023
 30
0.0
 11
157.416878
 21
104.596001
 31
0.0
  0
LINE
  5
17F
  8
0
 62
     0
 10
155.711631
 20
103.208952
 30
0.0
 11
156.318694
 21
103.816016
 31
0.0
  0
LINE
  5
180
  8
0
 62
     0
 10
157.755772
 20
105.253094
 30
0.0
 11
158.19575
 21
105.693072
 31
0.0
  0
LINE
  5
181
  8
0
 62
     0
 10
156.808701
 20
104.306023
 30
0.0
 11
157.09868
 21
104.596001
 31
0.0
  0
LINE
  5
182
  8
0
 62
     0
 10
155.393433
 20
103.208952
 30
0.0
 11
156.409331
 21
104.22485
 31
0.0
  0
LINE
  5
183
  8
0
 62
     0
 10
157.437574
 20
105.253094
 30
0.0
 11
157.877552
 21
105.693072
 31
0.0
  0
LINE
  5
184
  8
0
 62
     0
 10
156.490503
 20
104.306023
 30
0.0
 11
156.780482
 21
104.596001
 31
0.0
  0
LINE
  5
185
  8
0
 62
     0
 10
155.075235
 20
103.208952
 30
0.0
 11
156.499967
 21
104.633685
 31
0.0
  0
LINE
  5
186
  8
0
 62
     0
 10
157.119376
 20
105.253094
 30
0.0
 11
157.559354
 21
105.693072
 31
0.0
  0
LINE
  5
187
  8
0
 62
     0
 10
154.757037
 20
103.208952
 30
0.0
 11
156.590603
 21
105.042519
 31
0.0
  0
LINE
  5
188
  8
0
 62
     0
 10
156.801178
 20
105.253094
 30
0.0
 11
157.241156
 21
105.693072
 31
0.0
  0
LINE
  5
189
  8
0
 62
     0
 10
154.486944
 20
103.257057
 30
0.0
 11
156.922958
 21
105.693072
 31
0.0
  0
LINE
  5
18A
  8
0
 62
     0
 10
154.57758
 20
103.665892
 30
0.0
 11
156.60476
 21
105.693072
 31
0.0
  0
LINE
  5
18B
  8
0
 62
     0
 10
154.668217
 20
104.074726
 30
0.0
 11
156.286562
 21
105.693072
 31
0.0
  0
LINE
  5
18C
  8
0
 62
     0
 10
153.484244
 20
103.208952
 30
0.0
 11
153.661705
 21
103.386413
 31
0.0
  0
LINE
  5
18D
  8
0
 62
     0
 10
154.758853
 20
104.483561
 30
0.0
 11
155.968364
 21
105.693072
 31
0.0
  0
LINE
  5
18E
  8
0
 62
     0
 10
153.166046
 20
103.208952
 30
0.0
 11
153.752341
 21
103.795247
 31
0.0
  0
LINE
  5
18F
  8
0
 62
     0
 10
154.849489
 20
104.892395
 30
0.0
 11
155.650166
 21
105.693072
 31
0.0
  0
LINE
  5
190
  8
0
 62
     0
 10
152.847848
 20
103.208952
 30
0.0
 11
153.842978
 21
104.204082
 31
0.0
  0
LINE
  5
191
  8
0
 62
     0
 10
154.940126
 20
105.30123
 30
0.0
 11
155.331968
 21
105.693072
 31
0.0
  0
LINE
  5
192
  8
0
 62
     0
 10
152.52965
 20
103.208952
 30
0.0
 11
153.933614
 21
104.612916
 31
0.0
  0
LINE
  5
193
  8
0
 62
     0
 10
152.211452
 20
103.208952
 30
0.0
 11
154.024251
 21
105.021751
 31
0.0
  0
LINE
  5
194
  8
0
 62
     0
 10
151.893254
 20
103.208952
 30
0.0
 11
154.114887
 21
105.430585
 31
0.0
  0
LINE
  5
195
  8
0
 62
     0
 10
151.625533
 20
103.259429
 30
0.0
 11
154.059176
 21
105.693072
 31
0.0
  0
LINE
  5
196
  8
0
 62
     0
 10
151.458022
 20
103.410117
 30
0.0
 11
153.740978
 21
105.693072
 31
0.0
  0
LINE
  5
197
  8
0
 62
     0
 10
151.290512
 20
103.560804
 30
0.0
 11
153.42278
 21
105.693072
 31
0.0
  0
LINE
  5
198
  8
0
 62
     0
 10
151.123002
 20
103.711492
 30
0.0
 11
152.103081
 21
104.691571
 31
0.0
  0
LINE
  5
199
  8
0
 62
     0
 10
152.283137
 20
104.871627
 30
0.0
 11
153.104582
 21
105.693072
 31
0.0
  0
LINE
  5
19A
  8
0
 62
     0
 10
150.955491
 20
103.86218
 30
0.0
 11
151.916307
 21
104.822995
 31
0.0
  0
LINE
  5
19B
  8
0
 62
     0
 10
152.373773
 20
105.280462
 30
0.0
 11
152.786384
 21
105.693072
 31
0.0
  0
LINE
  5
19C
  8
0
 62
     0
 10
150.787981
 20
104.012868
 30
0.0
 11
151.729532
 21
104.954419
 31
0.0
  0
LINE
  5
19D
  8
0
 62
     0
 10
152.46441
 20
105.689296
 30
0.0
 11
152.468186
 21
105.693072
 31
0.0
  0
LINE
  5
19E
  8
0
 62
     0
 10
149.665868
 20
103.208952
 30
0.0
 11
149.862046
 21
103.405131
 31
0.0
  0
LINE
  5
19F
  8
0
 62
     0
 10
150.620471
 20
104.163555
 30
0.0
 11
151.542758
 21
105.085842
 31
0.0
  0
LINE
  5
1A0
  8
0
 62
     0
 10
149.34767
 20
103.208952
 30
0.0
 11
149.952683
 21
103.813965
 31
0.0
  0
LINE
  5
1A1
  8
0
 62
     0
 10
150.45296
 20
104.314243
 30
0.0
 11
151.355983
 21
105.217266
 31
0.0
  0
LINE
  5
1A2
  8
0
 62
     0
 10
149.029472
 20
103.208952
 30
0.0
 11
150.043319
 21
104.2228
 31
0.0
  0
LINE
  5
1A3
  8
0
 62
     0
 10
150.28545
 20
104.464931
 30
0.0
 11
151.169209
 21
105.34869
 31
0.0
  0
LINE
  5
1A4
  8
0
 62
     0
 10
148.711274
 20
103.208952
 30
0.0
 11
150.982435
 21
105.480113
 31
0.0
  0
LINE
  5
1A5
  8
0
 62
     0
 10
148.393076
 20
103.208952
 30
0.0
 11
150.79566
 21
105.611537
 31
0.0
  0
LINE
  5
1A6
  8
0
 62
     0
 10
148.120932
 20
103.255007
 30
0.0
 11
150.558997
 21
105.693072
 31
0.0
  0
LINE
  5
1A7
  8
0
 62
     0
 10
148.211569
 20
103.663842
 30
0.0
 11
150.240799
 21
105.693072
 31
0.0
  0
LINE
  5
1A8
  8
0
 62
     0
 10
148.302205
 20
104.072676
 30
0.0
 11
149.922601
 21
105.693072
 31
0.0
  0
LINE
  5
1A9
  8
0
 62
     0
 10
148.392842
 20
104.481511
 30
0.0
 11
149.604403
 21
105.693072
 31
0.0
  0
LINE
  5
1AA
  8
0
 62
     0
 10
148.483478
 20
104.890345
 30
0.0
 11
149.286205
 21
105.693072
 31
0.0
  0
LINE
  5
1AB
  8
0
 62
     0
 10
148.574115
 20
105.29918
 30
0.0
 11
148.968007
 21
105.693072
 31
0.0
  0
LINE
  5
1AC
  8
0
 62
     0
 10
173.820613
 20
104.13524
 30
0.0
 11
174.110591
 21
104.425218
 31
0.0
  0
LINE
  5
1AD
  8
0
 62
     0
 10
174.86666
 20
105.181287
 30
0.0
 11
175.378445
 21
105.693072
 31
0.0
  0
LINE
  5
1AE
  8
0
 62
     0
 10
174.138811
 20
104.13524
 30
0.0
 11
174.429241
 21
104.42567
 31
0.0
  0
LINE
  5
1AF
  8
0
 62
     0
 10
174.946739
 20
104.943167
 30
0.0
 11
175.696643
 21
105.693072
 31
0.0
  0
LINE
  5
1B0
  8
0
 62
     0
 10
174.456256
 20
104.134486
 30
0.0
 11
176.014671
 21
105.692902
 31
0.0
  0
LINE
  5
1B1
  8
0
 62
     0
 10
174.630516
 20
103.990548
 30
0.0
 11
176.298943
 21
105.658976
 31
0.0
  0
LINE
  5
1B2
  8
0
 62
     0
 10
174.613
 20
103.654835
 30
0.0
 11
176.535113
 21
105.576948
 31
0.0
  0
LINE
  5
1B3
  8
0
 62
     0
 10
174.605261
 20
103.328897
 30
0.0
 11
176.725075
 21
105.448711
 31
0.0
  0
LINE
  5
1B4
  8
0
 62
     0
 10
174.803514
 20
103.208952
 30
0.0
 11
176.8509
 21
105.256338
 31
0.0
  0
LINE
  5
1B5
  8
0
 62
     0
 10
175.121712
 20
103.208952
 30
0.0
 11
176.221213
 21
104.308453
 31
0.0
  0
LINE
  5
1B6
  8
0
 62
     0
 10
176.266083
 20
104.353323
 30
0.0
 11
176.834229
 21
104.921469
 31
0.0
  0
LINE
  5
1B7
  8
0
 62
     0
 10
175.43991
 20
103.208952
 30
0.0
 11
176.345758
 21
104.1148
 31
0.0
  0
LINE
  5
1B8
  8
0
 62
     0
 10
177.629233
 20
105.398275
 30
0.0
 11
177.92403
 21
105.693072
 31
0.0
  0
LINE
  5
1B9
  8
0
 62
     0
 10
175.758108
 20
103.208952
 30
0.0
 11
176.329942
 21
103.780786
 31
0.0
  0
LINE
  5
1BA
  8
0
 62
     0
 10
177.538596
 20
104.98944
 30
0.0
 11
178.242228
 21
105.693072
 31
0.0
  0
LINE
  5
1BB
  8
0
 62
     0
 10
176.076306
 20
103.208952
 30
0.0
 11
176.307193
 21
103.439839
 31
0.0
  0
LINE
  5
1BC
  8
0
 62
     0
 10
177.44796
 20
104.580606
 30
0.0
 11
178.560426
 21
105.693072
 31
0.0
  0
LINE
  5
1BD
  8
0
 62
     0
 10
177.357323
 20
104.171772
 30
0.0
 11
178.878624
 21
105.693072
 31
0.0
  0
LINE
  5
1BE
  8
0
 62
     0
 10
177.266687
 20
103.762937
 30
0.0
 11
179.196822
 21
105.693072
 31
0.0
  0
LINE
  5
1BF
  8
0
 62
     0
 10
177.176051
 20
103.354103
 30
0.0
 11
179.370347
 21
105.548399
 31
0.0
  0
LINE
  5
1C0
  8
0
 62
     0
 10
177.349098
 20
103.208952
 30
0.0
 11
179.27971
 21
105.139564
 31
0.0
  0
LINE
  5
1C1
  8
0
 62
     0
 10
177.667296
 20
103.208952
 30
0.0
 11
179.189074
 21
104.73073
 31
0.0
  0
LINE
  5
1C2
  8
0
 62
     0
 10
177.985494
 20
103.208952
 30
0.0
 11
179.098437
 21
104.321895
 31
0.0
  0
LINE
  5
1C3
  8
0
 62
     0
 10
180.395067
 20
105.618525
 30
0.0
 11
180.469614
 21
105.693072
 31
0.0
  0
LINE
  5
1C4
  8
0
 62
     0
 10
178.303692
 20
103.208952
 30
0.0
 11
179.007801
 21
103.913061
 31
0.0
  0
LINE
  5
1C5
  8
0
 62
     0
 10
180.30443
 20
105.20969
 30
0.0
 11
180.787812
 21
105.693072
 31
0.0
  0
LINE
  5
1C6
  8
0
 62
     0
 10
178.62189
 20
103.208952
 30
0.0
 11
178.917164
 21
103.504226
 31
0.0
  0
LINE
  5
1C7
  8
0
 62
     0
 10
180.213794
 20
104.800856
 30
0.0
 11
181.10601
 21
105.693072
 31
0.0
  0
LINE
  5
1C8
  8
0
 62
     0
 10
180.123158
 20
104.392021
 30
0.0
 11
181.424208
 21
105.693072
 31
0.0
  0
LINE
  5
1C9
  8
0
 62
     0
 10
180.032521
 20
103.983187
 30
0.0
 11
181.742406
 21
105.693072
 31
0.0
  0
LINE
  5
1CA
  8
0
 62
     0
 10
179.941885
 20
103.574352
 30
0.0
 11
182.03644
 21
105.668908
 31
0.0
  0
LINE
  5
1CB
  8
0
 62
     0
 10
179.894683
 20
103.208952
 30
0.0
 11
181.945804
 21
105.260073
 31
0.0
  0
LINE
  5
1CC
  8
0
 62
     0
 10
180.212881
 20
103.208952
 30
0.0
 11
181.857718
 21
104.853789
 31
0.0
  0
LINE
  5
1CD
  8
0
 62
     0
 10
180.531079
 20
103.208952
 30
0.0
 11
182.412196
 21
105.09007
 31
0.0
  0
LINE
  5
1CE
  8
0
 62
     0
 10
180.849277
 20
103.208952
 30
0.0
 11
182.966675
 21
105.326351
 31
0.0
  0
LINE
  5
1CF
  8
0
 62
     0
 10
181.167475
 20
103.208952
 30
0.0
 11
181.583258
 21
103.624735
 31
0.0
  0
LINE
  5
1D0
  8
0
 62
     0
 10
181.907125
 20
103.948602
 30
0.0
 11
183.521154
 21
105.562631
 31
0.0
  0
LINE
  5
1D1
  8
0
 62
     0
 10
181.485673
 20
103.208952
 30
0.0
 11
181.492621
 21
103.215901
 31
0.0
  0
LINE
  5
1D2
  8
0
 62
     0
 10
182.38713
 20
104.110409
 30
0.0
 11
183.969793
 21
105.693072
 31
0.0
  0
LINE
  5
1D3
  8
0
 62
     0
 10
182.545159
 20
103.95024
 30
0.0
 11
184.287991
 21
105.693072
 31
0.0
  0
LINE
  5
1D4
  8
0
 62
     0
 10
182.703188
 20
103.790071
 30
0.0
 11
184.606189
 21
105.693072
 31
0.0
  0
LINE
  5
1D5
  8
0
 62
     0
 10
182.861217
 20
103.629902
 30
0.0
 11
184.033479
 21
104.802165
 31
0.0
  0
LINE
  5
1D6
  8
0
 62
     0
 10
184.12504
 20
104.893725
 30
0.0
 11
184.924387
 21
105.693072
 31
0.0
  0
LINE
  5
1D7
  8
0
 62
     0
 10
183.019246
 20
103.469733
 30
0.0
 11
184.191508
 21
104.641995
 31
0.0
  0
LINE
  5
1D8
  8
0
 62
     0
 10
184.679519
 20
105.130006
 30
0.0
 11
185.242585
 21
105.693072
 31
0.0
  0
LINE
  5
1D9
  8
0
 62
     0
 10
183.177275
 20
103.309564
 30
0.0
 11
184.349537
 21
104.481826
 31
0.0
  0
LINE
  5
1DA
  8
0
 62
     0
 10
185.233998
 20
105.366287
 30
0.0
 11
185.560783
 21
105.693072
 31
0.0
  0
LINE
  5
1DB
  8
0
 62
     0
 10
183.394861
 20
103.208952
 30
0.0
 11
184.507566
 21
104.321657
 31
0.0
  0
LINE
  5
1DC
  8
0
 62
     0
 10
185.788476
 20
105.602567
 30
0.0
 11
185.878981
 21
105.693072
 31
0.0
  0
LINE
  5
1DD
  8
0
 62
     0
 10
183.713059
 20
103.208952
 30
0.0
 11
184.665595
 21
104.161488
 31
0.0
  0
LINE
  5
1DE
  8
0
 62
     0
 10
184.031257
 20
103.208952
 30
0.0
 11
184.823624
 21
104.001319
 31
0.0
  0
LINE
  5
1DF
  8
0
 62
     0
 10
184.349455
 20
103.208952
 30
0.0
 11
184.981653
 21
103.84115
 31
0.0
  0
LINE
  5
1E0
  8
0
 62
     0
 10
184.667653
 20
103.208952
 30
0.0
 11
185.139682
 21
103.680981
 31
0.0
  0
LINE
  5
1E1
  8
0
 62
     0
 10
184.985851
 20
103.208952
 30
0.0
 11
185.297711
 21
103.520812
 31
0.0
  0
LINE
  5
1E2
  8
0
 62
     0
 10
185.30405
 20
103.208952
 30
0.0
 11
185.45574
 21
103.360643
 31
0.0
  0
LINE
  5
1E3
  8
0
 62
     0
 10
190.307701
 20
105.66702
 30
0.0
 11
190.334482
 21
105.693801
 31
0.0
  0
LINE
  5
1E4
  8
0
 62
     0
 10
189.353107
 20
104.394227
 30
0.0
 11
190.65268
 21
105.693801
 31
0.0
  0
LINE
  5
1E5
  8
0
 62
     0
 10
188.48603
 20
103.208952
 30
0.0
 11
190.970879
 21
105.693801
 31
0.0
  0
LINE
  5
1E6
  8
0
 62
     0
 10
188.804228
 20
103.208952
 30
0.0
 11
191.289077
 21
105.693801
 31
0.0
  0
LINE
  5
1E7
  8
0
 62
     0
 10
189.122426
 20
103.208952
 30
0.0
 11
191.607275
 21
105.693801
 31
0.0
  0
LINE
  5
1E8
  8
0
 62
     0
 10
189.440624
 20
103.208952
 30
0.0
 11
191.925473
 21
105.693801
 31
0.0
  0
LINE
  5
1E9
  8
0
 62
     0
 10
189.758822
 20
103.208952
 30
0.0
 11
191.284682
 21
104.734812
 31
0.0
  0
LINE
  5
1EA
  8
0
 62
     0
 10
191.828596
 20
105.278726
 30
0.0
 11
192.243671
 21
105.693801
 31
0.0
  0
LINE
  5
1EB
  8
0
 62
     0
 10
190.07702
 20
103.208952
 30
0.0
 11
190.330088
 21
103.46202
 31
0.0
  0
LINE
  5
1EC
  8
0
 62
     0
 10
191.892236
 20
105.024168
 30
0.0
 11
192.561869
 21
105.693801
 31
0.0
  0
LINE
  5
1ED
  8
0
 62
     0
 10
190.557052
 20
103.688984
 30
0.0
 11
190.93024
 21
104.062171
 31
0.0
  0
LINE
  5
1EE
  8
0
 62
     0
 10
190.87525
 20
103.688984
 30
0.0
 11
191.248438
 21
104.062171
 31
0.0
  0
LINE
  5
1EF
  8
0
 62
     0
 10
191.955876
 20
104.76961
 30
0.0
 11
192.880067
 21
105.693801
 31
0.0
  0
LINE
  5
1F0
  8
0
 62
     0
 10
191.193448
 20
103.688984
 30
0.0
 11
191.566636
 21
104.062171
 31
0.0
  0
LINE
  5
1F1
  8
0
 62
     0
 10
192.019515
 20
104.515051
 30
0.0
 11
193.198265
 21
105.693801
 31
0.0
  0
LINE
  5
1F2
  8
0
 62
     0
 10
191.511646
 20
103.688984
 30
0.0
 11
191.884834
 21
104.062171
 31
0.0
  0
LINE
  5
1F3
  8
0
 62
     0
 10
192.083155
 20
104.260493
 30
0.0
 11
193.329286
 21
105.506623
 31
0.0
  0
LINE
  5
1F4
  8
0
 62
     0
 10
191.829844
 20
103.688984
 30
0.0
 11
193.392925
 21
105.252065
 31
0.0
  0
LINE
  5
1F5
  8
0
 62
     0
 10
192.148042
 20
103.688984
 30
0.0
 11
193.456565
 21
104.997506
 31
0.0
  0
LINE
  5
1F6
  8
0
 62
     0
 10
192.274074
 20
103.496817
 30
0.0
 11
193.520204
 21
104.742948
 31
0.0
  0
LINE
  5
1F7
  8
0
 62
     0
 10
192.337713
 20
103.242259
 30
0.0
 11
193.583844
 21
104.48839
 31
0.0
  0
LINE
  5
1F8
  8
0
 62
     0
 10
192.622605
 20
103.208952
 30
0.0
 11
193.647484
 21
104.233831
 31
0.0
  0
LINE
  5
1F9
  8
0
 62
     0
 10
192.940803
 20
103.208952
 30
0.0
 11
193.711123
 21
103.979273
 31
0.0
  0
LINE
  5
1FA
  8
0
 62
     0
 10
194.864033
 20
105.132182
 30
0.0
 11
195.244054
 21
105.512203
 31
0.0
  0
LINE
  5
1FB
  8
0
 62
     0
 10
193.259001
 20
103.208952
 30
0.0
 11
193.774763
 21
103.724714
 31
0.0
  0
LINE
  5
1FC
  8
0
 62
     0
 10
194.795915
 20
104.745866
 30
0.0
 11
195.618586
 21
105.568537
 31
0.0
  0
LINE
  5
1FD
  8
0
 62
     0
 10
193.577199
 20
103.208952
 30
0.0
 11
193.838402
 21
103.470156
 31
0.0
  0
LINE
  5
1FE
  8
0
 62
     0
 10
194.727797
 20
104.35955
 30
0.0
 11
195.981303
 21
105.613056
 31
0.0
  0
LINE
  5
1FF
  8
0
 62
     0
 10
193.895397
 20
103.208952
 30
0.0
 11
193.902042
 21
103.215597
 31
0.0
  0
LINE
  5
200
  8
0
 62
     0
 10
194.659679
 20
103.973234
 30
0.0
 11
196.333358
 21
105.646913
 31
0.0
  0
LINE
  5
201
  8
0
 62
     0
 10
194.615277
 20
103.610634
 30
0.0
 11
196.67571
 21
105.671067
 31
0.0
  0
LINE
  5
202
  8
0
 62
     0
 10
194.737894
 20
103.415053
 30
0.0
 11
197.009165
 21
105.686324
 31
0.0
  0
LINE
  5
203
  8
0
 62
     0
 10
194.983951
 20
103.342913
 30
0.0
 11
196.340819
 21
104.69978
 31
0.0
  0
LINE
  5
204
  8
0
 62
     0
 10
196.88271
 20
105.241671
 30
0.0
 11
197.334409
 21
105.69337
 31
0.0
  0
LINE
  5
205
  8
0
 62
     0
 10
195.265203
 20
103.305966
 30
0.0
 11
196.272701
 21
104.313464
 31
0.0
  0
LINE
  5
206
  8
0
 62
     0
 10
197.219219
 20
105.259982
 30
0.0
 11
197.652032
 21
105.692795
 31
0.0
  0
LINE
  5
207
  8
0
 62
     0
 10
195.551822
 20
103.274387
 30
0.0
 11
196.225094
 21
103.947659
 31
0.0
  0
LINE
  5
208
  8
0
 62
     0
 10
197.526321
 20
105.248886
 30
0.0
 11
197.962545
 21
105.68511
 31
0.0
  0
LINE
  5
209
  8
0
 62
     0
 10
195.844088
 20
103.248455
 30
0.0
 11
196.343872
 21
103.748239
 31
0.0
  0
LINE
  5
20A
  8
0
 62
     0
 10
197.810421
 20
105.214788
 30
0.0
 11
198.266395
 21
105.670762
 31
0.0
  0
LINE
  5
20B
  8
0
 62
     0
 10
196.142312
 20
103.228481
 30
0.0
 11
196.588304
 21
103.674473
 31
0.0
  0
LINE
  5
20C
  8
0
 62
     0
 10
198.025995
 20
105.112164
 30
0.0
 11
198.563973
 21
105.650142
 31
0.0
  0
LINE
  5
20D
  8
0
 62
     0
 10
196.446847
 20
103.214818
 30
0.0
 11
196.883622
 21
103.651593
 31
0.0
  0
LINE
  5
20E
  8
0
 62
     0
 10
198.196022
 20
104.963993
 30
0.0
 11
198.855628
 21
105.623599
 31
0.0
  0
LINE
  5
20F
  8
0
 62
     0
 10
197.353782
 20
104.121752
 30
0.0
 11
197.533406
 21
104.301376
 31
0.0
  0
LINE
  5
210
  8
0
 62
     0
 10
196.75809
 20
103.207862
 30
0.0
 11
197.204833
 21
103.654605
 31
0.0
  0
LINE
  5
211
  8
0
 62
     0
 10
198.51422
 20
104.963993
 30
0.0
 11
199.141667
 21
105.59144
 31
0.0
  0
LINE
  5
212
  8
0
 62
     0
 10
197.628876
 20
104.078649
 30
0.0
 11
197.851604
 21
104.301376
 31
0.0
  0
LINE
  5
213
  8
0
 62
     0
 10
197.076493
 20
103.208068
 30
0.0
 11
197.560393
 21
103.691967
 31
0.0
  0
LINE
  5
214
  8
0
 62
     0
 10
198.832418
 20
104.963993
 30
0.0
 11
199.422367
 21
105.553941
 31
0.0
  0
LINE
  5
215
  8
0
 62
     0
 10
197.947074
 20
104.078649
 30
0.0
 11
198.169802
 21
104.301376
 31
0.0
  0
LINE
  5
216
  8
0
 62
     0
 10
197.402575
 20
103.215952
 30
0.0
 11
198.488
 21
104.301376
 31
0.0
  0
LINE
  5
217
  8
0
 62
     0
 10
199.150616
 20
104.963993
 30
0.0
 11
199.638742
 21
105.452118
 31
0.0
  0
LINE
  5
218
  8
0
 62
     0
 10
197.736936
 20
103.232115
 30
0.0
 11
198.806198
 21
104.301376
 31
0.0
  0
LINE
  5
219
  8
0
 62
     0
 10
199.468814
 20
104.963993
 30
0.0
 11
199.719549
 21
105.214728
 31
0.0
  0
LINE
  5
21A
  8
0
 62
     0
 10
198.031972
 20
103.208952
 30
0.0
 11
199.124396
 21
104.301376
 31
0.0
  0
LINE
  5
21B
  8
0
 62
     0
 10
198.35017
 20
103.208952
 30
0.0
 11
199.442594
 21
104.301376
 31
0.0
  0
LINE
  5
21C
  8
0
 62
     0
 10
198.668368
 20
103.208952
 30
0.0
 11
199.516647
 21
104.057232
 31
0.0
  0
LINE
  5
21D
  8
0
 62
     0
 10
198.986566
 20
103.208952
 30
0.0
 11
199.448529
 21
103.670916
 31
0.0
  0
LINE
  5
21E
  8
0
 62
     0
 10
199.304764
 20
103.208952
 30
0.0
 11
199.380411
 21
103.2846
 31
0.0
  0
LINE
  5
21F
  8
0
 62
     0
 10
174.896145
 20
103.208952
 30
0.0
 11
174.602537
 21
103.50256
 31
0.0
  0
LINE
  5
220
  8
0
 62
     0
 10
173.177644
 20
104.927453
 30
0.0
 11
172.412025
 21
105.693072
 31
0.0
  0
LINE
  5
221
  8
0
 62
     0
 10
173.969857
 20
104.13524
 30
0.0
 11
173.679879
 21
104.425218
 31
0.0
  0
LINE
  5
222
  8
0
 62
     0
 10
173.651659
 20
104.13524
 30
0.0
 11
173.361681
 21
104.425218
 31
0.0
  0
LINE
  5
223
  8
0
 62
     0
 10
173.119903
 20
104.666996
 30
0.0
 11
172.093827
 21
105.693072
 31
0.0
  0
LINE
  5
224
  8
0
 62
     0
 10
173.333461
 20
104.13524
 30
0.0
 11
171.775629
 21
105.693072
 31
0.0
  0
LINE
  5
225
  8
0
 62
     0
 10
173.015263
 20
104.13524
 30
0.0
 11
171.606498
 21
105.544005
 31
0.0
  0
LINE
  5
226
  8
0
 62
     0
 10
172.946677
 20
103.885628
 30
0.0
 11
171.548757
 21
105.283548
 31
0.0
  0
LINE
  5
227
  8
0
 62
     0
 10
172.888936
 20
103.625171
 30
0.0
 11
171.491015
 21
105.023092
 31
0.0
  0
LINE
  5
228
  8
0
 62
     0
 10
171.046222
 20
105.467885
 30
0.0
 11
170.821035
 21
105.693072
 31
0.0
  0
LINE
  5
229
  8
0
 62
     0
 10
172.831194
 20
103.364715
 30
0.0
 11
171.433273
 21
104.762636
 31
0.0
  0
LINE
  5
22A
  8
0
 62
     0
 10
170.98848
 20
105.207429
 30
0.0
 11
170.502837
 21
105.693072
 31
0.0
  0
LINE
  5
22B
  8
0
 62
     0
 10
172.668758
 20
103.208952
 30
0.0
 11
171.375531
 21
104.502179
 31
0.0
  0
LINE
  5
22C
  8
0
 62
     0
 10
170.805669
 20
105.072042
 30
0.0
 11
170.184639
 21
105.693072
 31
0.0
  0
LINE
  5
22D
  8
0
 62
     0
 10
172.35056
 20
103.208952
 30
0.0
 11
171.317789
 21
104.241723
 31
0.0
  0
LINE
  5
22E
  8
0
 62
     0
 10
170.487471
 20
105.072042
 30
0.0
 11
169.866441
 21
105.693072
 31
0.0
  0
LINE
  5
22F
  8
0
 62
     0
 10
172.032362
 20
103.208952
 30
0.0
 11
171.260048
 21
103.981267
 31
0.0
  0
LINE
  5
230
  8
0
 62
     0
 10
170.169273
 20
105.072042
 30
0.0
 11
169.548243
 21
105.693072
 31
0.0
  0
LINE
  5
231
  8
0
 62
     0
 10
171.714164
 20
103.208952
 30
0.0
 11
171.202306
 21
103.720811
 31
0.0
  0
LINE
  5
232
  8
0
 62
     0
 10
169.851075
 20
105.072042
 30
0.0
 11
169.230045
 21
105.693072
 31
0.0
  0
LINE
  5
233
  8
0
 62
     0
 10
171.395966
 20
103.208952
 30
0.0
 11
171.144564
 21
103.460354
 31
0.0
  0
LINE
  5
234
  8
0
 62
     0
 10
169.532876
 20
105.072042
 30
0.0
 11
168.911847
 21
105.693072
 31
0.0
  0
LINE
  5
235
  8
0
 62
     0
 10
169.307651
 20
104.97907
 30
0.0
 11
168.593648
 21
105.693072
 31
0.0
  0
LINE
  5
236
  8
0
 62
     0
 10
169.249909
 20
104.718614
 30
0.0
 11
168.27545
 21
105.693072
 31
0.0
  0
LINE
  5
237
  8
0
 62
     0
 10
169.192167
 20
104.458157
 30
0.0
 11
167.957252
 21
105.693072
 31
0.0
  0
LINE
  5
238
  8
0
 62
     0
 10
169.134425
 20
104.197701
 30
0.0
 11
167.639054
 21
105.693072
 31
0.0
  0
LINE
  5
239
  8
0
 62
     0
 10
169.076683
 20
103.937245
 30
0.0
 11
167.320856
 21
105.693072
 31
0.0
  0
LINE
  5
23A
  8
0
 62
     0
 10
169.018942
 20
103.676788
 30
0.0
 11
167.002658
 21
105.693072
 31
0.0
  0
LINE
  5
23B
  8
0
 62
     0
 10
168.9612
 20
103.416332
 30
0.0
 11
167.563279
 21
104.814253
 31
0.0
  0
LINE
  5
23C
  8
0
 62
     0
 10
167.30549
 20
105.072042
 30
0.0
 11
166.68446
 21
105.693072
 31
0.0
  0
LINE
  5
23D
  8
0
 62
     0
 10
168.850382
 20
103.208952
 30
0.0
 11
167.505537
 21
104.553797
 31
0.0
  0
LINE
  5
23E
  8
0
 62
     0
 10
166.987292
 20
105.072042
 30
0.0
 11
166.366262
 21
105.693072
 31
0.0
  0
LINE
  5
23F
  8
0
 62
     0
 10
168.532184
 20
103.208952
 30
0.0
 11
167.447796
 21
104.29334
 31
0.0
  0
LINE
  5
240
  8
0
 62
     0
 10
166.669094
 20
105.072042
 30
0.0
 11
166.176959
 21
105.564177
 31
0.0
  0
LINE
  5
241
  8
0
 62
     0
 10
168.213986
 20
103.208952
 30
0.0
 11
167.390054
 21
104.032884
 31
0.0
  0
LINE
  5
242
  8
0
 62
     0
 10
165.749267
 20
105.673671
 30
0.0
 11
165.729866
 21
105.693072
 31
0.0
  0
LINE
  5
243
  8
0
 62
     0
 10
166.350896
 20
105.072042
 30
0.0
 11
166.119217
 21
105.303721
 31
0.0
  0
LINE
  5
244
  8
0
 62
     0
 10
167.895788
 20
103.208952
 30
0.0
 11
167.332312
 21
103.772428
 31
0.0
  0
LINE
  5
245
  8
0
 62
     0
 10
165.691525
 20
105.413214
 30
0.0
 11
165.411668
 21
105.693072
 31
0.0
  0
LINE
  5
246
  8
0
 62
     0
 10
167.57759
 20
103.208952
 30
0.0
 11
167.27457
 21
103.511971
 31
0.0
  0
LINE
  5
247
  8
0
 62
     0
 10
165.633784
 20
105.152758
 30
0.0
 11
165.09347
 21
105.693072
 31
0.0
  0
LINE
  5
248
  8
0
 62
     0
 10
167.259392
 20
103.208952
 30
0.0
 11
167.216829
 21
103.251515
 31
0.0
  0
LINE
  5
249
  8
0
 62
     0
 10
165.576042
 20
104.892302
 30
0.0
 11
164.775272
 21
105.693072
 31
0.0
  0
LINE
  5
24A
  8
0
 62
     0
 10
165.5183
 20
104.631846
 30
0.0
 11
164.457074
 21
105.693072
 31
0.0
  0
LINE
  5
24B
  8
0
 62
     0
 10
165.460558
 20
104.371389
 30
0.0
 11
164.138876
 21
105.693072
 31
0.0
  0
LINE
  5
24C
  8
0
 62
     0
 10
165.402817
 20
104.110933
 30
0.0
 11
164.008428
 21
105.505322
 31
0.0
  0
LINE
  5
24D
  8
0
 62
     0
 10
165.345075
 20
103.850477
 30
0.0
 11
163.950686
 21
105.244865
 31
0.0
  0
LINE
  5
24E
  8
0
 62
     0
 10
165.213808
 20
103.663545
 30
0.0
 11
163.892945
 21
104.984409
 31
0.0
  0
LINE
  5
24F
  8
0
 62
     0
 10
165.017448
 20
103.541707
 30
0.0
 11
163.835203
 21
104.723953
 31
0.0
  0
LINE
  5
250
  8
0
 62
     0
 10
164.802652
 20
103.438305
 30
0.0
 11
163.777461
 21
104.463496
 31
0.0
  0
LINE
  5
251
  8
0
 62
     0
 10
164.567173
 20
103.355586
 30
0.0
 11
163.719719
 21
104.20304
 31
0.0
  0
LINE
  5
252
  8
0
 62
     0
 10
164.315183
 20
103.289379
 30
0.0
 11
163.618712
 21
103.98585
 31
0.0
  0
LINE
  5
253
  8
0
 62
     0
 10
162.118619
 20
105.485943
 30
0.0
 11
161.911489
 21
105.693072
 31
0.0
  0
LINE
  5
254
  8
0
 62
     0
 10
164.051144
 20
103.235219
 30
0.0
 11
163.422176
 21
103.864188
 31
0.0
  0
LINE
  5
255
  8
0
 62
     0
 10
162.060877
 20
105.225486
 30
0.0
 11
161.593291
 21
105.693072
 31
0.0
  0
LINE
  5
256
  8
0
 62
     0
 10
163.77367
 20
103.194495
 30
0.0
 11
163.177404
 21
103.790761
 31
0.0
  0
LINE
  5
257
  8
0
 62
     0
 10
162.003135
 20
104.96503
 30
0.0
 11
161.275093
 21
105.693072
 31
0.0
  0
LINE
  5
258
  8
0
 62
     0
 10
163.485182
 20
103.164785
 30
0.0
 11
162.893835
 21
103.756132
 31
0.0
  0
LINE
  5
259
  8
0
 62
     0
 10
161.945393
 20
104.704574
 30
0.0
 11
160.956895
 21
105.693072
 31
0.0
  0
LINE
  5
25A
  8
0
 62
     0
 10
163.187779
 20
103.14399
 30
0.0
 11
162.571275
 21
103.760495
 31
0.0
  0
LINE
  5
25B
  8
0
 62
     0
 10
161.887652
 20
104.444117
 30
0.0
 11
160.638697
 21
105.693072
 31
0.0
  0
LINE
  5
25C
  8
0
 62
     0
 10
162.88065
 20
103.132921
 30
0.0
 11
162.17665
 21
103.836921
 31
0.0
  0
LINE
  5
25D
  8
0
 62
     0
 10
161.82991
 20
104.183661
 30
0.0
 11
160.43551
 21
105.578061
 31
0.0
  0
LINE
  5
25E
  8
0
 62
     0
 10
162.562817
 20
103.132556
 30
0.0
 11
160.377768
 21
105.317605
 31
0.0
  0
LINE
  5
25F
  8
0
 62
     0
 10
162.233074
 20
103.144101
 30
0.0
 11
160.320026
 21
105.057149
 31
0.0
  0
LINE
  5
260
  8
0
 62
     0
 10
159.684608
 20
105.692567
 30
0.0
 11
159.684103
 21
105.693072
 31
0.0
  0
LINE
  5
261
  8
0
 62
     0
 10
161.889919
 20
103.169058
 30
0.0
 11
160.262284
 21
104.796692
 31
0.0
  0
LINE
  5
262
  8
0
 62
     0
 10
159.626866
 20
105.432111
 30
0.0
 11
159.365905
 21
105.693072
 31
0.0
  0
LINE
  5
263
  8
0
 62
     0
 10
161.530904
 20
103.209875
 30
0.0
 11
160.204543
 21
104.536236
 31
0.0
  0
LINE
  5
264
  8
0
 62
     0
 10
159.487685
 20
105.253094
 30
0.0
 11
159.047707
 21
105.693072
 31
0.0
  0
LINE
  5
265
  8
0
 62
     0
 10
161.140832
 20
103.281749
 30
0.0
 11
160.146801
 21
104.27578
 31
0.0
  0
LINE
  5
266
  8
0
 62
     0
 10
159.169487
 20
105.253094
 30
0.0
 11
158.729509
 21
105.693072
 31
0.0
  0
LINE
  5
267
  8
0
 62
     0
 10
160.695959
 20
103.408424
 30
0.0
 11
160.089059
 21
104.015324
 31
0.0
  0
LINE
  5
268
  8
0
 62
     0
 10
158.851289
 20
105.253094
 30
0.0
 11
158.411311
 21
105.693072
 31
0.0
  0
LINE
  5
269
  8
0
 62
     0
 10
159.205273
 20
104.580911
 30
0.0
 11
159.190183
 21
104.596001
 31
0.0
  0
LINE
  5
26A
  8
0
 62
     0
 10
158.533091
 20
105.253094
 30
0.0
 11
158.093113
 21
105.693072
 31
0.0
  0
LINE
  5
26B
  8
0
 62
     0
 10
159.147532
 20
104.320455
 30
0.0
 11
158.871985
 21
104.596001
 31
0.0
  0
LINE
  5
26C
  8
0
 62
     0
 10
158.214893
 20
105.253094
 30
0.0
 11
157.774915
 21
105.693072
 31
0.0
  0
LINE
  5
26D
  8
0
 62
     0
 10
158.843766
 20
104.306023
 30
0.0
 11
158.553787
 21
104.596001
 31
0.0
  0
LINE
  5
26E
  8
0
 62
     0
 10
157.896695
 20
105.253094
 30
0.0
 11
157.456717
 21
105.693072
 31
0.0
  0
LINE
  5
26F
  8
0
 62
     0
 10
159.222674
 20
103.608917
 30
0.0
 11
159.18266
 21
103.648931
 31
0.0
  0
LINE
  5
270
  8
0
 62
     0
 10
157.578497
 20
105.253094
 30
0.0
 11
157.138519
 21
105.693072
 31
0.0
  0
LINE
  5
271
  8
0
 62
     0
 10
158.525568
 20
104.306023
 30
0.0
 11
158.235589
 21
104.596001
 31
0.0
  0
LINE
  5
272
  8
0
 62
     0
 10
159.164932
 20
103.348461
 30
0.0
 11
158.864462
 21
103.648931
 31
0.0
  0
LINE
  5
273
  8
0
 62
     0
 10
157.260299
 20
105.253094
 30
0.0
 11
156.820321
 21
105.693072
 31
0.0
  0
LINE
  5
274
  8
0
 62
     0
 10
158.20737
 20
104.306023
 30
0.0
 11
157.917391
 21
104.596001
 31
0.0
  0
LINE
  5
275
  8
0
 62
     0
 10
158.986242
 20
103.208952
 30
0.0
 11
158.546264
 21
103.648931
 31
0.0
  0
LINE
  5
276
  8
0
 62
     0
 10
156.942101
 20
105.253094
 30
0.0
 11
156.502123
 21
105.693072
 31
0.0
  0
LINE
  5
277
  8
0
 62
     0
 10
157.889172
 20
104.306023
 30
0.0
 11
157.599193
 21
104.596001
 31
0.0
  0
LINE
  5
278
  8
0
 62
     0
 10
158.668044
 20
103.208952
 30
0.0
 11
158.228066
 21
103.648931
 31
0.0
  0
LINE
  5
279
  8
0
 62
     0
 10
156.634858
 20
105.242138
 30
0.0
 11
156.183924
 21
105.693072
 31
0.0
  0
LINE
  5
27A
  8
0
 62
     0
 10
157.570974
 20
104.306023
 30
0.0
 11
157.280995
 21
104.596001
 31
0.0
  0
LINE
  5
27B
  8
0
 62
     0
 10
158.349846
 20
103.208952
 30
0.0
 11
157.909868
 21
103.648931
 31
0.0
  0
LINE
  5
27C
  8
0
 62
     0
 10
156.577116
 20
104.981682
 30
0.0
 11
155.865726
 21
105.693072
 31
0.0
  0
LINE
  5
27D
  8
0
 62
     0
 10
157.252775
 20
104.306023
 30
0.0
 11
156.962797
 21
104.596001
 31
0.0
  0
LINE
  5
27E
  8
0
 62
     0
 10
158.031648
 20
103.208952
 30
0.0
 11
157.59167
 21
103.648931
 31
0.0
  0
LINE
  5
27F
  8
0
 62
     0
 10
156.519374
 20
104.721226
 30
0.0
 11
155.547528
 21
105.693072
 31
0.0
  0
LINE
  5
280
  8
0
 62
     0
 10
156.934577
 20
104.306023
 30
0.0
 11
156.644599
 21
104.596001
 31
0.0
  0
LINE
  5
281
  8
0
 62
     0
 10
157.71345
 20
103.208952
 30
0.0
 11
157.273472
 21
103.648931
 31
0.0
  0
LINE
  5
282
  8
0
 62
     0
 10
156.616379
 20
104.306023
 30
0.0
 11
155.22933
 21
105.693072
 31
0.0
  0
LINE
  5
283
  8
0
 62
     0
 10
157.395252
 20
103.208952
 30
0.0
 11
156.955274
 21
103.648931
 31
0.0
  0
LINE
  5
284
  8
0
 62
     0
 10
156.403891
 20
104.200313
 30
0.0
 11
155.00597
 21
105.598234
 31
0.0
  0
LINE
  5
285
  8
0
 62
     0
 10
157.077054
 20
103.208952
 30
0.0
 11
156.637075
 21
103.648931
 31
0.0
  0
LINE
  5
286
  8
0
 62
     0
 10
156.346149
 20
103.939857
 30
0.0
 11
154.948228
 21
105.337778
 31
0.0
  0
LINE
  5
287
  8
0
 62
     0
 10
156.758856
 20
103.208952
 30
0.0
 11
156.318877
 21
103.648931
 31
0.0
  0
LINE
  5
288
  8
0
 62
     0
 10
156.288407
 20
103.679401
 30
0.0
 11
154.890487
 21
105.077322
 31
0.0
  0
LINE
  5
289
  8
0
 62
     0
 10
156.440658
 20
103.208952
 30
0.0
 11
154.832745
 21
104.816865
 31
0.0
  0
LINE
  5
28A
  8
0
 62
     0
 10
154.133784
 20
105.515826
 30
0.0
 11
153.956538
 21
105.693072
 31
0.0
  0
LINE
  5
28B
  8
0
 62
     0
 10
156.12246
 20
103.208952
 30
0.0
 11
154.775003
 21
104.556409
 31
0.0
  0
LINE
  5
28C
  8
0
 62
     0
 10
154.076043
 20
105.255369
 30
0.0
 11
153.63834
 21
105.693072
 31
0.0
  0
LINE
  5
28D
  8
0
 62
     0
 10
155.804262
 20
103.208952
 30
0.0
 11
154.717261
 21
104.295953
 31
0.0
  0
LINE
  5
28E
  8
0
 62
     0
 10
154.018301
 20
104.994913
 30
0.0
 11
153.320142
 21
105.693072
 31
0.0
  0
LINE
  5
28F
  8
0
 62
     0
 10
155.486064
 20
103.208952
 30
0.0
 11
154.65952
 21
104.035496
 31
0.0
  0
LINE
  5
290
  8
0
 62
     0
 10
153.960559
 20
104.734457
 30
0.0
 11
153.001944
 21
105.693072
 31
0.0
  0
LINE
  5
291
  8
0
 62
     0
 10
155.167866
 20
103.208952
 30
0.0
 11
154.601778
 21
103.77504
 31
0.0
  0
LINE
  5
292
  8
0
 62
     0
 10
153.902817
 20
104.474
 30
0.0
 11
152.683746
 21
105.693072
 31
0.0
  0
LINE
  5
293
  8
0
 62
     0
 10
154.849668
 20
103.208952
 30
0.0
 11
154.544036
 21
103.514584
 31
0.0
  0
LINE
  5
294
  8
0
 62
     0
 10
153.845076
 20
104.213544
 30
0.0
 11
152.447155
 21
105.611465
 31
0.0
  0
LINE
  5
295
  8
0
 62
     0
 10
154.53147
 20
103.208952
 30
0.0
 11
154.486294
 21
103.254128
 31
0.0
  0
LINE
  5
296
  8
0
 62
     0
 10
153.787334
 20
103.953088
 30
0.0
 11
152.389413
 21
105.351009
 31
0.0
  0
LINE
  5
297
  8
0
 62
     0
 10
153.729592
 20
103.692632
 30
0.0
 11
152.331671
 21
105.090552
 31
0.0
  0
LINE
  5
298
  8
0
 62
     0
 10
153.67185
 20
103.432175
 30
0.0
 11
152.27393
 21
104.830096
 31
0.0
  0
LINE
  5
299
  8
0
 62
     0
 10
153.576875
 20
103.208952
 30
0.0
 11
152.073304
 21
104.712524
 31
0.0
  0
LINE
  5
29A
  8
0
 62
     0
 10
153.258677
 20
103.208952
 30
0.0
 11
150.999582
 21
105.468047
 31
0.0
  0
LINE
  5
29B
  8
0
 62
     0
 10
152.940479
 20
103.208952
 30
0.0
 11
150.45636
 21
105.693072
 31
0.0
  0
LINE
  5
29C
  8
0
 62
     0
 10
152.622281
 20
103.208952
 30
0.0
 11
150.138161
 21
105.693072
 31
0.0
  0
LINE
  5
29D
  8
0
 62
     0
 10
152.304083
 20
103.208952
 30
0.0
 11
149.819963
 21
105.693072
 31
0.0
  0
LINE
  5
29E
  8
0
 62
     0
 10
151.985885
 20
103.208952
 30
0.0
 11
149.501765
 21
105.693072
 31
0.0
  0
LINE
  5
29F
  8
0
 62
     0
 10
151.542665
 20
103.333975
 30
0.0
 11
149.183567
 21
105.693072
 31
0.0
  0
LINE
  5
2A0
  8
0
 62
     0
 10
150.096365
 20
104.462076
 30
0.0
 11
148.865369
 21
105.693072
 31
0.0
  0
LINE
  5
2A1
  8
0
 62
     0
 10
150.038624
 20
104.20162
 30
0.0
 11
148.640703
 21
105.59954
 31
0.0
  0
LINE
  5
2A2
  8
0
 62
     0
 10
149.980882
 20
103.941163
 30
0.0
 11
148.582961
 21
105.339084
 31
0.0
  0
LINE
  5
2A3
  8
0
 62
     0
 10
149.92314
 20
103.680707
 30
0.0
 11
148.525219
 21
105.078628
 31
0.0
  0
LINE
  5
2A4
  8
0
 62
     0
 10
149.865398
 20
103.420251
 30
0.0
 11
148.467478
 21
104.818171
 31
0.0
  0
LINE
  5
2A5
  8
0
 62
     0
 10
149.758499
 20
103.208952
 30
0.0
 11
148.409736
 21
104.557715
 31
0.0
  0
LINE
  5
2A6
  8
0
 62
     0
 10
149.440301
 20
103.208952
 30
0.0
 11
148.351994
 21
104.297259
 31
0.0
  0
LINE
  5
2A7
  8
0
 62
     0
 10
149.122103
 20
103.208952
 30
0.0
 11
148.294252
 21
104.036803
 31
0.0
  0
LINE
  5
2A8
  8
0
 62
     0
 10
148.803905
 20
103.208952
 30
0.0
 11
148.236511
 21
103.776346
 31
0.0
  0
LINE
  5
2A9
  8
0
 62
     0
 10
148.485707
 20
103.208952
 30
0.0
 11
148.178769
 21
103.51589
 31
0.0
  0
LINE
  5
2AA
  8
0
 62
     0
 10
148.167508
 20
103.208952
 30
0.0
 11
148.121027
 21
103.255434
 31
0.0
  0
LINE
  5
2AB
  8
0
 62
     0
 10
175.214343
 20
103.208952
 30
0.0
 11
174.622995
 21
103.8003
 31
0.0
  0
LINE
  5
2AC
  8
0
 62
     0
 10
173.235386
 20
105.187909
 30
0.0
 11
172.730223
 21
105.693072
 31
0.0
  0
LINE
  5
2AD
  8
0
 62
     0
 10
174.288055
 20
104.13524
 30
0.0
 11
173.998077
 21
104.425218
 31
0.0
  0
LINE
  5
2AE
  8
0
 62
     0
 10
175.532541
 20
103.208952
 30
0.0
 11
174.316275
 21
104.425218
 31
0.0
  0
LINE
  5
2AF
  8
0
 62
     0
 10
173.4884
 20
105.253094
 30
0.0
 11
173.048421
 21
105.693072
 31
0.0
  0
LINE
  5
2B0
  8
0
 62
     0
 10
175.850739
 20
103.208952
 30
0.0
 11
174.586541
 21
104.47315
 31
0.0
  0
LINE
  5
2B1
  8
0
 62
     0
 10
173.806598
 20
105.253094
 30
0.0
 11
173.366619
 21
105.693072
 31
0.0
  0
LINE
  5
2B2
  8
0
 62
     0
 10
176.168937
 20
103.208952
 30
0.0
 11
174.789565
 21
104.588325
 31
0.0
  0
LINE
  5
2B3
  8
0
 62
     0
 10
174.124796
 20
105.253094
 30
0.0
 11
173.684817
 21
105.693072
 31
0.0
  0
LINE
  5
2B4
  8
0
 62
     0
 10
176.311422
 20
103.384665
 30
0.0
 11
174.927684
 21
104.768404
 31
0.0
  0
LINE
  5
2B5
  8
0
 62
     0
 10
174.442994
 20
105.253094
 30
0.0
 11
174.003015
 21
105.693072
 31
0.0
  0
LINE
  5
2B6
  8
0
 62
     0
 10
176.323639
 20
103.690647
 30
0.0
 11
174.914671
 21
105.099614
 31
0.0
  0
LINE
  5
2B7
  8
0
 62
     0
 10
174.791615
 20
105.22267
 30
0.0
 11
174.321213
 21
105.693072
 31
0.0
  0
LINE
  5
2B8
  8
0
 62
     0
 10
176.344435
 20
103.988048
 30
0.0
 11
174.639411
 21
105.693072
 31
0.0
  0
LINE
  5
2B9
  8
0
 62
     0
 10
177.441729
 20
103.208952
 30
0.0
 11
177.197922
 21
103.452759
 31
0.0
  0
LINE
  5
2BA
  8
0
 62
     0
 10
176.286615
 20
104.364066
 30
0.0
 11
174.95761
 21
105.693072
 31
0.0
  0
LINE
  5
2BB
  8
0
 62
     0
 10
177.759927
 20
103.208952
 30
0.0
 11
177.255664
 21
103.713216
 31
0.0
  0
LINE
  5
2BC
  8
0
 62
     0
 10
176.4817
 20
104.487179
 30
0.0
 11
175.275808
 21
105.693072
 31
0.0
  0
LINE
  5
2BD
  8
0
 62
     0
 10
178.078125
 20
103.208952
 30
0.0
 11
177.313406
 21
103.973672
 31
0.0
  0
LINE
  5
2BE
  8
0
 62
     0
 10
176.650286
 20
104.636791
 30
0.0
 11
175.594006
 21
105.693072
 31
0.0
  0
LINE
  5
2BF
  8
0
 62
     0
 10
178.396323
 20
103.208952
 30
0.0
 11
177.371148
 21
104.234128
 31
0.0
  0
LINE
  5
2C0
  8
0
 62
     0
 10
176.785346
 20
104.81993
 30
0.0
 11
175.912204
 21
105.693072
 31
0.0
  0
LINE
  5
2C1
  8
0
 62
     0
 10
178.714521
 20
103.208952
 30
0.0
 11
177.428889
 21
104.494584
 31
0.0
  0
LINE
  5
2C2
  8
0
 62
     0
 10
176.870902
 20
105.052571
 30
0.0
 11
176.255428
 21
105.668046
 31
0.0
  0
LINE
  5
2C3
  8
0
 62
     0
 10
178.884552
 20
103.35712
 30
0.0
 11
177.486631
 21
104.755041
 31
0.0
  0
LINE
  5
2C4
  8
0
 62
     0
 10
178.942294
 20
103.617576
 30
0.0
 11
177.544373
 21
105.015497
 31
0.0
  0
LINE
  5
2C5
  8
0
 62
     0
 10
179.000035
 20
103.878033
 30
0.0
 11
177.602115
 21
105.275953
 31
0.0
  0
LINE
  5
2C6
  8
0
 62
     0
 10
179.987314
 20
103.208952
 30
0.0
 11
179.883821
 21
103.312445
 31
0.0
  0
LINE
  5
2C7
  8
0
 62
     0
 10
179.057777
 20
104.138489
 30
0.0
 11
177.659856
 21
105.53641
 31
0.0
  0
LINE
  5
2C8
  8
0
 62
     0
 10
180.305512
 20
103.208952
 30
0.0
 11
179.941563
 21
103.572901
 31
0.0
  0
LINE
  5
2C9
  8
0
 62
     0
 10
179.115519
 20
104.398945
 30
0.0
 11
177.821392
 21
105.693072
 31
0.0
  0
LINE
  5
2CA
  8
0
 62
     0
 10
180.62371
 20
103.208952
 30
0.0
 11
179.999305
 21
103.833357
 31
0.0
  0
LINE
  5
2CB
  8
0
 62
     0
 10
179.173261
 20
104.659401
 30
0.0
 11
178.13959
 21
105.693072
 31
0.0
  0
LINE
  5
2CC
  8
0
 62
     0
 10
180.941908
 20
103.208952
 30
0.0
 11
180.057046
 21
104.093814
 31
0.0
  0
LINE
  5
2CD
  8
0
 62
     0
 10
179.231002
 20
104.919858
 30
0.0
 11
178.457788
 21
105.693072
 31
0.0
  0
LINE
  5
2CE
  8
0
 62
     0
 10
181.260106
 20
103.208952
 30
0.0
 11
180.114788
 21
104.35427
 31
0.0
  0
LINE
  5
2CF
  8
0
 62
     0
 10
179.288744
 20
105.180314
 30
0.0
 11
178.775986
 21
105.693072
 31
0.0
  0
LINE
  5
2D0
  8
0
 62
     0
 10
181.506909
 20
103.280347
 30
0.0
 11
180.17253
 21
104.614726
 31
0.0
  0
LINE
  5
2D1
  8
0
 62
     0
 10
179.346486
 20
105.44077
 30
0.0
 11
179.094184
 21
105.693072
 31
0.0
  0
LINE
  5
2D2
  8
0
 62
     0
 10
181.564651
 20
103.540804
 30
0.0
 11
180.230272
 21
104.875182
 31
0.0
  0
LINE
  5
2D3
  8
0
 62
     0
 10
181.622392
 20
103.80126
 30
0.0
 11
180.288014
 21
105.135639
 31
0.0
  0
LINE
  5
2D4
  8
0
 62
     0
 10
181.827275
 20
103.914576
 30
0.0
 11
180.345755
 21
105.396095
 31
0.0
  0
LINE
  5
2D5
  8
0
 62
     0
 10
182.050395
 20
104.009654
 30
0.0
 11
180.403497
 21
105.656551
 31
0.0
  0
LINE
  5
2D6
  8
0
 62
     0
 10
182.273514
 20
104.104732
 30
0.0
 11
180.685174
 21
105.693072
 31
0.0
  0
LINE
  5
2D7
  8
0
 62
     0
 10
183.487492
 20
103.208952
 30
0.0
 11
181.003372
 21
105.693072
 31
0.0
  0
LINE
  5
2D8
  8
0
 62
     0
 10
183.80569
 20
103.208952
 30
0.0
 11
182.070276
 21
104.944367
 31
0.0
  0
LINE
  5
2D9
  8
0
 62
     0
 10
181.911101
 20
105.103541
 30
0.0
 11
181.321571
 21
105.693072
 31
0.0
  0
LINE
  5
2DA
  8
0
 62
     0
 10
184.123888
 20
103.208952
 30
0.0
 11
182.293395
 21
105.039445
 31
0.0
  0
LINE
  5
2DB
  8
0
 62
     0
 10
181.968843
 20
105.363998
 30
0.0
 11
181.639769
 21
105.693072
 31
0.0
  0
LINE
  5
2DC
  8
0
 62
     0
 10
184.442086
 20
103.208952
 30
0.0
 11
182.516515
 21
105.134523
 31
0.0
  0
LINE
  5
2DD
  8
0
 62
     0
 10
182.026585
 20
105.624454
 30
0.0
 11
181.957967
 21
105.693072
 31
0.0
  0
LINE
  5
2DE
  8
0
 62
     0
 10
184.760284
 20
103.208952
 30
0.0
 11
182.739635
 21
105.229602
 31
0.0
  0
LINE
  5
2DF
  8
0
 62
     0
 10
185.078482
 20
103.208952
 30
0.0
 11
182.962755
 21
105.32468
 31
0.0
  0
LINE
  5
2E0
  8
0
 62
     0
 10
185.396681
 20
103.208952
 30
0.0
 11
183.185874
 21
105.419758
 31
0.0
  0
LINE
  5
2E1
  8
0
 62
     0
 10
184.058472
 20
104.865359
 30
0.0
 11
183.408994
 21
105.514837
 31
0.0
  0
LINE
  5
2E2
  8
0
 62
     0
 10
184.281592
 20
104.960437
 30
0.0
 11
183.632114
 21
105.609915
 31
0.0
  0
LINE
  5
2E3
  8
0
 62
     0
 10
184.504712
 20
105.055515
 30
0.0
 11
183.867155
 21
105.693072
 31
0.0
  0
LINE
  5
2E4
  8
0
 62
     0
 10
184.727831
 20
105.150593
 30
0.0
 11
184.185353
 21
105.693072
 31
0.0
  0
LINE
  5
2E5
  8
0
 62
     0
 10
184.950951
 20
105.245672
 30
0.0
 11
184.503551
 21
105.693072
 31
0.0
  0
LINE
  5
2E6
  8
0
 62
     0
 10
185.174071
 20
105.34075
 30
0.0
 11
184.821749
 21
105.693072
 31
0.0
  0
LINE
  5
2E7
  8
0
 62
     0
 10
185.397191
 20
105.435828
 30
0.0
 11
185.139947
 21
105.693072
 31
0.0
  0
LINE
  5
2E8
  8
0
 62
     0
 10
185.62031
 20
105.530907
 30
0.0
 11
185.458145
 21
105.693072
 31
0.0
  0
LINE
  5
2E9
  8
0
 62
     0
 10
185.84343
 20
105.625985
 30
0.0
 11
185.776343
 21
105.693072
 31
0.0
  0
LINE
  5
2EA
  8
0
 62
     0
 10
188.578661
 20
103.208952
 30
0.0
 11
188.513227
 21
103.274387
 31
0.0
  0
LINE
  5
2EB
  8
0
 62
     0
 10
188.896859
 20
103.208952
 30
0.0
 11
188.649597
 21
103.456214
 31
0.0
  0
LINE
  5
2EC
  8
0
 62
     0
 10
189.215057
 20
103.208952
 30
0.0
 11
188.785968
 21
103.638042
 31
0.0
  0
LINE
  5
2ED
  8
0
 62
     0
 10
189.533255
 20
103.208952
 30
0.0
 11
188.922338
 21
103.819869
 31
0.0
  0
LINE
  5
2EE
  8
0
 62
     0
 10
189.851453
 20
103.208952
 30
0.0
 11
189.058709
 21
104.001696
 31
0.0
  0
LINE
  5
2EF
  8
0
 62
     0
 10
190.152872
 20
103.225732
 30
0.0
 11
189.19508
 21
104.183524
 31
0.0
  0
LINE
  5
2F0
  8
0
 62
     0
 10
190.289242
 20
103.407559
 30
0.0
 11
189.33145
 21
104.365351
 31
0.0
  0
LINE
  5
2F1
  8
0
 62
     0
 10
190.425613
 20
103.589387
 30
0.0
 11
189.467821
 21
104.547179
 31
0.0
  0
LINE
  5
2F2
  8
0
 62
     0
 10
190.644214
 20
103.688984
 30
0.0
 11
189.604191
 21
104.729006
 31
0.0
  0
LINE
  5
2F3
  8
0
 62
     0
 10
190.962412
 20
103.688984
 30
0.0
 11
189.740562
 21
104.910834
 31
0.0
  0
LINE
  5
2F4
  8
0
 62
     0
 10
191.28061
 20
103.688984
 30
0.0
 11
190.907422
 21
104.062171
 31
0.0
  0
LINE
  5
2F5
  8
0
 62
     0
 10
190.834725
 20
104.134869
 30
0.0
 11
189.876933
 21
105.092661
 31
0.0
  0
LINE
  5
2F6
  8
0
 62
     0
 10
191.598808
 20
103.688984
 30
0.0
 11
191.22562
 21
104.062171
 31
0.0
  0
LINE
  5
2F7
  8
0
 62
     0
 10
190.971095
 20
104.316696
 30
0.0
 11
190.013303
 21
105.274489
 31
0.0
  0
LINE
  5
2F8
  8
0
 62
     0
 10
192.397038
 20
103.208952
 30
0.0
 11
192.329041
 21
103.276949
 31
0.0
  0
LINE
  5
2F9
  8
0
 62
     0
 10
191.107466
 20
104.498524
 30
0.0
 11
190.149674
 21
105.456316
 31
0.0
  0
LINE
  5
2FA
  8
0
 62
     0
 10
191.917006
 20
103.688984
 30
0.0
 11
191.543818
 21
104.062171
 31
0.0
  0
LINE
  5
2FB
  8
0
 62
     0
 10
192.715236
 20
103.208952
 30
0.0
 11
191.862016
 21
104.062171
 31
0.0
  0
LINE
  5
2FC
  8
0
 62
     0
 10
191.243837
 20
104.680351
 30
0.0
 11
190.286044
 21
105.638144
 31
0.0
  0
LINE
  5
2FD
  8
0
 62
     0
 10
193.033434
 20
103.208952
 30
0.0
 11
192.116909
 21
104.125477
 31
0.0
  0
LINE
  5
2FE
  8
0
 62
     0
 10
191.380207
 20
104.862179
 30
0.0
 11
190.548585
 21
105.693801
 31
0.0
  0
LINE
  5
2FF
  8
0
 62
     0
 10
193.351632
 20
103.208952
 30
0.0
 11
192.010843
 21
104.549741
 31
0.0
  0
LINE
  5
300
  8
0
 62
     0
 10
191.516578
 20
105.044006
 30
0.0
 11
190.866783
 21
105.693801
 31
0.0
  0
LINE
  5
301
  8
0
 62
     0
 10
193.66983
 20
103.208952
 30
0.0
 11
191.904777
 21
104.974005
 31
0.0
  0
LINE
  5
302
  8
0
 62
     0
 10
191.652948
 20
105.225834
 30
0.0
 11
191.184981
 21
105.693801
 31
0.0
  0
LINE
  5
303
  8
0
 62
     0
 10
193.875595
 20
103.321385
 30
0.0
 11
191.798711
 21
105.398269
 31
0.0
  0
LINE
  5
304
  8
0
 62
     0
 10
191.789319
 20
105.407661
 30
0.0
 11
191.503179
 21
105.693801
 31
0.0
  0
LINE
  5
305
  8
0
 62
     0
 10
193.769529
 20
103.745649
 30
0.0
 11
191.821377
 21
105.693801
 31
0.0
  0
LINE
  5
306
  8
0
 62
     0
 10
193.663463
 20
104.169913
 30
0.0
 11
192.139576
 21
105.693801
 31
0.0
  0
LINE
  5
307
  8
0
 62
     0
 10
194.732492
 20
103.419082
 30
0.0
 11
194.673972
 21
103.477602
 31
0.0
  0
LINE
  5
308
  8
0
 62
     0
 10
193.557397
 20
104.594177
 30
0.0
 11
192.457774
 21
105.693801
 31
0.0
  0
LINE
  5
309
  8
0
 62
     0
 10
195.149298
 20
103.320474
 30
0.0
 11
194.635225
 21
103.834548
 31
0.0
  0
LINE
  5
30A
  8
0
 62
     0
 10
193.451331
 20
105.018441
 30
0.0
 11
192.775972
 21
105.693801
 31
0.0
  0
LINE
  5
30B
  8
0
 62
     0
 10
195.509282
 20
103.278689
 30
0.0
 11
194.682922
 21
104.105049
 31
0.0
  0
LINE
  5
30C
  8
0
 62
     0
 10
193.345265
 20
105.442705
 30
0.0
 11
193.09417
 21
105.693801
 31
0.0
  0
LINE
  5
30D
  8
0
 62
     0
 10
195.858857
 20
103.247312
 30
0.0
 11
194.730618
 21
104.37555
 31
0.0
  0
LINE
  5
30E
  8
0
 62
     0
 10
196.19894
 20
103.225426
 30
0.0
 11
194.778315
 21
104.646052
 31
0.0
  0
LINE
  5
30F
  8
0
 62
     0
 10
196.530306
 20
103.212258
 30
0.0
 11
194.826012
 21
104.916553
 31
0.0
  0
LINE
  5
310
  8
0
 62
     0
 10
196.853616
 20
103.207147
 30
0.0
 11
194.873708
 21
105.187054
 31
0.0
  0
LINE
  5
311
  8
0
 62
     0
 10
197.169437
 20
103.209523
 30
0.0
 11
196.717543
 21
103.661418
 31
0.0
  0
LINE
  5
312
  8
0
 62
     0
 10
196.241642
 20
104.137319
 30
0.0
 11
194.970499
 21
105.408462
 31
0.0
  0
LINE
  5
313
  8
0
 62
     0
 10
197.478265
 20
103.218894
 30
0.0
 11
197.047649
 21
103.64951
 31
0.0
  0
LINE
  5
314
  8
0
 62
     0
 10
196.289339
 20
104.40782
 30
0.0
 11
195.193391
 21
105.503767
 31
0.0
  0
LINE
  5
315
  8
0
 62
     0
 10
197.78053
 20
103.234826
 30
0.0
 11
197.349867
 21
103.66549
 31
0.0
  0
LINE
  5
316
  8
0
 62
     0
 10
196.337035
 20
104.678321
 30
0.0
 11
195.468172
 21
105.547185
 31
0.0
  0
LINE
  5
317
  8
0
 62
     0
 10
198.124603
 20
103.208952
 30
0.0
 11
197.630009
 21
103.703546
 31
0.0
  0
LINE
  5
318
  8
0
 62
     0
 10
196.384732
 20
104.948823
 30
0.0
 11
195.748005
 21
105.58555
 31
0.0
  0
LINE
  5
319
  8
0
 62
     0
 10
198.442801
 20
103.208952
 30
0.0
 11
197.855526
 21
103.796227
 31
0.0
  0
LINE
  5
31A
  8
0
 62
     0
 10
196.502999
 20
105.148753
 30
0.0
 11
196.033135
 21
105.618617
 31
0.0
  0
LINE
  5
31B
  8
0
 62
     0
 10
197.573104
 20
104.078649
 30
0.0
 11
197.380196
 21
104.271557
 31
0.0
  0
LINE
  5
31C
  8
0
 62
     0
 10
198.760999
 20
103.208952
 30
0.0
 11
197.955988
 21
104.013963
 31
0.0
  0
LINE
  5
31D
  8
0
 62
     0
 10
196.745041
 20
105.22491
 30
0.0
 11
196.323833
 21
105.646118
 31
0.0
  0
LINE
  5
31E
  8
0
 62
     0
 10
197.891302
 20
104.078649
 30
0.0
 11
197.668574
 21
104.301376
 31
0.0
  0
LINE
  5
31F
  8
0
 62
     0
 10
199.079197
 20
103.208952
 30
0.0
 11
197.986772
 21
104.301376
 31
0.0
  0
LINE
  5
320
  8
0
 62
     0
 10
197.034275
 20
105.253874
 30
0.0
 11
196.620401
 21
105.667748
 31
0.0
  0
LINE
  5
321
  8
0
 62
     0
 10
199.371618
 20
103.234729
 30
0.0
 11
198.304971
 21
104.301376
 31
0.0
  0
LINE
  5
322
  8
0
 62
     0
 10
197.347781
 20
105.258566
 30
0.0
 11
196.923178
 21
105.683169
 31
0.0
  0
LINE
  5
323
  8
0
 62
     0
 10
199.419315
 20
103.50523
 30
0.0
 11
198.623169
 21
104.301376
 31
0.0
  0
LINE
  5
324
  8
0
 62
     0
 10
197.692832
 20
105.231713
 30
0.0
 11
197.232551
 21
105.691994
 31
0.0
  0
LINE
  5
325
  8
0
 62
     0
 10
199.467011
 20
103.775732
 30
0.0
 11
198.941367
 21
104.301376
 31
0.0
  0
LINE
  5
326
  8
0
 62
     0
 10
198.27875
 20
104.963993
 30
0.0
 11
197.548954
 21
105.693789
 31
0.0
  0
LINE
  5
327
  8
0
 62
     0
 10
199.514708
 20
104.046233
 30
0.0
 11
199.259565
 21
104.301376
 31
0.0
  0
LINE
  5
328
  8
0
 62
     0
 10
198.596948
 20
104.963993
 30
0.0
 11
197.872889
 21
105.688052
 31
0.0
  0
LINE
  5
329
  8
0
 62
     0
 10
198.915146
 20
104.963993
 30
0.0
 11
198.204929
 21
105.67421
 31
0.0
  0
LINE
  5
32A
  8
0
 62
     0
 10
199.233344
 20
104.963993
 30
0.0
 11
198.545745
 21
105.651593
 31
0.0
  0
LINE
  5
32B
  8
0
 62
     0
 10
199.551542
 20
104.963993
 30
0.0
 11
198.896119
 21
105.619416
 31
0.0
  0
LINE
  5
32C
  8
0
 62
     0
 10
199.705495
 20
105.128239
 30
0.0
 11
199.256984
 21
105.57675
 31
0.0
  0
ENDBLK
  5
32E
  8
0
  0
BLOCK
  8
0
  2
*X3
 70
     1
 10
0.0
 20
0.0
 30
0.0
  3
*X3
  1

  0
LINE
  5
413
  8
0
 62
     0
 10
51.502223
 20
198.933987
 30
0.0
 11
51.856175
 21
199.287939
 31
0.0
  0
LINE
  5
414
  8
0
 62
     0
 10
56.093234
 20
203.524998
 30
0.0
 11
56.447187
 21
203.878951
 31
0.0
  0
LINE
  5
415
  8
0
 62
     0
 10
51.323989
 20
199.109306
 30
0.0
 11
51.677698
 21
199.463015
 31
0.0
  0
LINE
  5
416
  8
0
 62
     0
 10
55.918158
 20
203.703476
 30
0.0
 11
56.271868
 21
204.057185
 31
0.0
  0
LINE
  5
417
  8
0
 62
     0
 10
51.158412
 20
199.297283
 30
0.0
 11
51.514
 21
199.652871
 31
0.0
  0
LINE
  5
418
  8
0
 62
     0
 10
55.728303
 20
203.867173
 30
0.0
 11
56.083891
 21
204.222762
 31
0.0
  0
LINE
  5
419
  8
0
 62
     0
 10
51.005667
 20
199.498091
 30
0.0
 11
51.365362
 21
199.857786
 31
0.0
  0
LINE
  5
41A
  8
0
 62
     0
 10
55.523388
 20
204.015812
 30
0.0
 11
55.883083
 21
204.375507
 31
0.0
  0
LINE
  5
41B
  8
0
 62
     0
 10
50.866139
 20
199.712117
 30
0.0
 11
51.232406
 21
200.078384
 31
0.0
  0
LINE
  5
41C
  8
0
 62
     0
 10
55.30279
 20
204.148767
 30
0.0
 11
55.669057
 21
204.515034
 31
0.0
  0
LINE
  5
41D
  8
0
 62
     0
 10
50.740457
 20
199.939987
 30
0.0
 11
51.116179
 21
200.315709
 31
0.0
  0
LINE
  5
41E
  8
0
 62
     0
 10
55.065464
 20
204.264995
 30
0.0
 11
55.441186
 21
204.640717
 31
0.0
  0
LINE
  5
41F
  8
0
 62
     0
 10
50.629548
 20
200.182632
 30
0.0
 11
51.01828
 21
200.571364
 31
0.0
  0
LINE
  5
420
  8
0
 62
     0
 10
54.809809
 20
204.362894
 30
0.0
 11
55.198541
 21
204.751625
 31
0.0
  0
LINE
  5
421
  8
0
 62
     0
 10
50.534739
 20
200.441377
 30
0.0
 11
50.941124
 21
200.847762
 31
0.0
  0
LINE
  5
422
  8
0
 62
     0
 10
54.533412
 20
204.44005
 30
0.0
 11
54.939797
 21
204.846434
 31
0.0
  0
LINE
  5
423
  8
0
 62
     0
 10
50.457911
 20
200.718102
 30
0.0
 11
50.888414
 21
201.148605
 31
0.0
  0
LINE
  5
424
  8
0
 62
     0
 10
54.232569
 20
204.49276
 30
0.0
 11
54.663071
 21
204.923262
 31
0.0
  0
LINE
  5
425
  8
0
 62
     0
 10
50.401783
 20
201.015528
 30
0.0
 11
50.866134
 21
201.479878
 31
0.0
  0
LINE
  5
426
  8
0
 62
     0
 10
53.901296
 20
204.51504
 30
0.0
 11
54.365646
 21
204.97939
 31
0.0
  0
LINE
  5
427
  8
0
 62
     0
 10
50.37043
 20
201.337728
 30
0.0
 11
50.884908
 21
201.852206
 31
0.0
  0
LINE
  5
428
  8
0
 62
     0
 10
53.528967
 20
204.496265
 30
0.0
 11
54.043446
 21
205.010744
 31
0.0
  0
LINE
  5
429
  8
0
 62
     0
 10
50.370351
 20
201.691202
 30
0.0
 11
50.96716
 21
202.288011
 31
0.0
  0
LINE
  5
42A
  8
0
 62
     0
 10
53.093162
 20
204.414014
 30
0.0
 11
53.689972
 21
205.010823
 31
0.0
  0
LINE
  5
42B
  8
0
 62
     0
 10
50.413009
 20
202.087414
 30
0.0
 11
51.182802
 21
202.857207
 31
0.0
  0
LINE
  5
42C
  8
0
 62
     0
 10
52.523967
 20
204.198372
 30
0.0
 11
53.29376
 21
204.968164
 31
0.0
  0
LINE
  5
42D
  8
0
 62
     0
 10
50.522532
 20
202.55049
 30
0.0
 11
52.830683
 21
204.858641
 31
0.0
  0
LINE
  5
42E
  8
0
 62
     0
 10
50.774159
 20
203.15567
 30
0.0
 11
52.225503
 21
204.607015
 31
0.0
  0
LINE
  5
42F
  8
0
 62
     0
 10
51.693137
 20
198.771348
 30
0.0
 11
52.049469
 21
199.127679
 31
0.0
  0
LINE
  5
430
  8
0
 62
     0
 10
56.253494
 20
203.331705
 30
0.0
 11
56.609826
 21
203.688037
 31
0.0
  0
LINE
  5
431
  8
0
 62
     0
 10
51.896952
 20
198.62161
 30
0.0
 11
52.257933
 21
198.98259
 31
0.0
  0
LINE
  5
432
  8
0
 62
     0
 10
56.398584
 20
203.123241
 30
0.0
 11
56.759564
 21
203.484221
 31
0.0
  0
LINE
  5
433
  8
0
 62
     0
 10
52.114107
 20
198.48521
 30
0.0
 11
52.48228
 21
198.853384
 31
0.0
  0
LINE
  5
434
  8
0
 62
     0
 10
56.52779
 20
202.898894
 30
0.0
 11
56.895963
 21
203.267067
 31
0.0
  0
LINE
  5
435
  8
0
 62
     0
 10
52.345291
 20
198.362841
 30
0.0
 11
52.723667
 21
198.741218
 31
0.0
  0
LINE
  5
436
  8
0
 62
     0
 10
56.639956
 20
202.657506
 30
0.0
 11
57.018332
 21
203.035883
 31
0.0
  0
LINE
  5
437
  8
0
 62
     0
 10
52.591515
 20
198.255512
 30
0.0
 11
52.983857
 21
198.647853
 31
0.0
  0
LINE
  5
438
  8
0
 62
     0
 10
56.73332
 20
202.397317
 30
0.0
 11
57.125661
 21
202.789658
 31
0.0
  0
LINE
  5
439
  8
0
 62
     0
 10
52.854216
 20
198.16466
 30
0.0
 11
53.265503
 21
198.575947
 31
0.0
  0
LINE
  5
43A
  8
0
 62
     0
 10
56.805227
 20
202.11567
 30
0.0
 11
57.216514
 21
202.526957
 31
0.0
  0
LINE
  5
43B
  8
0
 62
     0
 10
53.135438
 20
198.092328
 30
0.0
 11
53.572721
 21
198.529611
 31
0.0
  0
LINE
  5
43C
  8
0
 62
     0
 10
56.851563
 20
201.808453
 30
0.0
 11
57.288846
 21
202.245736
 31
0.0
  0
LINE
  5
43D
  8
0
 62
     0
 10
53.438152
 20
198.041488
 30
0.0
 11
53.91227
 21
198.515607
 31
0.0
  0
LINE
  5
43E
  8
0
 62
     0
 10
56.865567
 20
201.468904
 30
0.0
 11
57.339685
 21
201.943022
 31
0.0
  0
LINE
  5
43F
  8
0
 62
     0
 10
53.766867
 20
198.016651
 30
0.0
 11
54.296529
 21
198.546313
 31
0.0
  0
LINE
  5
440
  8
0
 62
     0
 10
56.834861
 20
201.084644
 30
0.0
 11
57.364523
 21
201.614306
 31
0.0
  0
LINE
  5
441
  8
0
 62
     0
 10
54.128913
 20
198.025143
 30
0.0
 11
54.753244
 21
198.649474
 31
0.0
  0
LINE
  5
442
  8
0
 62
     0
 10
56.7317
 20
200.62793
 30
0.0
 11
57.356031
 21
201.252261
 31
0.0
  0
LINE
  5
443
  8
0
 62
     0
 10
54.537633
 20
198.080309
 30
0.0
 11
55.386461
 21
198.929138
 31
0.0
  0
LINE
  5
444
  8
0
 62
     0
 10
56.452036
 20
199.994713
 30
0.0
 11
57.300864
 21
200.843541
 31
0.0
  0
LINE
  5
445
  8
0
 62
     0
 10
55.022874
 20
198.211997
 30
0.0
 11
57.169176
 21
200.358299
 31
0.0
  0
LINE
  5
446
  8
0
 62
     0
 10
55.696657
 20
198.532226
 30
0.0
 11
56.848947
 21
199.684517
 31
0.0
  0
ENDBLK
  5
448
  8
0
  0
BLOCK
  8
0
  2
*X4
 70
     1
 10
0.0
 20
0.0
 30
0.0
  3
*X4
  1

  0
LINE
  5
47A
  8
0
 62
     0
 10
51.910248
 20
200.402672
 30
0.0
 11
52.206011
 21
200.698435
 31
0.0
  0
LINE
  5
47B
  8
0
 62
     0
 10
51.793402
 20
200.639379
 30
0.0
 11
52.104303
 21
200.950281
 31
0.0
  0
LINE
  5
47C
  8
0
 62
     0
 10
52.950675
 20
201.796653
 30
0.0
 11
53.220111
 21
202.066088
 31
0.0
  0
LINE
  5
47D
  8
0
 62
     0
 10
51.70141
 20
200.900941
 30
0.0
 11
52.037036
 21
201.236566
 31
0.0
  0
LINE
  5
47E
  8
0
 62
     0
 10
52.723668
 20
201.923198
 30
0.0
 11
53.017697
 21
202.217227
 31
0.0
  0
LINE
  5
47F
  8
0
 62
     0
 10
51.639222
 20
201.192306
 30
0.0
 11
52.01673
 21
201.569814
 31
0.0
  0
LINE
  5
480
  8
0
 62
     0
 10
52.496684
 20
202.049768
 30
0.0
 11
52.790713
 21
202.343797
 31
0.0
  0
LINE
  5
481
  8
0
 62
     0
 10
51.615937
 20
201.522575
 30
0.0
 11
52.075918
 21
201.982556
 31
0.0
  0
LINE
  5
482
  8
0
 62
     0
 10
52.269701
 20
202.176338
 30
0.0
 11
52.56373
 21
202.470367
 31
0.0
  0
LINE
  5
483
  8
0
 62
     0
 10
51.651045
 20
201.911236
 30
0.0
 11
52.336746
 21
202.596937
 31
0.0
  0
LINE
  5
484
  8
0
 62
     0
 10
51.805526
 20
202.41927
 30
0.0
 11
52.101173
 21
202.714917
 31
0.0
  0
LINE
  5
485
  8
0
 62
     0
 10
52.049103
 20
200.187974
 30
0.0
 11
52.336108
 21
200.474979
 31
0.0
  0
LINE
  5
486
  8
0
 62
     0
 10
52.286054
 20
200.071371
 30
0.0
 11
52.435021
 21
200.220339
 31
0.0
  0
ENDBLK
  5
488
  8
0
  0
BLOCK
  8
0
  2
NT
 70
     0
 10
0.0
 20
0.0
 30
0.0
  3
NT
  1

  0
POLYLINE
  5
51A
  8
0
 66
     1
 10
0.0
 20
0.0
 30
0.0
  0
VERTEX
  5
B66
  8
0
 10
0.288675
 20
-0.166667
 30
0.0
 42
0.291473
  0
VERTEX
  5
B67
  8
0
 10
0.273051
 20
0.191192
 30
0.0
 42
1.0
  0
VERTEX
  5
B68
  8
0
 10
0.204788
 20
0.143394
 30
0.0
 42
-0.246577
  0
VERTEX
  5
B69
  8
0
 10
0.234311
 20
-0.087167
 30
0.0
  0
VERTEX
  5
B6A
  8
0
 10
0.147129
 20
-0.036832
 30
0.0
 42
1.0
  0
VERTEX
  5
B6B
  8
0
 10
0.105462
 20
-0.109001
 30
0.0
  0
VERTEX
  5
B6C
  8
0
 10
0.231757
 20
-0.181918
 30
0.0
 42
0.414214
  0
VERTEX
  5
B6D
  8
0
 10
0.288675
 20
-0.166667
 30
0.0
  0
SEQEND
  5
B6E
  8
0
  0
POLYLINE
  5
51B
  8
0
 66
     1
 10
0.0
 20
0.0
 30
0.0
 70
     1
  0
VERTEX
  5
B6F
  8
0
 10
0.166667
 20
0.288675
 30
0.0
 42
0.291473
  0
VERTEX
  5
B70
  8
0
 10
-0.191192
 20
0.273051
 30
0.0
 42
1.0
  0
VERTEX
  5
B71
  8
0
 10
-0.143394
 20
0.204788
 30
0.0
 42
-0.111311
  0
VERTEX
  5
B72
  8
0
 10
-0.041667
 20
0.246503
 30
0.0
  0
VERTEX
  5
B73
  8
0
 10
-0.041667
 20
-0.291667
 30
0.0
 42
1.0
  0
VERTEX
  5
B74
  8
0
 10
0.041667
 20
-0.291667
 30
0.0
  0
VERTEX
  5
B75
  8
0
 10
0.041667
 20
0.246503
 30
0.0
 42
-0.089274
  0
VERTEX
  5
B76
  8
0
 10
0.125
 20
0.216506
 30
0.0
 42
1.0
  0
SEQEND
  5
B77
  8
0
  0
POLYLINE
  5
51C
  8
0
 66
     1
 10
0.0
 20
0.0
 30
0.0
  0
VERTEX
  5
B78
  8
0
 10
-0.288675
 20
0.166667
 30
0.0
 42
0.291473
  0
VERTEX
  5
B79
  8
0
 10
-0.273051
 20
-0.191192
 30
0.0
 42
1.0
  0
VERTEX
  5
B7A
  8
0
 10
-0.204788
 20
-0.143394
 30
0.0
 42
-0.246577
  0
VERTEX
  5
B7B
  8
0
 10
-0.234311
 20
0.087167
 30
0.0
  0
VERTEX
  5
B7C
  8
0
 10
-0.147129
 20
0.036832
 30
0.0
 42
1.0
  0
VERTEX
  5
B7D
  8
0
 10
-0.105462
 20
0.109001
 30
0.0
  0
VERTEX
  5
B7E
  8
0
 10
-0.231757
 20
0.181918
 30
0.0
 42
0.414214
  0
VERTEX
  5
B7F
  8
0
 10
-0.288675
 20
0.166667
 30
0.0
  0
SEQEND
  5
B80
  8
0
  0
CIRCLE
  5
51D
  8
0
 10
0.0
 20
0.0
 30
0.0
 40
0.416667
  0
CIRCLE
  5
51E
  8
0
 10
0.0
 20
0.0
 30
0.0
 40
0.5
  0
ENDBLK
  5
520
  8
0
  0
BLOCK
  8
0
  2
*X6
 70
     1
 10
0.0
 20
0.0
 30
0.0
  3
*X6
  1

  0
LINE
  5
33F
  8
0
 62
     0
 10
164.145554
 20
90.606449
 30
0.0
 11
164.394841
 21
90.855736
 31
0.0
  0
LINE
  5
340
  8
0
 62
     0
 10
161.317127
 20
90.606449
 30
0.0
 11
164.394841
 21
93.684163
 31
0.0
  0
LINE
  5
341
  8
0
 62
     0
 10
158.4887
 20
90.606449
 30
0.0
 11
164.394841
 21
96.51259
 31
0.0
  0
LINE
  5
342
  8
0
 62
     0
 10
155.660272
 20
90.606449
 30
0.0
 11
161.660272
 21
96.606449
 31
0.0
  0
LINE
  5
343
  8
0
 62
     0
 10
152.831845
 20
90.606449
 30
0.0
 11
158.831845
 21
96.606449
 31
0.0
  0
LINE
  5
344
  8
0
 62
     0
 10
150.003418
 20
90.606449
 30
0.0
 11
156.003418
 21
96.606449
 31
0.0
  0
LINE
  5
345
  8
0
 62
     0
 10
147.174991
 20
90.606449
 30
0.0
 11
153.174991
 21
96.606449
 31
0.0
  0
LINE
  5
346
  8
0
 62
     0
 10
145.915428
 20
92.175313
 30
0.0
 11
150.346564
 21
96.606449
 31
0.0
  0
LINE
  5
347
  8
0
 62
     0
 10
144.916624
 20
94.004936
 30
0.0
 11
147.518137
 21
96.606449
 31
0.0
  0
LINE
  5
348
  8
0
 62
     0
 10
230.394841
 20
94.630339
 30
0.0
 11
232.370951
 21
96.606449
 31
0.0
  0
LINE
  5
349
  8
0
 62
     0
 10
230.394841
 20
91.801912
 30
0.0
 11
235.199378
 21
96.606449
 31
0.0
  0
LINE
  5
34A
  8
0
 62
     0
 10
232.027805
 20
90.606449
 30
0.0
 11
238.027805
 21
96.606449
 31
0.0
  0
LINE
  5
34B
  8
0
 62
     0
 10
234.856232
 20
90.606449
 30
0.0
 11
240.856232
 21
96.606449
 31
0.0
  0
LINE
  5
34C
  8
0
 62
     0
 10
237.684659
 20
90.606449
 30
0.0
 11
243.684659
 21
96.606449
 31
0.0
  0
LINE
  5
34D
  8
0
 62
     0
 10
240.513086
 20
90.606449
 30
0.0
 11
246.513086
 21
96.606449
 31
0.0
  0
LINE
  5
34E
  8
0
 62
     0
 10
243.341513
 20
90.606449
 30
0.0
 11
246.45185
 21
93.716785
 31
0.0
  0
LINE
  5
34F
  8
0
 62
     0
 10
246.16994
 20
90.606449
 30
0.0
 11
247.089489
 21
91.525998
 31
0.0
  0
ENDBLK
  5
351
  8
0
  0
ENDSEC
  0
SECTION
  2
ENTITIES
  0
TEXT
  5
1E
  8
035
 10
177.82731
 20
142.861972
 30
0.0
 40
3.0
  1
PCB-Layout (component side)
  7
ARIAL
  0
TEXT
  5
21
  8
0
 62
     3
 10
169.82731
 20
148.861972
 30
0.0
 40
3.5
  1
Print-Bohrplan (Bestückungsseite)
  7
ARIAL
  0
INSERT
  5
22
  8
SCHRIFTKOPF
 66
     1
  2
ZKOPF
 10
410.0
 20
10.0
 30
0.0
  0
ATTRIB
  5
23
  8
0
 62
     4
 10
396.678571
 20
47.0
 30
0.0
 40
2.5
  1
Dobler
  7
SCRIPTS
 72
     1
 11
401.5
 21
47.0
 31
0.0
  2
NAME
 70
     0
  0
ATTRIB
  5
25
  8
0
 62
     4
 10
380.395833
 20
47.0
 30
0.0
 40
2.5
  1
17.08.94
 41
0.7
 51
15.0
 72
     1
 11
385.5
 21
47.0
 31
0.0
  2
DATE
 70
     0
  0
ATTRIB
  5
26
  8
0
 62
     4
 10
329.5
 20
46.0
 30
0.0
 40
2.5
  1

 41
0.7
 51
15.0
 72
     1
 11
329.5
 21
46.0
 31
0.0
  2
WERKSTOFF
 70
     0
  0
ATTRIB
  5
27
  8
0
 62
     2
 10
306.333333
 20
22.5
 30
0.0
 40
5.0
  1
NC3FBH2
 41
0.7
 51
15.0
 72
     1
 11
318.0
 21
22.5
 31
0.0
  2
BENENNUNG
 70
     0
  0
ATTRIB
  5
28
  8
0
 62
     3
 10
318.0
 20
31.0
 30
0.0
 40
3.5
  1

 41
0.7
 51
15.0
 72
     1
 11
318.0
 21
31.0
 31
0.0
  2
TEIL
 70
     0
  0
ATTRIB
  5
29
  8
0
 62
     3
 10
365.5125
 20
12.0
 30
0.0
 40
3.5
  1
  3102 St 18 14
 41
0.7
 51
15.0
 72
     1
 11
384.5
 21
12.0
 31
0.0
  2
NUMMER
 70
     0
  0
ATTRIB
  5
2A
  8
0
 62
     2
 10
346.139634
 20
44.930682
 30
0.0
 40
5.0
  1
3:1
 41
0.7
 51
15.0
 72
     1
 11
349.056301
 21
44.930682
 31
0.0
  2
MASS
 70
     0
  0
ATTRIB
  5
2B
  8
0
 62
     3
 10
348.366667
 20
39.0
 30
0.0
 40
3.5
  1
1:1
 41
0.7
 51
15.0
 72
     1
 11
350.0
 21
39.0
 31
0.0
  2
MASS2
 70
     0
  0
ATTRIB
  5
2C
  8
0
 62
     4
 10
329.0
 20
39.0
 30
0.0
 40
2.5
  1

 41
0.7
 51
15.0
 72
     1
 11
329.0
 21
39.0
 31
0.0
  2
TEIL
 70
     0
  0
ATTRIB
  5
2D
  8
0
 62
     3
 10
310.450409
 20
69.004319
 30
0.0
 40
3.5
  1

 41
0.7
 51
15.0
  2
TOL
 70
     0
  0
ATTRIB
  5
2E
  8
0
 62
     3
 10
310.450409
 20
64.004319
 30
0.0
 40
3.5
  1

 41
0.7
 51
15.0
  2
RADIEN
 70
     0
  0
ATTRIB
  5
2F
  8
0
 62
     3
 10
310.450409
 20
59.004319
 30
0.0
 40
3.5
  1

 41
0.7
 51
15.0
  2
FACETTE
 70
     0
  0
ATTRIB
  5
30
  8
0
 62
     4
 10
212.813733
 20
17.0
 30
0.0
 40
2.5
  1
A
 41
0.7
 51
15.0
  2
INDEX1
 70
     0
  0
ATTRIB
  5
31
  8
0
 62
     4
 10
219.651257
 20
17.0
 30
0.0
 40
2.5
  1
Aktuell
 41
0.7
 51
15.0
  2
A1
 70
     0
  0
ATTRIB
  5
32
  8
0
 62
     4
 10
252.651257
 20
17.0
 30
0.0
 40
2.5
  1
09.11.95
 41
0.7
 51
15.0
  2
DATUM1
 70
     0
  0
ATTRIB
  5
33
  8
0
 62
     4
 10
265.53501
 20
17.0
 30
0.0
 40
2.5
  1
Dobler
 41
0.7
 51
15.0
  2
NAME1
 70
     0
  0
ATTRIB
  5
34
  8
0
 62
     4
 10
212.813733
 20
22.0
 30
0.0
 40
2.5
  1

 41
0.7
 51
15.0
  2
INDEX2
 70
     0
  0
ATTRIB
  5
35
  8
0
 62
     4
 10
219.651257
 20
22.0
 30
0.0
 40
2.5
  1

 41
0.7
 51
15.0
  2
A2
 70
     0
  0
ATTRIB
  5
36
  8
0
 62
     4
 10
252.651257
 20
22.0
 30
0.0
 40
2.5
  1

 41
0.7
 51
15.0
  2
DATUM2
 70
     0
  0
ATTRIB
  5
37
  8
0
 62
     4
 10
265.53501
 20
22.0
 30
0.0
 40
2.5
  1

 41
0.7
 51
15.0
  2
NAME2
 70
     0
  0
ATTRIB
  5
38
  8
0
 62
     4
 10
212.813733
 20
27.0
 30
0.0
 40
2.5
  1

 41
0.7
 51
15.0
  2
INDEX3
 70
     0
  0
ATTRIB
  5
39
  8
0
 62
     4
 10
219.651257
 20
27.0
 30
0.0
 40
2.5
  1

 41
0.7
 51
15.0
  2
A3
 70
     0
  0
ATTRIB
  5
3A
  8
0
 62
     4
 10
252.651257
 20
27.0
 30
0.0
 40
2.5
  1

 41
0.7
 51
15.0
  2
DATUM3
 70
     0
  0
ATTRIB
  5
3B
  8
0
 62
     4
 10
265.53501
 20
27.0
 30
0.0
 40
2.5
  1

 41
0.7
 51
15.0
  2
NAME3
 70
     0
  0
ATTRIB
  5
3C
  8
0
 62
     4
 10
212.813733
 20
32.0
 30
0.0
 40
2.5
  1

 41
0.7
 51
15.0
  2
INDEX4
 70
     0
  0
ATTRIB
  5
3D
  8
0
 62
     4
 10
219.651257
 20
32.0
 30
0.0
 40
2.5
  1

 41
0.7
 51
15.0
  2
A4
 70
     0
  0
ATTRIB
  5
3E
  8
0
 62
     4
 10
252.651257
 20
32.0
 30
0.0
 40
2.5
  1

 41
0.7
 51
15.0
  2
DATUM4
 70
     0
  0
ATTRIB
  5
3F
  8
0
 62
     4
 10
265.53501
 20
32.0
 30
0.0
 40
2.5
  1

 41
0.7
 51
15.0
  2
NAME4
 70
     0
  0
ATTRIB
  5
40
  8
0
 62
     4
 10
212.813733
 20
37.0
 30
0.0
 40
2.5
  1

 41
0.7
 51
15.0
  2
INDEX5
 70
     0
  0
ATTRIB
  5
41
  8
0
 62
     4
 10
219.651257
 20
37.0
 30
0.0
 40
2.5
  1

 41
0.7
 51
15.0
  2
A5
 70
     0
  0
ATTRIB
  5
42
  8
0
 62
     4
 10
252.651257
 20
37.0
 30
0.0
 40
2.5
  1

 41
0.7
 51
15.0
  2
DATUM5
 70
     0
  0
ATTRIB
  5
43
  8
0
 62
     4
 10
265.53501
 20
37.0
 30
0.0
 40
2.5
  1

 41
0.7
 51
15.0
  2
NAME5
 70
     0
  0
ATTRIB
  5
44
  8
0
 62
     4
 10
212.813733
 20
42.0
 30
0.0
 40
2.5
  1

 41
0.7
 51
15.0
  2
INDEX6
 70
     0
  0
ATTRIB
  5
45
  8
0
 62
     4
 10
219.651257
 20
42.0
 30
0.0
 40
2.5
  1

 41
0.7
 51
15.0
  2
A6
 70
     0
  0
ATTRIB
  5
46
  8
0
 62
     4
 10
252.651257
 20
42.0
 30
0.0
 40
2.5
  1

 41
0.7
 51
15.0
  2
DATUM6
 70
     0
  0
ATTRIB
  5
47
  8
0
 62
     4
 10
265.53501
 20
42.0
 30
0.0
 40
2.5
  1

 41
0.7
 51
15.0
  2
NAME6
 70
     0
  0
ATTRIB
  5
48
  8
0
 62
     4
 10
212.813733
 20
47.0
 30
0.0
 40
2.5
  1

 41
0.7
 51
15.0
  2
INDEX7
 70
     0
  0
ATTRIB
  5
49
  8
0
 62
     4
 10
219.651257
 20
47.0
 30
0.0
 40
2.5
  1

 41
0.7
 51
15.0
  2
A7
 70
     0
  0
ATTRIB
  5
4A
  8
0
 62
     4
 10
252.651257
 20
47.0
 30
0.0
 40
2.5
  1

 41
0.7
 51
15.0
  2
DATUM7
 70
     0
  0
ATTRIB
  5
4B
  8
0
 62
     4
 10
265.53501
 20
47.0
 30
0.0
 40
2.5
  1

 41
0.7
 51
15.0
  2
NAME7
 70
     0
  0
ATTRIB
  5
4C
  8
0
 62
     4
 10
212.813733
 20
52.0
 30
0.0
 40
2.5
  1

 41
0.7
 51
15.0
  2
INDEX8
 70
     0
  0
ATTRIB
  5
4D
  8
0
 62
     4
 10
219.651257
 20
52.0
 30
0.0
 40
2.5
  1

 41
0.7
 51
15.0
  2
A8
 70
     0
  0
ATTRIB
  5
4E
  8
0
 62
     4
 10
252.651257
 20
52.0
 30
0.0
 40
2.5
  1

 41
0.7
 51
15.0
  2
DATUM8
 70
     0
  0
ATTRIB
  5
4F
  8
0
 62
     4
 10
265.53501
 20
52.0
 30
0.0
 40
2.5
  1

 41
0.7
 51
15.0
  2
NAME8
 70
     0
  0
SEQEND
  5
331
  8
SCHRIFTKOPF
  0
TEXT
  5
332
  8
BEM1
 62
     3
 10
184.92921
 20
133.893133
 30
0.0
 40
3.5
  1
8.25 [0.325"]
 41
0.7
 51
15.0
 72
     1
 11
197.383377
 21
135.643133
 31
0.0
 73
     2
  0
SOLID
  5
334
  8
BEM1
 10
206.547367
 20
132.905349
 30
0.0
 11
206.547367
 21
131.738682
 31
0.0
 12
210.047367
 22
132.322016
 32
0.0
 13
210.047367
 23
132.322016
 33
0.0
  0
LINE
  5
335
  8
BEM1
 10
188.782367
 20
132.322016
 30
0.0
 11
210.047367
 21
132.322016
 31
0.0
  0
LINE
  5
336
  8
BEM1
 10
233.620482
 20
125.019825
 30
0.0
 11
187.140751
 21
125.019825
 31
0.0
  0
LINE
  5
337
  8
BEM1
 10
218.277367
 20
74.023712
 30
0.0
 11
167.604136
 21
74.023712
 31
0.0
  0
CIRCLE
  5
338
  8
05
 10
210.047367
 20
62.593712
 30
0.0
 40
1.8
  0
LINE
  5
339
  8
BEM1
 10
208.547367
 20
62.593712
 30
0.0
 11
211.547367
 21
62.593712
 31
0.0
  0
LINE
  5
33A
  8
BEM1
 10
202.510286
 20
102.598712
 30
0.0
 11
228.894507
 21
102.598712
 31
0.0
  0
LINE
  5
33B
  8
BEM1
 10
208.547367
 20
62.593712
 30
0.0
 11
211.547367
 21
62.593712
 31
0.0
  0
INSERT
  5
33C
  8
SCHRAFFIERT
  2
*X6
 10
12.652526
 20
23.422263
 30
0.0
  0
LINE
  5
352
  8
05
 10
177.047367
 20
114.028712
 30
0.0
 11
243.047367
 21
114.028712
 31
0.0
  0
LINE
  5
353
  8
05
 10
177.047367
 20
120.028712
 30
0.0
 11
243.047367
 21
120.028712
 31
0.0
  0
LINE
  5
354
  8
025
 10
204.08283
 20
197.643895
 30
0.0
 11
223.28283
 21
197.643895
 31
0.0
  0
LINE
  5
356
  8
BEM1
 10
219.78283
 20
276.780097
 30
0.0
 11
168.28283
 21
276.780097
 31
0.0
  0
ARC
  5
357
  8
05
 10
243.87192
 20
215.3
 30
0.0
 40
34.18509
 50
164.73566
 51
195.26434
  0
LINE
  5
358
  8
05
 10
218.78283
 20
225.362306
 30
0.0
 11
204.08283
 21
225.362306
 31
0.0
  0
LINE
  5
359
  8
05
 10
210.89283
 20
206.3
 30
0.0
 11
204.08283
 21
206.3
 31
0.0
  0
LINE
  5
35A
  8
05
 10
210.89283
 20
224.3
 30
0.0
 11
204.08283
 21
224.3
 31
0.0
  0
LINE
  5
35B
  8
05
 10
209.78283
 20
177.801515
 30
0.0
 11
223.28283
 21
177.801515
 31
0.0
  0
LINE
  5
35C
  8
05
 10
209.60283
 20
173.901515
 30
0.0
 11
210.20283
 21
173.301515
 31
0.0
  0
LINE
  5
35D
  8
05
 10
209.60283
 20
173.901515
 30
0.0
 11
214.10283
 21
173.901515
 31
0.0
  0
LINE
  5
35E
  8
05
 10
218.78283
 20
237.198485
 30
0.0
 11
209.78283
 21
237.198485
 31
0.0
  0
LINE
  5
35F
  8
05
 10
218.78283
 20
182.189414
 30
0.0
 11
204.08283
 21
182.189414
 31
0.0
  0
LINE
  5
360
  8
05
 10
218.78283
 20
180.8
 30
0.0
 11
204.08283
 21
180.8
 31
0.0
  0
LINE
  5
361
  8
05
 10
223.28283
 20
252.798485
 30
0.0
 11
193.28283
 21
252.798485
 31
0.0
  0
LINE
  5
362
  8
MITTE
 10
233.197974
 20
215.3
 30
0.0
 11
166.530902
 21
215.3
 31
0.0
  0
POLYLINE
  5
365
  8
RAHMEN
 66
     1
 10
0.0
 20
0.0
 30
0.0
 70
     1
  0
VERTEX
  5
B21
  8
RAHMEN
 10
10.0
 20
10.0
 30
0.0
  0
VERTEX
  5
B22
  8
RAHMEN
 10
410.0
 20
10.0
 30
0.0
  0
VERTEX
  5
B23
  8
RAHMEN
 10
410.0
 20
287.0
 30
0.0
  0
VERTEX
  5
B24
  8
RAHMEN
 10
10.0
 20
287.0
 30
0.0
  0
SEQEND
  5
B25
  8
RAHMEN
  0
TEXT
  5
367
  8
0
 62
     3
 10
42.441421
 20
148.78688
 30
0.0
 40
3.5
  1
Frontplattenausschnitt (Rückseite)
  7
ARIAL
  0
TEXT
  5
368
  8
035
 10
54.441421
 20
142.861972
 30
0.0
 40
3.0
  1
Panel cut out (rear side)
  7
ARIAL
  0
TEXT
  5
369
  8
BEM1
 62
     3
 10
70.349019
 20
130.344749
 30
0.0
 40
3.5
  1
%%C2.70 [0.106"]
 50
359.961444
 41
0.7
 51
15.0
 72
     1
 11
83.212693
 21
132.086094
 31
0.0
 73
     2
  0
LINE
  5
36A
  8
BEM1
 10
96.964429
 20
128.57301
 30
0.0
 11
65.085315
 21
128.599118
 31
0.0
  0
LINE
  5
36B
  8
MITTE
 10
40.136821
 20
89.181982
 30
0.0
 11
108.375809
 21
89.181982
 31
0.0
  0
CIRCLE
  5
36C
  8
05
 10
74.256315
 20
89.181982
 30
0.0
 40
33.0
  0
LINE
  5
36D
  8
BEM1
 10
99.201075
 20
104.930282
 30
0.0
 11
70.106603
 21
86.562156
 31
0.0
  0
LINE
  5
36E
  8
BEM1
 10
48.056315
 20
43.308115
 30
0.0
 11
100.456315
 21
43.308115
 31
0.0
  0
LINE
  5
36F
  8
BEM1
 10
52.916359
 20
59.481982
 30
0.0
 11
120.560003
 21
59.481982
 31
0.0
  0
TEXT
  5
370
  8
BEM1
 62
     3
 10
71.110868
 20
44.896502
 30
0.0
 40
3.5
  1
[0.780"   ]
 41
0.7
 51
15.0
  0
LINE
  5
371
  8
MITTE
 10
74.256315
 20
123.161615
 30
0.0
 11
74.256315
 21
55.202348
 31
0.0
  0
CIRCLE
  5
372
  8
05
 10
44.556315
 20
59.481982
 30
0.0
 40
4.95
  0
LINE
  5
373
  8
MITTE
 10
44.556315
 20
52.159246
 30
0.0
 11
44.556315
 21
66.518529
 31
0.0
  0
SOLID
  5
374
  8
BEM1
 10
48.056315
 20
42.724782
 30
0.0
 11
48.056315
 21
43.891448
 31
0.0
 12
44.556315
 22
43.308115
 32
0.0
 13
44.556315
 23
43.308115
 33
0.0
  0
LINE
  5
375
  8
BEM1
 10
44.556315
 20
50.926967
 30
0.0
 11
44.556315
 21
42.508115
 31
0.0
  0
TEXT
  5
376
  8
BEM1
 62
     3
 10
54.890577
 20
45.160321
 30
0.0
 40
3.5
  1
19.80
 41
0.7
 51
15.0
  0
INSERT
  5
377
  8
BEM1
  2
3
 10
64.59693
 20
46.786719
 30
0.0
  0
LINE
  5
37C
  8
MITTE
 10
37.2509
 20
59.481982
 30
0.0
 11
52.116359
 21
59.481982
 31
0.0
  0
LINE
  5
37D
  8
BEM1
 10
49.311555
 20
73.433681
 30
0.0
 11
57.179625
 21
78.401006
 31
0.0
  0
SOLID
  5
37E
  8
BEM1
 10
49.622962
 20
72.940423
 30
0.0
 11
49.000148
 21
73.926939
 31
0.0
 12
46.352008
 22
71.565239
 32
0.0
 13
46.352008
 23
71.565239
 33
0.0
  0
TEXT
  5
37F
  8
BEM1
 62
     3
 10
57.637771
 20
80.731581
 30
0.0
 40
3.5
  1
%%c22.00
 41
0.7
 51
15.0
  0
LINE
  5
380
  8
BEM1
 62
     3
 10
54.057855
 20
83.726024
 30
0.0
 11
56.831971
 21
82.158517
 31
0.0
  0
LINE
  5
381
  8
BEM1
 62
     3
 10
56.831971
 20
82.158517
 30
0.0
 11
53.702199
 21
82.158517
 31
0.0
  0
LINE
  5
382
  8
BEM1
 62
     3
 10
56.831971
 20
81.693393
 30
0.0
 11
53.702199
 21
81.693393
 31
0.0
  0
LINE
  5
383
  8
BEM1
 62
     3
 10
69.024119
 20
131.409878
 30
0.0
 11
65.894347
 21
131.409878
 31
0.0
  0
LINE
  5
384
  8
BEM1
 62
     3
 10
69.024119
 20
131.875001
 30
0.0
 11
65.894347
 21
131.875001
 31
0.0
  0
LINE
  5
385
  8
BEM1
 62
     3
 10
66.250003
 20
133.442509
 30
0.0
 11
69.024119
 21
131.875001
 31
0.0
  0
LINE
  5
386
  8
BEM1
 10
103.956315
 20
58.37704
 30
0.0
 11
103.956315
 21
42.508115
 31
0.0
  0
TEXT
  5
387
  8
BEM1
 62
     3
 10
158.921804
 20
49.52187
 30
0.0
 40
3.5
  1
4.45 [0.175"]
 50
90.0
 41
0.7
 51
15.0
  0
LINE
  5
388
  8
BEM1
 10
208.028821
 20
58.019275
 30
0.0
 11
200.445504
 21
41.950312
 31
0.0
  0
LINE
  5
389
  8
BEM1
 10
161.543772
 20
75.928712
 30
0.0
 11
161.543772
 21
49.780332
 31
0.0
  0
TEXT
  5
38A
  8
035
 10
124.272347
 20
28.032573
 30
0.0
 40
3.5
  1
Layout tolerance: %%P0.05mm [0.002"]
 41
0.7
 51
15.0
  0
TEXT
  5
38B
  8
SCHRAFFIERT
 10
83.9034
 20
45.546519
 30
0.0
 40
2.5
  1
%%p0.004
 41
0.7
 51
15.0
  0
SOLID
  5
38C
  8
BEM1
 10
100.456315
 20
42.724782
 30
0.0
 11
100.456315
 21
43.891448
 31
0.0
 12
103.956315
 22
43.308115
 32
0.0
 13
103.956315
 23
43.308115
 33
0.0
  0
TEXT
  5
38D
  8
BEM1
 62
     3
 10
169.846248
 20
40.886844
 30
0.0
 40
3.5
  1
%%c1.20 [0.047"]
 41
0.7
 51
15.0
  0
TEXT
  5
38E
  8
BEM1
 62
     3
 10
160.240703
 20
41.153077
 30
0.0
 40
3.5
  1
(2x)
 41
0.7
 51
15.0
  0
LINE
  5
38F
  8
BEM1
 10
200.445504
 20
41.950312
 30
0.0
 11
196.945504
 21
41.950312
 31
0.0
  0
TEXT
  5
390
  8
SCHRAFFIERT
 10
116.781358
 20
98.731962
 30
0.0
 40
2.5
  1
%%p0.004
 50
90.0
 41
0.7
 51
15.0
  0
LINE
  5
391
  8
BEM1
 10
103.956315
 20
110.326967
 30
0.0
 11
103.956315
 21
60.49974
 31
0.0
  0
LINE
  5
392
  8
BEM1
 10
119.760003
 20
62.981982
 30
0.0
 11
119.760003
 21
115.381982
 31
0.0
  0
TEXT
  5
393
  8
BEM1
 62
     3
 10
117.538593
 20
86.034564
 30
0.0
 40
3.5
  1
[0.780"   ]
 50
90.0
 41
0.7
 51
15.0
  0
SOLID
  5
394
  8
BEM1
 10
120.343337
 20
62.981982
 30
0.0
 11
119.17667
 21
62.981982
 31
0.0
 12
119.760003
 22
59.481982
 32
0.0
 13
119.760003
 23
59.481982
 33
0.0
  0
TEXT
  5
395
  8
BEM1
 62
     3
 10
117.764847
 20
69.161573
 30
0.0
 40
3.5
  1
19.80
 50
90.0
 41
0.7
 51
15.0
  0
INSERT
  5
396
  8
BEM1
  2
3
 10
116.138449
 20
78.867926
 30
0.0
 50
90.0
  0
SOLID
  5
397
  8
BEM1
 10
98.539199
 20
125.393328
 30
0.0
 11
99.485324
 21
126.075939
 31
0.0
 12
101.060094
 22
122.896257
 32
0.0
 13
101.060094
 23
122.896257
 33
0.0
  0
LINE
  5
398
  8
MITTE
 10
103.956315
 20
111.710823
 30
0.0
 11
103.956315
 21
126.070106
 31
0.0
  0
SOLID
  5
399
  8
BEM1
 10
99.512482
 20
104.437024
 30
0.0
 11
98.889668
 21
105.42354
 31
0.0
 12
102.160623
 22
106.798724
 32
0.0
 13
102.160623
 23
106.798724
 33
0.0
  0
CIRCLE
  5
39A
  8
05
 10
103.956315
 20
118.881982
 30
0.0
 40
4.95
  0
LINE
  5
39B
  8
MITTE
 10
96.6509
 20
118.881982
 30
0.0
 11
111.516359
 21
118.881982
 31
0.0
  0
LINE
  5
39C
  8
BEM1
 10
99.012261
 20
125.734633
 30
0.0
 11
96.964429
 21
128.57301
 31
0.0
  0
LINE
  5
39D
  8
BEM1
 10
112.316359
 20
118.881982
 30
0.0
 11
120.560003
 21
118.881982
 31
0.0
  0
SOLID
  5
39E
  8
BEM1
 10
120.343337
 20
115.381982
 30
0.0
 11
119.17667
 21
115.381982
 31
0.0
 12
119.760003
 22
118.881982
 32
0.0
 13
119.760003
 23
118.881982
 33
0.0
  0
LINE
  5
39F
  8
BEM1
 10
185.282367
 20
95.642984
 30
0.0
 11
185.282367
 21
133.034089
 31
0.0
  0
LINE
  5
3A0
  8
BEM1
 10
185.282367
 20
95.673712
 30
0.0
 11
185.282367
 21
133.122016
 31
0.0
  0
TEXT
  5
3A1
  8
BEM1
 62
     3
 10
174.585795
 20
87.43127
 30
0.0
 40
3.5
  1
6.98 [0.275"]
 50
90.0
 41
0.7
 51
15.0
 72
     1
 11
172.835795
 21
99.885437
 31
0.0
 73
     2
  0
LINE
  5
3A2
  8
BEM1
 10
175.877681
 20
110.528712
 30
0.0
 11
175.877681
 21
93.073712
 31
0.0
  0
TEXT
  5
3A3
  8
BEM1
 62
     3
 10
167.29929
 20
79.734112
 30
0.0
 40
3.5
  1
0.635 [0.025"]
 50
90.0
 41
0.7
 51
15.0
  0
LINE
  5
3A4
  8
BEM1
 10
169.04929
 20
74.023712
 30
0.0
 11
169.04929
 21
106.205955
 31
0.0
  0
CIRCLE
  5
3A5
  8
05
 10
198.617367
 20
102.598712
 30
0.0
 40
2.4
  0
LINE
  5
3A6
  8
BEM1
 10
198.617367
 20
107.100641
 30
0.0
 11
198.617367
 21
79.457297
 31
0.0
  0
LINE
  5
3A7
  8
BEM1
 10
198.617367
 20
101.098712
 30
0.0
 11
198.617367
 21
104.098712
 31
0.0
  0
TEXT
  5
3A8
  8
BEM1
 62
     3
 10
158.817219
 20
82.323962
 30
0.0
 40
3.5
  1
12.70 [0.500"]
 50
90.0
 41
0.7
 51
15.0
  0
LINE
  5
3A9
  8
BEM1
 10
161.543772
 20
79.428712
 30
0.0
 11
161.543772
 21
110.528712
 31
0.0
  0
LINE
  5
3AA
  8
BEM1
 10
182.682367
 20
93.073712
 30
0.0
 11
175.077681
 21
93.073712
 31
0.0
  0
LINE
  5
3AB
  8
BEM1
 10
195.417367
 20
75.928712
 30
0.0
 11
175.109654
 21
75.928712
 31
0.0
  0
LINE
  5
3AC
  8
BEM1
 10
207.747367
 20
62.593712
 30
0.0
 11
160.098617
 21
62.593712
 31
0.0
  0
LINE
  5
3AD
  8
BEM1
 10
196.602367
 20
75.928712
 30
0.0
 11
160.098617
 21
75.928712
 31
0.0
  0
SOLID
  5
3AE
  8
BEM1
 10
169.632623
 20
79.428712
 30
0.0
 11
168.465957
 21
79.428712
 31
0.0
 12
169.04929
 22
75.928712
 32
0.0
 13
169.04929
 23
75.928712
 33
0.0
  0
SOLID
  5
3AF
  8
BEM1
 10
162.127105
 20
79.428712
 30
0.0
 11
160.960438
 21
79.428712
 31
0.0
 12
161.543772
 22
75.928712
 32
0.0
 13
161.543772
 23
75.928712
 33
0.0
  0
LINE
  5
3B0
  8
BEM1
 10
169.04929
 20
70.523712
 30
0.0
 11
169.04929
 21
67.023712
 31
0.0
  0
SOLID
  5
3B1
  8
BEM1
 10
162.127105
 20
59.093712
 30
0.0
 11
160.960438
 21
59.093712
 31
0.0
 12
161.543772
 22
62.593712
 32
0.0
 13
161.543772
 23
62.593712
 33
0.0
  0
SOLID
  5
3B2
  8
BEM1
 10
169.632623
 20
70.523712
 30
0.0
 11
168.465957
 21
70.523712
 31
0.0
 12
169.04929
 22
74.023712
 32
0.0
 13
169.04929
 23
74.023712
 33
0.0
  0
SOLID
  5
3B3
  8
BEM1
 10
175.294348
 20
96.573712
 30
0.0
 11
176.461015
 21
96.573712
 31
0.0
 12
175.877681
 22
93.073712
 32
0.0
 13
175.877681
 23
93.073712
 33
0.0
  0
TEXT
  5
3B4
  8
035
 10
204.887375
 20
65.682403
 30
0.0
 40
4.5
  1
3
  7
HELV
  0
SOLID
  5
3B5
  8
BEM1
 10
208.441393
 20
57.509312
 30
0.0
 11
207.374024
 21
57.980306
 31
0.0
 12
209.320691
 22
60.946914
 32
0.0
 13
209.320691
 23
60.946914
 33
0.0
  0
TEXT
  5
3B6
  8
035
 10
194.031341
 20
68.642939
 30
0.0
 40
4.5
  1
1
  7
HELV
  0
LINE
  5
3B7
  8
BEM1
 10
197.117367
 20
75.928712
 30
0.0
 11
200.117367
 21
75.928712
 31
0.0
  0
CIRCLE
  5
3B8
  8
05
 10
198.617367
 20
75.928712
 30
0.0
 40
2.4
  0
LINE
  5
3B9
  8
BEM1
 10
198.617367
 20
74.428712
 30
0.0
 11
198.617367
 21
77.428712
 31
0.0
  0
TEXT
  5
3BA
  8
035
 10
179.466513
 20
86.447136
 30
0.0
 40
4.5
  1
G
  7
HELV
  0
LINE
  5
3BB
  8
BEM1
 10
183.782367
 20
93.073712
 30
0.0
 11
186.782367
 21
93.073712
 31
0.0
  0
CIRCLE
  5
3BC
  8
05
 10
185.282367
 20
93.073712
 30
0.0
 40
1.8
  0
LINE
  5
3BD
  8
BEM1
 10
185.282367
 20
91.573712
 30
0.0
 11
185.282367
 21
94.573712
 31
0.0
  0
LINE
  5
3BE
  8
05
 10
157.979718
 20
120.028712
 30
0.0
 11
177.047367
 21
120.028712
 31
0.0
  0
LINE
  5
3BF
  8
05
 10
157.979718
 20
114.028712
 30
0.0
 11
177.047367
 21
114.028712
 31
0.0
  0
POLYLINE
  5
3C0
  8
025
 66
     1
 10
0.0
 20
0.0
 30
0.0
  0
VERTEX
  5
B26
  8
025
 10
157.979718
 20
120.028712
 30
0.0
  0
VERTEX
  5
B27
  8
025
 10
157.310372
 20
118.060693
 30
0.0
  0
VERTEX
  5
B28
  8
025
 10
157.841181
 20
116.761262
 30
0.0
  0
VERTEX
  5
B29
  8
025
 10
158.725864
 20
116.01873
 30
0.0
  0
VERTEX
  5
B2A
  8
025
 10
157.979718
 20
114.028712
 30
0.0
  0
SEQEND
  5
B2B
  8
025
  0
SOLID
  5
3C1
  8
BEM1
 10
175.294348
 20
110.528712
 30
0.0
 11
176.461015
 21
110.528712
 31
0.0
 12
175.877681
 22
114.028712
 32
0.0
 13
175.877681
 23
114.028712
 33
0.0
  0
SOLID
  5
3C2
  8
BEM1
 10
162.127105
 20
110.528712
 30
0.0
 11
160.960438
 21
110.528712
 31
0.0
 12
161.543772
 22
114.028712
 32
0.0
 13
161.543772
 23
114.028712
 33
0.0
  0
LINE
  5
3C3
  8
05
 10
177.047367
 20
120.028712
 30
0.0
 11
177.047367
 21
114.028712
 31
0.0
  0
LINE
  5
3C4
  8
BEM1
 10
198.617367
 20
107.864856
 30
0.0
 11
198.617367
 21
125.819825
 31
0.0
  0
SOLID
  5
3C5
  8
BEM1
 10
195.117367
 20
124.436491
 30
0.0
 11
195.117367
 21
125.603158
 31
0.0
 12
198.617367
 22
125.019825
 32
0.0
 13
198.617367
 23
125.019825
 33
0.0
  0
LINE
  5
3C6
  8
BEM1
 10
197.117367
 20
102.598712
 30
0.0
 11
200.117367
 21
102.598712
 31
0.0
  0
TEXT
  5
3C7
  8
BEM1
 62
     3
 10
185.475694
 20
126.791375
 30
0.0
 40
3.5
  1
3.81 [0.150"]
 41
0.7
 51
15.0
  0
SOLID
  5
3C8
  8
BEM1
 10
188.782367
 20
132.905349
 30
0.0
 11
188.782367
 21
131.738682
 31
0.0
 12
185.282367
 22
132.322016
 32
0.0
 13
185.282367
 23
132.322016
 33
0.0
  0
ARC
  5
3C9
  8
05
 10
78.902543
 20
238.121446
 30
0.0
 40
0.6
 50
77.232658
 51
150.0
  0
TEXT
  5
3CA
  8
BEM1
 62
     3
 10
71.306871
 20
279.530097
 30
0.0
 40
3.5
  1
[0.780"   ]
 41
0.7
 51
15.0
  0
LINE
  5
3CB
  8
05
 10
103.4298
 20
177.801515
 30
0.0
 11
58.131315
 21
177.801515
 31
0.0
  0
TEXT
  5
3CC
  8
BEM1
 62
     3
 10
61.968117
 20
271.072155
 30
0.0
 40
3.5
  1
10.00 [0.394"]
 41
0.7
 51
15.0
 72
     1
 11
74.62645
 21
272.822155
 31
0.0
 73
     2
  0
LINE
  5
3CD
  8
BEM1
 10
62.231315
 20
269.280097
 30
0.0
 11
88.731315
 21
269.280097
 31
0.0
  0
ARC
  5
3CE
  8
035
 10
73.731315
 20
215.184981
 30
0.0
 40
30.3
 50
61.15
 51
118.85
  0
ARC
  5
3CF
  8
035
 10
73.731315
 20
234.68498
 30
0.0
 40
30.0
 50
67.65775
 51
90.0
  0
TEXT
  5
3D0
  8
035
 10
63.635239
 20
250.430544
 30
0.0
 40
5.4
  1
PUSH
  7
HELVL
  0
LINE
  5
3D2
  8
BEM1
 10
94.8298
 20
185.601515
 30
0.0
 11
26.36968
 21
185.601515
 31
0.0
  0
LINE
  5
3D3
  8
BEM1
 10
47.53283
 20
277.780097
 30
0.0
 11
99.9298
 21
277.780097
 31
0.0
  0
ARC
  5
3D4
  8
05
 10
73.731315
 20
215.3
 30
0.0
 40
29.25
 50
113.271481
 51
66.728519
  0
ARC
  5
3D5
  8
05
 10
73.731315
 20
215.3
 30
0.0
 40
32.7
 50
122.755667
 51
57.244333
  0
LINE
  5
3D6
  8
MITTE
 10
108.32781
 20
215.3
 30
0.0
 11
38.913106
 21
215.3
 31
0.0
  0
ARC
  5
3D7
  8
05
 10
73.731315
 20
215.3
 30
0.0
 40
24.0
 50
140.415958
 51
77.232658
  0
LINE
  5
3D8
  8
035
 10
77.478034
 20
222.8
 30
0.0
 11
79.127551
 21
222.8
 31
0.0
  0
LINE
  5
3D9
  8
035
 10
78.009946
 20
225.199296
 30
0.0
 11
82.219499
 21
225.199296
 31
0.0
  0
ARC
  5
3DA
  8
05
 10
44.03283
 20
244.998485
 30
0.0
 40
7.8
 50
62.465414
 51
214.346556
  0
LINE
  5
3DB
  8
035
 10
69.231315
 20
238.158846
 30
0.0
 11
69.231315
 21
244.044939
 31
0.0
  0
LINE
  5
3DC
  8
035
 10
78.231315
 20
238.158846
 30
0.0
 11
78.231315
 21
244.044939
 31
0.0
  0
LINE
  5
3DD
  8
035
 10
70.431315
 20
236.601798
 30
0.0
 11
70.431315
 21
241.958242
 31
0.0
  0
LINE
  5
3DE
  8
035
 10
77.031315
 20
236.601798
 30
0.0
 11
77.031315
 21
241.958242
 31
0.0
  0
LINE
  5
3DF
  8
035
 10
71.052809
 20
245.364444
 30
0.0
 11
71.031315
 21
237.951692
 31
0.0
  0
LINE
  5
3E0
  8
035
 10
76.431315
 20
245.364444
 30
0.0
 11
76.431315
 21
237.951692
 31
0.0
  0
LINE
  5
3E1
  8
BEM1
 10
27.16968
 20
241.498485
 30
0.0
 11
27.16968
 21
189.101515
 31
0.0
  0
ARC
  5
3E2
  8
05
 10
57.075581
 20
241.148578
 30
0.0
 40
1.5
 50
302.796026
 51
30.0
  0
LINE
  5
3E3
  8
MITTE
 10
44.03283
 20
251.898485
 30
0.0
 11
44.03283
 21
238.098485
 31
0.0
  0
CIRCLE
  5
3E4
  8
05
 10
44.03283
 20
244.998485
 30
0.0
 40
4.2
  0
LINE
  5
3E5
  8
MITTE
 10
73.731315
 20
248.145432
 30
0.0
 11
73.731315
 21
172.158519
 31
0.0
  0
LINE
  5
3E6
  8
05
 10
65.331315
 20
242.69355
 30
0.0
 11
65.331315
 21
237.781993
 31
0.0
  0
ARC
  5
3E7
  8
05
 10
73.731315
 20
215.3
 30
0.0
 40
35.4
 50
210.286897
 51
239.713104
  0
ARC
  5
3E8
  8
05
 10
73.731315
 20
215.300004
 30
0.0
 40
37.498485
 50
208.353347
 51
244.835805
  0
TEXT
  5
3E9
  8
035
 10
71.856603
 20
194.220848
 30
0.0
 40
4.5
  1
3
  7
UNIV
  0
SOLID
  5
3EB
  8
BEM1
 10
27.753013
 20
189.101515
 30
0.0
 11
26.586346
 21
189.101515
 31
0.0
 12
27.16968
 22
185.601515
 32
0.0
 13
27.16968
 23
185.601515
 33
0.0
  0
LINE
  5
3EC
  8
MITTE
 10
73.731315
 20
177.801515
 30
0.0
 11
73.731315
 21
167.301511
 31
0.0
  0
LINE
  5
3ED
  8
035
 10
72.981315
 20
177.801515
 30
0.0
 11
72.981315
 21
167.301511
 31
0.0
  0
LINE
  5
3EE
  8
035
 10
74.481315
 20
177.801515
 30
0.0
 11
74.481315
 21
167.301511
 31
0.0
  0
LINE
  5
3EF
  8
035
 10
62.331315
 20
173.301515
 30
0.0
 11
62.331315
 21
167.301511
 31
0.0
  0
LINE
  5
3F0
  8
MITTE
 10
61.581315
 20
173.301515
 30
0.0
 11
61.581315
 21
167.301511
 31
0.0
  0
LINE
  5
3F1
  8
035
 10
60.831315
 20
173.301515
 30
0.0
 11
60.831315
 21
167.301511
 31
0.0
  0
LINE
  5
3F2
  8
MITTE
 10
62.301315
 20
180.706815
 30
0.0
 11
62.301315
 21
170.68409
 31
0.0
  0
LINE
  5
3F3
  8
035
 10
60.831315
 20
167.301511
 30
0.0
 11
62.331315
 21
167.301511
 31
0.0
  0
LINE
  5
3F4
  8
035
 10
74.481315
 20
167.301511
 30
0.0
 11
72.981315
 21
167.301511
 31
0.0
  0
LINE
  5
3F5
  8
05
 10
64.551315
 20
173.901515
 30
0.0
 11
60.051315
 21
173.901515
 31
0.0
  0
LINE
  5
3F6
  8
05
 10
63.951315
 20
173.301515
 30
0.0
 11
60.651315
 21
173.301515
 31
0.0
  0
LINE
  5
3F7
  8
05
 10
54.346821
 20
183.200506
 30
0.0
 11
57.857593
 21
186.711279
 31
0.0
  0
LINE
  5
3F8
  8
05
 10
60.051315
 20
177.801515
 30
0.0
 11
60.051315
 21
173.901515
 31
0.0
  0
LINE
  5
3F9
  8
05
 10
60.651315
 20
173.301515
 30
0.0
 11
60.051315
 21
173.901515
 31
0.0
  0
LINE
  5
3FA
  8
05
 10
58.131315
 20
180.817334
 30
0.0
 11
58.131315
 21
177.801515
 31
0.0
  0
ARC
  5
3FB
  8
05
 10
57.531315
 20
180.817334
 30
0.0
 40
0.6
 50
0.0
 51
64.835805
  0
LINE
  5
3FC
  8
05
 10
64.551315
 20
177.801515
 30
0.0
 11
64.551315
 21
173.901515
 31
0.0
  0
LINE
  5
3FD
  8
05
 10
64.551315
 20
173.901515
 30
0.0
 11
63.951315
 21
173.301515
 31
0.0
  0
TEXT
  5
3FE
  8
BEM1
 62
     3
 10
25.348771
 20
213.411664
 30
0.0
 40
3.5
  1
[0.780"   ]
 50
90.0
 41
0.7
 51
15.0
  0
LINE
  5
3FF
  8
05
 10
40.731315
 20
197.643895
 30
0.0
 11
40.731315
 21
230.442199
 31
0.0
  0
INSERT
  5
400
  8
BEM1
  2
3
 10
23.877795
 20
206.162144
 30
0.0
 50
90.0
  0
TEXT
  5
401
  8
BEM1
 62
     3
 10
25.348771
 20
196.21837
 30
0.0
 40
3.5
  1
19.80
 50
90.0
 41
0.7
 51
15.0
  0
LINE
  5
402
  8
05
 10
41.631821
 20
195.915505
 30
0.0
 11
45.142594
 21
199.426278
 31
0.0
  0
LINE
  5
403
  8
05
 10
40.731315
 20
198.95
 30
0.0
 11
40.731315
 21
195.95
 31
0.0
  0
ARC
  5
404
  8
05
 10
41.331315
 20
197.643895
 30
0.0
 40
0.6
 50
180.0
 51
208.587806
  0
LINE
  5
405
  8
05
 10
38.481315
 20
198.95
 30
0.0
 11
38.481315
 21
195.95
 31
0.0
  0
LINE
  5
406
  8
05
 10
37.731315
 20
198.95
 30
0.0
 11
37.731315
 21
196.7
 31
0.0
  0
LINE
  5
407
  8
05
 10
38.481315
 20
195.95
 30
0.0
 11
37.731315
 21
196.7
 31
0.0
  0
LINE
  5
408
  8
05
 10
41.611014
 20
195.95
 30
0.0
 11
38.481315
 21
195.95
 31
0.0
  0
LINE
  5
409
  8
05
 10
37.731315
 20
198.95
 30
0.0
 11
40.731315
 21
198.95
 31
0.0
  0
TEXT
  5
40A
  8
SCHRAFFIERT
 10
24.835412
 20
226.173686
 30
0.0
 40
2.5
  1
%%p0.004
 50
90.0
 41
0.7
 51
15.0
  0
ARC
  5
40B
  8
05
 10
22.731315
 20
230.442199
 30
0.0
 40
18.0
 50
360.0
 51
34.346556
  0
LINE
  5
40C
  8
035
 10
60.831315
 20
219.127205
 30
0.0
 11
60.831315
 21
217.7
 31
0.0
  0
LINE
  5
40D
  8
035
 10
62.331315
 20
219.127205
 30
0.0
 11
62.331315
 21
217.7
 31
0.0
  0
LINE
  5
40E
  8
MITTE
 10
61.581315
 20
219.2
 30
0.0
 11
61.581315
 21
211.4
 31
0.0
  0
CIRCLE
  5
40F
  8
035
 62
     4
 10
73.731315
 20
215.3
 30
0.0
 40
3.9
  0
CIRCLE
  5
410
  8
035
 62
     4
 10
73.731315
 20
215.3
 30
0.0
 40
3.342857
  0
INSERT
  5
411
  8
035
 62
     4
  2
*X3
 10
13.709284
 20
-9.245563
 30
0.0
 41
1.114286
 42
1.114286
 43
1.114286
  0
CIRCLE
  5
449
  8
05
 10
61.581315
 20
215.3
 30
0.0
 40
3.75
  0
TEXT
  5
44A
  8
035
 10
59.593453
 20
205.914175
 30
0.0
 40
4.5
  1
2
  7
UNIV
  0
LINE
  5
44B
  8
035
 10
60.831315
 20
212.9
 30
0.0
 11
60.831315
 21
211.472795
 31
0.0
  0
LINE
  5
44C
  8
035
 10
62.331315
 20
212.9
 30
0.0
 11
62.331315
 21
211.472795
 31
0.0
  0
LINE
  5
44D
  8
035
 10
62.331315
 20
212.9
 30
0.0
 11
60.831315
 21
212.9
 31
0.0
  0
LINE
  5
44E
  8
035
 10
62.331315
 20
217.7
 30
0.0
 11
60.831315
 21
217.7
 31
0.0
  0
LINE
  5
44F
  8
035
 10
72.981315
 20
207.277205
 30
0.0
 11
72.981315
 21
205.85
 31
0.0
  0
LINE
  5
450
  8
035
 10
74.481315
 20
207.277205
 30
0.0
 11
74.481315
 21
205.85
 31
0.0
  0
CIRCLE
  5
451
  8
05
 10
73.731315
 20
203.45
 30
0.0
 40
3.75
  0
LINE
  5
452
  8
MITTE
 10
77.631315
 20
203.45
 30
0.0
 11
69.831315
 21
203.45
 31
0.0
  0
LINE
  5
453
  8
035
 10
74.481315
 20
201.05
 30
0.0
 11
74.481315
 21
199.622795
 31
0.0
  0
LINE
  5
454
  8
035
 10
72.981315
 20
201.05
 30
0.0
 11
72.981315
 21
199.622795
 31
0.0
  0
LINE
  5
455
  8
035
 10
74.481315
 20
201.05
 30
0.0
 11
72.981315
 21
201.05
 31
0.0
  0
LINE
  5
456
  8
035
 10
74.481315
 20
205.85
 30
0.0
 11
72.981315
 21
205.85
 31
0.0
  0
ARC
  5
457
  8
035
 62
     4
 10
73.731315
 20
215.3
 30
0.0
 40
2.507143
 50
58.909008
 51
126.716102
  0
ARC
  5
458
  8
035
 62
     4
 10
73.731315
 20
215.3
 30
0.0
 40
2.061429
 50
58.961019
 51
80.12911
  0
LINE
  5
459
  8
035
 62
     4
 10
74.537543
 20
214.59527
 30
0.0
 11
75.627565
 21
213.987456
 31
0.0
  0
ARC
  5
45A
  8
035
 62
     4
 10
74.651506
 20
214.799644
 30
0.0
 40
0.211714
 50
60.855218
 51
151.46476
  0
LINE
  5
45B
  8
035
 62
     4
 10
74.360851
 20
217.26295
 30
0.0
 11
74.707284
 21
217.609383
 31
0.0
  0
LINE
  5
45C
  8
035
 62
     4
 10
74.48854
 20
214.632922
 30
0.0
 11
74.809542
 21
214.953925
 31
0.0
  0
LINE
  5
45D
  8
BEM1
 10
73.731315
 20
214.4
 30
0.0
 11
73.731315
 21
216.2
 31
0.0
  0
LINE
  5
45E
  8
BEM1
 10
72.831315
 20
215.3
 30
0.0
 11
74.631315
 21
215.3
 31
0.0
  0
LINE
  5
45F
  8
035
 62
     4
 10
72.076516
 20
213.75598
 30
0.0
 11
72.060151
 21
213.740711
 31
0.0
  0
ARC
  5
460
  8
035
 62
     4
 10
73.731315
 20
215.3
 30
0.0
 40
0.835714
 50
330.245677
 51
331.46476
  0
LINE
  5
461
  8
035
 62
     4
 10
72.216657
 20
216.981715
 30
0.0
 11
72.201678
 21
216.998346
 31
0.0
  0
ARC
  5
462
  8
035
 62
     4
 10
73.731315
 20
215.3
 30
0.0
 40
2.507143
 50
269.721864
 51
270.278136
  0
ARC
  5
463
  8
035
 62
     4
 10
73.731315
 20
215.3
 30
0.0
 40
0.835714
 50
150.245677
 51
151.46476
  0
ARC
  5
464
  8
035
 62
     4
 10
73.731315
 20
215.3
 30
0.0
 40
2.507143
 50
150.577083
 51
217.724479
  0
ARC
  5
465
  8
035
 62
     4
 10
73.731315
 20
215.3
 30
0.0
 40
2.061429
 50
99.87089
 51
126.664068
  0
ARC
  5
466
  8
035
 62
     4
 10
73.731315
 20
215.3
 30
0.0
 40
2.061429
 50
160.726108
 51
217.672445
  0
LINE
  5
467
  8
035
 62
     4
 10
71.944877
 20
216.040985
 30
0.0
 11
72.708016
 21
215.615446
 31
0.0
  0
LINE
  5
468
  8
035
 62
     4
 10
71.835066
 20
216.612544
 30
0.0
 11
72.925087
 21
216.004729
 31
0.0
  0
LINE
  5
469
  8
035
 62
     4
 10
73.508458
 20
213.004598
 30
0.0
 11
73.508458
 21
217.221133
 31
0.0
  0
LINE
  5
46A
  8
035
 62
     4
 10
73.954172
 20
213.004598
 30
0.0
 11
73.954172
 21
217.221133
 31
0.0
  0
ARC
  5
46B
  8
035
 62
     4
 10
71.915718
 20
213.895507
 30
0.0
 40
0.211714
 50
217.724479
 51
313.016562
  0
ARC
  5
46C
  8
035
 62
     4
 10
71.932083
 20
213.910777
 30
0.0
 40
0.211714
 50
313.016562
 51
37.672445
  0
ARC
  5
46D
  8
035
 62
     4
 10
71.731957
 20
216.427634
 30
0.0
 40
0.211714
 50
60.855218
 51
150.577083
  0
ARC
  5
46E
  8
035
 62
     4
 10
72.811124
 20
215.800356
 30
0.0
 40
0.211714
 50
240.855218
 51
331.46476
  0
ARC
  5
46F
  8
035
 62
     4
 10
72.821978
 20
215.81982
 30
0.0
 40
0.211714
 50
330.245677
 51
60.855218
  0
ARC
  5
470
  8
035
 62
     4
 10
72.358992
 20
217.140033
 30
0.0
 40
0.211714
 50
126.716102
 51
222.008185
  0
ARC
  5
471
  8
035
 62
     4
 10
72.373971
 20
217.123402
 30
0.0
 40
0.211714
 50
222.008185
 51
306.664068
  0
ARC
  5
472
  8
035
 62
     4
 10
74.640652
 20
214.78018
 30
0.0
 40
0.211714
 50
150.245677
 51
240.855218
  0
ARC
  5
473
  8
035
 62
     4
 10
73.720172
 20
213.004598
 30
0.0
 40
0.211714
 50
180.0
 51
269.721864
  0
ARC
  5
474
  8
035
 62
     4
 10
73.742458
 20
213.004598
 30
0.0
 40
0.211714
 50
270.278136
 51
0.0
  0
ARC
  5
475
  8
035
 62
     4
 10
73.397029
 20
217.221133
 30
0.0
 40
0.111429
 50
0.0
 51
99.87089
  0
ARC
  5
476
  8
035
 62
     4
 10
74.065601
 20
217.221133
 30
0.0
 40
0.111429
 50
80.12911
 51
180.0
  0
ARC
  5
477
  8
035
 62
     4
 10
71.89061
 20
215.943664
 30
0.0
 40
0.111429
 50
60.855218
 51
160.726108
  0
INSERT
  5
478
  8
035
 62
     4
  2
*X4
 10
13.709284
 20
-9.245563
 30
0.0
 41
1.114286
 42
1.114286
 43
1.114286
  0
LINE
  5
489
  8
035
 62
     4
 10
73.508458
 20
214.834719
 30
0.0
 11
73.954172
 21
215.280433
 31
0.0
  0
LINE
  5
48A
  8
035
 62
     4
 10
73.508458
 20
215.228679
 30
0.0
 11
73.954172
 21
215.674393
 31
0.0
  0
LINE
  5
48B
  8
035
 62
     4
 10
73.508458
 20
215.622638
 30
0.0
 11
73.954172
 21
216.068352
 31
0.0
  0
LINE
  5
48C
  8
035
 62
     4
 10
73.508458
 20
216.016598
 30
0.0
 11
73.954172
 21
216.462312
 31
0.0
  0
LINE
  5
48D
  8
035
 62
     4
 10
73.508458
 20
216.410557
 30
0.0
 11
73.954172
 21
216.856271
 31
0.0
  0
LINE
  5
48E
  8
035
 62
     4
 10
73.508458
 20
216.804517
 30
0.0
 11
73.959683
 21
217.255742
 31
0.0
  0
LINE
  5
48F
  8
035
 62
     4
 10
74.030992
 20
217.327051
 30
0.0
 11
74.41583
 21
217.711888
 31
0.0
  0
LINE
  5
490
  8
035
 62
     4
 10
73.508458
 20
217.198476
 30
0.0
 11
74.091166
 21
217.781184
 31
0.0
  0
LINE
  5
491
  8
035
 62
     4
 10
73.210601
 20
217.294579
 30
0.0
 11
73.723152
 21
217.80713
 31
0.0
  0
LINE
  5
492
  8
035
 62
     4
 10
72.446597
 20
216.924534
 30
0.0
 11
73.290072
 21
217.768009
 31
0.0
  0
LINE
  5
493
  8
035
 62
     4
 10
72.170919
 20
217.042815
 30
0.0
 11
72.723977
 21
217.595873
 31
0.0
  0
LINE
  5
494
  8
035
 62
     4
 10
73.508458
 20
214.44076
 30
0.0
 11
73.954172
 21
214.886474
 31
0.0
  0
LINE
  5
495
  8
035
 62
     4
 10
73.508458
 20
214.0468
 30
0.0
 11
73.954172
 21
214.492514
 31
0.0
  0
LINE
  5
496
  8
035
 62
     4
 10
73.508458
 20
213.652841
 30
0.0
 11
73.954172
 21
214.098555
 31
0.0
  0
LINE
  5
497
  8
035
 62
     4
 10
73.508458
 20
213.258881
 30
0.0
 11
73.954172
 21
213.704595
 31
0.0
  0
LINE
  5
498
  8
035
 62
     4
 10
73.538846
 20
212.89531
 30
0.0
 11
73.954172
 21
213.310636
 31
0.0
  0
ARC
  5
499
  8
035
 62
     4
 10
73.731315
 20
215.3
 30
0.0
 40
2.507143
 50
330.577083
 51
35.346236
  0
LINE
  5
49A
  8
035
 62
     4
 10
75.073839
 20
217.122082
 30
0.0
 11
75.087116
 21
217.140101
 31
0.0
  0
LINE
  5
49B
  8
035
 62
     4
 10
75.44876
 20
216.774022
 30
0.0
 11
75.465744
 21
216.788599
 31
0.0
  0
ARC
  5
49C
  8
035
 62
     4
 10
73.731315
 20
215.3
 30
0.0
 40
2.061429
 50
340.726108
 51
35.294203
  0
LINE
  5
49D
  8
035
 62
     4
 10
74.754614
 20
214.984554
 30
0.0
 11
75.517753
 21
214.559015
 31
0.0
  0
ARC
  5
49E
  8
035
 62
     4
 10
74.916671
 20
217.265686
 30
0.0
 40
0.211714
 50
323.616924
 51
58.909008
  0
ARC
  5
49F
  8
035
 62
     4
 10
74.903395
 20
217.247667
 30
0.0
 40
0.211714
 50
238.961041
 51
323.616924
  0
ARC
  5
4A0
  8
035
 62
     4
 10
75.586645
 20
216.613365
 30
0.0
 40
0.211714
 50
130.63832
 51
215.294203
  0
ARC
  5
4A1
  8
035
 62
     4
 10
75.60363
 20
216.627942
 30
0.0
 40
0.211714
 50
35.346236
 51
130.63832
  0
ARC
  5
4A2
  8
035
 62
     4
 10
75.730673
 20
214.172366
 30
0.0
 40
0.211714
 50
240.855218
 51
330.577083
  0
ARC
  5
4A3
  8
035
 62
     4
 10
75.57202
 20
214.656336
 30
0.0
 40
0.111429
 50
240.855218
 51
340.726108
  0
LINE
  5
4A4
  8
035
 62
     4
 10
74.92265
 20
217.03683
 30
0.0
 11
75.126958
 21
217.241138
 31
0.0
  0
LINE
  5
4A5
  8
035
 62
     4
 10
74.641479
 20
217.149619
 30
0.0
 11
74.971043
 21
217.479183
 31
0.0
  0
LINE
  5
4A6
  8
035
 62
     4
 10
75.715309
 20
215.859692
 30
0.0
 11
76.066957
 21
216.21134
 31
0.0
  0
LINE
  5
4A7
  8
035
 62
     4
 10
75.610063
 20
216.148406
 30
0.0
 11
75.9428
 21
216.481143
 31
0.0
  0
LINE
  5
4A8
  8
035
 62
     4
 10
75.472004
 20
216.404305
 30
0.0
 11
75.793536
 21
216.725837
 31
0.0
  0
LINE
  5
4A9
  8
035
 62
     4
 10
74.734834
 20
214.485258
 30
0.0
 11
75.062467
 21
214.81289
 31
0.0
  0
LINE
  5
4AA
  8
035
 62
     4
 10
75.779843
 20
215.530266
 30
0.0
 11
76.162406
 21
215.91283
 31
0.0
  0
LINE
  5
4AB
  8
035
 62
     4
 10
74.987759
 20
214.344223
 30
0.0
 11
75.315391
 21
214.671855
 31
0.0
  0
LINE
  5
4AC
  8
035
 62
     4
 10
75.786774
 20
215.143238
 30
0.0
 11
76.22285
 21
215.579314
 31
0.0
  0
LINE
  5
4AD
  8
035
 62
     4
 10
75.240683
 20
214.203188
 30
0.0
 11
75.582939
 21
214.545443
 31
0.0
  0
LINE
  5
4AE
  8
035
 62
     4
 10
75.687628
 20
214.650132
 30
0.0
 11
76.23642
 21
215.198924
 31
0.0
  0
LINE
  5
4AF
  8
035
 62
     4
 10
75.493608
 20
214.062153
 30
0.0
 11
76.176199
 21
214.744743
 31
0.0
  0
LINE
  5
4B0
  8
035
 62
     4
 10
75.796589
 20
213.971174
 30
0.0
 11
75.941107
 21
214.115692
 31
0.0
  0
LINE
  5
4B1
  8
035
 10
61.432742
 20
222.8
 30
0.0
 11
65.931422
 21
222.8
 31
0.0
  0
LINE
  5
4B2
  8
035
 10
61.964653
 20
225.199296
 30
0.0
 11
66.463333
 21
225.199296
 31
0.0
  0
ARC
  5
4B3
  8
05
 10
73.731315
 20
215.3
 30
0.0
 40
24.0
 50
102.767342
 51
129.584042
  0
ARC
  5
4B4
  8
05
 10
57.397148
 20
231.634167
 30
0.0
 40
2.4
 50
42.022256
 51
227.977744
  0
LINE
  5
4B5
  8
035
 10
55.284545
 20
222.8
 30
0.0
 11
55.816457
 21
225.199296
 31
0.0
  0
LINE
  5
4B6
  8
035
 10
56.934061
 20
222.8
 30
0.0
 11
57.233261
 21
224.149604
 31
0.0
  0
LINE
  5
4B7
  8
035
 10
60.607984
 20
222.8
 30
0.0
 11
61.139895
 21
225.199296
 31
0.0
  0
LINE
  5
4B8
  8
035
 10
57.233261
 20
224.149604
 30
0.0
 11
58.733534
 21
222.8
 31
0.0
  0
LINE
  5
4B9
  8
035
 10
61.432742
 20
222.8
 30
0.0
 11
61.964653
 21
225.199296
 31
0.0
  0
LINE
  5
4BA
  8
035
 10
55.284545
 20
222.8
 30
0.0
 11
56.934061
 21
222.8
 31
0.0
  0
LINE
  5
4BB
  8
035
 10
58.733534
 20
222.8
 30
0.0
 11
60.607984
 21
222.8
 31
0.0
  0
LINE
  5
4BC
  8
035
 10
57.765885
 20
225.199296
 30
0.0
 11
59.257668
 21
224.149604
 31
0.0
  0
LINE
  5
4BD
  8
035
 10
55.816457
 20
225.199296
 30
0.0
 11
57.765885
 21
225.199296
 31
0.0
  0
LINE
  5
4BE
  8
035
 10
59.257668
 20
224.149604
 30
0.0
 11
59.490379
 21
225.199296
 31
0.0
  0
LINE
  5
4BF
  8
035
 10
59.490379
 20
225.199296
 30
0.0
 11
61.139895
 21
225.199296
 31
0.0
  0
LINE
  5
4C0
  8
035
 10
70.338679
 20
223.661479
 30
0.0
 11
70.679605
 21
225.199296
 31
0.0
  0
POLYLINE
  5
4C1
  8
035
 66
     1
 10
0.0
 20
0.0
 30
0.0
  0
VERTEX
  5
B2C
  8
035
 10
66.837469
 20
223.474802
 30
0.0
 42
0.242955
  0
VERTEX
  5
B2D
  8
035
 10
66.953148
 20
223.250788
 30
0.0
 42
0.083039
  0
VERTEX
  5
B2E
  8
035
 10
67.584127
 20
222.944627
 30
0.0
 42
0.041229
  0
VERTEX
  5
B2F
  8
035
 10
68.339935
 20
222.788551
 30
0.0
 42
0.030317
  0
VERTEX
  5
B30
  8
035
 10
69.386721
 20
222.725022
 30
0.0
 42
0.030317
  0
VERTEX
  5
B31
  8
035
 10
70.433507
 20
222.788551
 30
0.0
 42
0.041229
  0
VERTEX
  5
B32
  8
035
 10
71.189314
 20
222.944627
 30
0.0
 42
0.083039
  0
VERTEX
  5
B33
  8
035
 10
71.820294
 20
223.250788
 30
0.0
 42
0.186877
  0
VERTEX
  5
B34
  8
035
 10
71.929685
 20
223.416357
 30
0.0
 42
0.242955
  0
SEQEND
  5
B35
  8
035
  0
LINE
  5
4C2
  8
035
 10
65.909279
 20
223.714732
 30
0.0
 11
66.035608
 21
224.284564
 31
0.0
  0
LINE
  5
4C3
  8
035
 10
66.843679
 20
223.532885
 30
0.0
 11
67.213113
 21
225.199296
 31
0.0
  0
LINE
  5
4C4
  8
035
 10
68.534796
 20
223.739273
 30
0.0
 11
68.858475
 21
225.199296
 31
0.0
  0
LINE
  5
4C5
  8
035
 10
63.208587
 20
223.369833
 30
0.0
 11
63.285049
 21
223.714732
 31
0.0
  0
LINE
  5
4C6
  8
035
 10
65.931422
 20
222.8
 30
0.0
 11
66.057751
 21
223.369833
 31
0.0
  0
LINE
  5
4C7
  8
035
 10
63.208587
 20
223.369833
 30
0.0
 11
66.057751
 21
223.369833
 31
0.0
  0
LINE
  5
4C8
  8
035
 10
63.285049
 20
223.714732
 30
0.0
 11
65.909279
 21
223.714732
 31
0.0
  0
POLYLINE
  5
4C9
  8
035
 66
     1
 10
0.0
 20
0.0
 30
0.0
  0
VERTEX
  5
B36
  8
035
 10
66.843679
 20
223.532885
 30
0.0
 42
0.053304
  0
VERTEX
  5
B37
  8
035
 10
66.837469
 20
223.474802
 30
0.0
 42
0.242955
  0
SEQEND
  5
B38
  8
035
  0
POLYLINE
  5
4CA
  8
035
 66
     1
 10
0.0
 20
0.0
 30
0.0
  0
VERTEX
  5
B39
  8
035
 10
68.530185
 20
223.699736
 30
0.0
 42
0.199105
  0
VERTEX
  5
B3A
  8
035
 10
68.580598
 20
223.578155
 30
0.0
 42
0.098437
  0
VERTEX
  5
B3B
  8
035
 10
68.795664
 20
223.434649
 30
0.0
 42
0.055684
  0
VERTEX
  5
B3C
  8
035
 10
69.067381
 20
223.356243
 30
0.0
 42
0.042444
  0
VERTEX
  5
B3D
  8
035
 10
69.436588
 20
223.324846
 30
0.0
 42
0.042444
  0
VERTEX
  5
B3E
  8
035
 10
69.805796
 20
223.356243
 30
0.0
 42
0.055684
  0
VERTEX
  5
B3F
  8
035
 10
70.077513
 20
223.434649
 30
0.0
 42
0.098437
  0
VERTEX
  5
B40
  8
035
 10
70.292579
 20
223.578155
 30
0.0
 42
0.141327
  0
VERTEX
  5
B41
  8
035
 10
70.338679
 20
223.661479
 30
0.0
 42
0.199105
  0
SEQEND
  5
B42
  8
035
  0
POLYLINE
  5
4CB
  8
035
 66
     1
 10
0.0
 20
0.0
 30
0.0
  0
VERTEX
  5
B43
  8
035
 10
68.534796
 20
223.739273
 30
0.0
 42
0.058115
  0
VERTEX
  5
B44
  8
035
 10
68.530185
 20
223.699736
 30
0.0
 42
0.199105
  0
SEQEND
  5
B45
  8
035
  0
LINE
  5
4CC
  8
035
 10
66.337004
 20
224.629463
 30
0.0
 11
66.463333
 21
225.199296
 31
0.0
  0
LINE
  5
4CD
  8
035
 10
63.48784
 20
224.629463
 30
0.0
 11
66.337004
 21
224.629463
 31
0.0
  0
LINE
  5
4CE
  8
035
 10
63.411378
 20
224.284564
 30
0.0
 11
66.035608
 21
224.284564
 31
0.0
  0
LINE
  5
4CF
  8
035
 10
63.411378
 20
224.284564
 30
0.0
 11
63.48784
 21
224.629463
 31
0.0
  0
LINE
  5
4D0
  8
035
 10
67.213113
 20
225.199296
 30
0.0
 11
68.858475
 21
225.199296
 31
0.0
  0
LINE
  5
4D1
  8
035
 10
71.929685
 20
223.416357
 30
0.0
 11
72.324953
 21
225.199296
 31
0.0
  0
LINE
  5
4D2
  8
035
 10
73.729134
 20
222.8
 30
0.0
 11
74.128068
 21
224.599472
 31
0.0
  0
LINE
  5
4D3
  8
035
 10
75.37865
 20
222.8
 30
0.0
 11
75.777584
 21
224.599472
 31
0.0
  0
LINE
  5
4D4
  8
035
 10
77.478034
 20
222.8
 30
0.0
 11
78.009946
 21
225.199296
 31
0.0
  0
LINE
  5
4D5
  8
035
 10
73.729134
 20
222.8
 30
0.0
 11
75.37865
 21
222.8
 31
0.0
  0
LINE
  5
4D6
  8
035
 10
72.761485
 20
225.199296
 30
0.0
 11
77.4851
 21
225.199296
 31
0.0
  0
LINE
  5
4D7
  8
035
 10
70.679605
 20
225.199296
 30
0.0
 11
72.324953
 21
225.199296
 31
0.0
  0
LINE
  5
4D8
  8
035
 10
72.628508
 20
224.599472
 30
0.0
 11
72.761485
 21
225.199296
 31
0.0
  0
LINE
  5
4D9
  8
035
 10
72.628508
 20
224.599472
 30
0.0
 11
74.128068
 21
224.599472
 31
0.0
  0
LINE
  5
4DA
  8
035
 10
77.352122
 20
224.599472
 30
0.0
 11
77.4851
 21
225.199296
 31
0.0
  0
LINE
  5
4DB
  8
035
 10
75.777584
 20
224.599472
 30
0.0
 11
77.352122
 21
224.599472
 31
0.0
  0
LINE
  5
4DC
  8
05
 10
76.984905
 20
236.6
 30
0.0
 11
70.477725
 21
236.6
 31
0.0
  0
POLYLINE
  5
4DD
  8
035
 66
     1
 10
0.0
 20
0.0
 30
0.0
  0
VERTEX
  5
B46
  8
035
 10
70.461511
 20
236.701921
 30
0.0
 42
-0.031392
  0
VERTEX
  5
B47
  8
035
 10
71.002224
 20
236.627752
 30
0.0
 42
-0.297072
  0
VERTEX
  5
B48
  8
035
 10
71.030467
 20
236.6
 30
0.0
 42
-0.357035
  0
SEQEND
  5
B49
  8
035
  0
LINE
  5
4DE
  8
035
 10
70.597255
 20
236.6
 30
0.0
 11
70.537575
 21
236.619762
 31
0.0
  0
ARC
  5
4DF
  8
05
 10
68.560087
 20
238.121446
 30
0.0
 40
0.6
 50
30.0
 51
102.767342
  0
LINE
  5
4E0
  8
05
 10
69.95811
 20
236.9
 30
0.0
 11
69.079703
 21
238.421446
 31
0.0
  0
ARC
  5
4E1
  8
05
 10
70.477725
 20
237.2
 30
0.0
 40
0.6
 50
210.0
 51
270.0
  0
LINE
  5
4E2
  8
035
 10
70.434753
 20
236.795789
 30
0.0
 11
70.431315
 21
236.869016
 31
0.0
  0
LINE
  5
4E3
  8
035
 10
70.443908
 20
236.736644
 30
0.0
 11
70.434753
 21
236.795789
 31
0.0
  0
LINE
  5
4E4
  8
035
 10
70.469966
 20
236.685244
 30
0.0
 11
70.443908
 21
236.736644
 31
0.0
  0
LINE
  5
4E5
  8
035
 10
70.497432
 20
236.647222
 30
0.0
 11
70.469966
 21
236.685244
 31
0.0
  0
LINE
  5
4E6
  8
035
 10
70.537575
 20
236.619762
 30
0.0
 11
70.497432
 21
236.647222
 31
0.0
  0
LINE
  5
4E7
  8
035
 10
71.931315
 20
236.784981
 30
0.0
 11
75.531315
 21
236.784981
 31
0.0
  0
LINE
  5
4E8
  8
035
 10
71.931315
 20
239.076387
 30
0.0
 11
75.531315
 21
239.076387
 31
0.0
  0
POLYLINE
  5
4E9
  8
035
 66
     1
 10
0.0
 20
0.0
 30
0.0
  0
VERTEX
  5
B4A
  8
035
 10
71.031315
 20
237.951692
 30
0.0
 42
0.077472
  0
VERTEX
  5
B4B
  8
035
 10
71.102846
 20
237.492808
 30
0.0
 42
0.087166
  0
VERTEX
  5
B4C
  8
035
 10
71.294919
 20
237.126702
 30
0.0
 42
0.10563
  0
VERTEX
  5
B4D
  8
035
 10
71.599539
 20
236.868422
 30
0.0
 42
0.123822
  0
VERTEX
  5
B4E
  8
035
 10
71.931315
 20
236.784981
 30
0.0
 42
0.123822
  0
SEQEND
  5
B4F
  8
035
  0
POLYLINE
  5
4EA
  8
035
 66
     1
 10
0.0
 20
0.0
 30
0.0
  0
VERTEX
  5
B50
  8
035
 10
71.031315
 20
239.309729
 30
0.0
 42
0.258414
  0
VERTEX
  5
B51
  8
035
 10
71.068785
 20
239.24207
 30
0.0
 42
0.076545
  0
VERTEX
  5
B52
  8
035
 10
71.294919
 20
239.144732
 30
0.0
 42
0.036692
  0
VERTEX
  5
B53
  8
035
 10
71.561051
 20
239.096212
 30
0.0
 42
0.026752
  0
VERTEX
  5
B54
  8
035
 10
71.931315
 20
239.076387
 30
0.0
 42
0.026752
  0
SEQEND
  5
B55
  8
035
  0
ARC
  5
4EB
  8
05
 10
76.984905
 20
237.2
 30
0.0
 40
0.6
 50
270.0
 51
330.0
  0
LINE
  5
4EC
  8
05
 10
77.50452
 20
236.9
 30
0.0
 11
78.382927
 21
238.421446
 31
0.0
  0
POLYLINE
  5
4ED
  8
035
 66
     1
 10
0.0
 20
0.0
 30
0.0
  0
VERTEX
  5
B56
  8
035
 10
77.001119
 20
236.701921
 30
0.0
 42
0.031392
  0
VERTEX
  5
B57
  8
035
 10
76.460406
 20
236.627752
 30
0.0
 42
0.297072
  0
VERTEX
  5
B58
  8
035
 10
76.432163
 20
236.6
 30
0.0
 42
0.357035
  0
SEQEND
  5
B59
  8
035
  0
LINE
  5
4EE
  8
035
 10
77.027877
 20
236.795789
 30
0.0
 11
77.031315
 21
236.869016
 31
0.0
  0
LINE
  5
4EF
  8
035
 10
77.018722
 20
236.736644
 30
0.0
 11
77.027877
 21
236.795789
 31
0.0
  0
LINE
  5
4F0
  8
035
 10
76.992664
 20
236.685244
 30
0.0
 11
77.018722
 21
236.736644
 31
0.0
  0
LINE
  5
4F1
  8
035
 10
76.965198
 20
236.647222
 30
0.0
 11
76.992664
 21
236.685244
 31
0.0
  0
LINE
  5
4F2
  8
035
 10
76.925055
 20
236.619762
 30
0.0
 11
76.965198
 21
236.647222
 31
0.0
  0
LINE
  5
4F3
  8
035
 10
76.865375
 20
236.6
 30
0.0
 11
76.925055
 21
236.619762
 31
0.0
  0
POLYLINE
  5
4F4
  8
035
 66
     1
 10
0.0
 20
0.0
 30
0.0
  0
VERTEX
  5
B5A
  8
035
 10
75.531316
 20
236.784981
 30
0.0
 42
0.123822
  0
VERTEX
  5
B5B
  8
035
 10
75.863092
 20
236.868422
 30
0.0
 42
0.10563
  0
VERTEX
  5
B5C
  8
035
 10
76.167712
 20
237.126702
 30
0.0
 42
0.087166
  0
VERTEX
  5
B5D
  8
035
 10
76.359785
 20
237.492808
 30
0.0
 42
0.077472
  0
VERTEX
  5
B5E
  8
035
 10
76.431316
 20
237.951692
 30
0.0
 42
0.077472
  0
SEQEND
  5
B5F
  8
035
  0
POLYLINE
  5
4F5
  8
035
 66
     1
 10
0.0
 20
0.0
 30
0.0
  0
VERTEX
  5
B60
  8
035
 10
75.531315
 20
239.076387
 30
0.0
 42
0.026752
  0
VERTEX
  5
B61
  8
035
 10
75.901579
 20
239.096212
 30
0.0
 42
0.036692
  0
VERTEX
  5
B62
  8
035
 10
76.167711
 20
239.144732
 30
0.0
 42
0.076545
  0
VERTEX
  5
B63
  8
035
 10
76.393845
 20
239.24207
 30
0.0
 42
0.258414
  0
VERTEX
  5
B64
  8
035
 10
76.431315
 20
239.309729
 30
0.0
 42
0.258414
  0
SEQEND
  5
B65
  8
035
  0
SOLID
  5
4F6
  8
BEM1
 10
47.53283
 20
277.196763
 30
0.0
 11
47.53283
 21
278.36343
 31
0.0
 12
44.03283
 22
277.780097
 32
0.0
 13
44.03283
 23
277.780097
 33
0.0
  0
CIRCLE
  5
4F7
  8
05
 10
44.03283
 20
244.998485
 30
0.0
 40
3.3
  0
LINE
  5
4F8
  8
MITTE
 10
50.03283
 20
244.998485
 30
0.0
 11
38.03283
 21
244.998485
 31
0.0
  0
LINE
  5
4F9
  8
BEM1
 10
44.03283
 20
253.598485
 30
0.0
 11
44.03283
 21
278.788898
 31
0.0
  0
LINE
  5
4FA
  8
BEM1
 10
35.43283
 20
244.998485
 30
0.0
 11
26.36968
 21
244.998485
 31
0.0
  0
SOLID
  5
4FB
  8
BEM1
 10
27.753013
 20
241.498485
 30
0.0
 11
26.586346
 21
241.498485
 31
0.0
 12
27.16968
 22
244.998485
 32
0.0
 13
27.16968
 23
244.998485
 33
0.0
  0
LINE
  5
4FC
  8
BEM1
 10
58.731315
 20
257.735592
 30
0.0
 11
58.731315
 21
270.115506
 31
0.0
  0
ARC
  5
4FD
  8
035
 10
73.731315
 20
234.68498
 30
0.0
 40
30.0
 50
90.0
 51
112.34225
  0
ARC
  5
4FE
  8
05
 10
73.731315
 20
215.3
 30
0.0
 40
33.0
 50
102.641155
 51
112.5
  0
ARC
  5
4FF
  8
035
 10
73.731315
 20
215.184981
 30
0.0
 40
32.7
 50
102.71981
 51
118.85
  0
ARC
  5
500
  8
035
 10
64.655057
 20
254.395347
 30
0.0
 40
5.923756
 50
180.128292
 51
270.737625
  0
ARC
  5
501
  8
05
 10
62.365617
 20
242.739222
 30
0.0
 40
0.6
 50
251.474646
 51
77.459061
  0
ARC
  5
502
  8
05
 10
55.959757
 20
267.876169
 30
0.0
 40
18.0
 50
242.465414
 51
283.885663
  0
LINE
  5
503
  8
035
 10
57.95297
 20
243.826451
 30
0.0
 11
59.111013
 21
241.724325
 31
0.0
  0
ARC
  5
504
  8
05
 10
56.850316
 20
241.538748
 30
0.0
 40
1.5
 50
30.0
 51
122.755667
  0
LINE
  5
505
  8
05
 10
58.374619
 20
241.898578
 30
0.0
 11
57.231315
 21
243.878838
 31
0.0
  0
ARC
  5
506
  8
05
 10
73.731314
 20
215.299999
 30
0.0
 40
33.0
 50
112.499998
 51
119.999998
  0
LINE
  5
507
  8
05
 10
60.431029
 20
245.057918
 30
0.0
 11
60.27127
 21
245.443609
 31
0.0
  0
LINE
  5
508
  8
05
 10
61.711633
 20
241.966266
 30
0.0
 11
61.349809
 21
242.839787
 31
0.0
  0
LINE
  5
509
  8
05
 10
61.258244
 20
245.412658
 30
0.0
 11
61.102762
 21
245.788025
 31
0.0
  0
ARC
  5
50A
  8
035
 10
64.731315
 20
256.935592
 30
0.0
 40
6.0
 50
113.621418
 51
180.0
  0
LINE
  5
50B
  8
035
 10
58.731315
 20
256.935592
 30
0.0
 11
58.731315
 21
254.382083
 31
0.0
  0
LINE
  5
50C
  8
035
 10
70.752809
 20
245.343977
 30
0.0
 11
69.231315
 21
244.044939
 31
0.0
  0
LINE
  5
50D
  8
035
 10
66.531315
 20
247.272081
 30
0.0
 11
66.531315
 21
245.944594
 31
0.0
  0
LINE
  5
50E
  8
035
 10
66.278569
 20
247.024368
 30
0.0
 11
66.825559
 21
244.687532
 31
0.0
  0
LINE
  5
50F
  8
05
 10
64.731315
 20
243.29355
 30
0.0
 11
62.595227
 21
243.29355
 31
0.0
  0
ARC
  5
510
  8
05
 10
64.731315
 20
242.69355
 30
0.0
 40
0.6
 50
0.0
 51
90.0
  0
LINE
  5
511
  8
035
 10
69.231315
 20
241.958242
 30
0.0
 11
70.431315
 21
241.958242
 31
0.0
  0
ARC
  5
512
  8
035
 10
65.331315
 20
247.272081
 30
0.0
 40
1.2
 50
0.0
 51
90.0
  0
LINE
  5
513
  8
035
 10
64.731317
 20
248.472081
 30
0.0
 11
65.331315
 21
248.472081
 31
0.0
  0
LINE
  5
514
  8
035
 10
71.05275
 20
245.343977
 30
0.0
 11
70.752809
 21
245.343977
 31
0.0
  0
LINE
  5
515
  8
035
 10
76.731315
 20
245.343977
 30
0.0
 11
78.231315
 21
244.044939
 31
0.0
  0
LINE
  5
516
  8
035
 10
76.431315
 20
245.343977
 30
0.0
 11
76.731315
 21
245.343977
 31
0.0
  0
LINE
  5
517
  8
035
 10
78.231315
 20
241.958242
 30
0.0
 11
77.031315
 21
241.958242
 31
0.0
  0
INSERT
  5
518
  8
035
  2
NT
 10
73.731315
 20
260.484981
 30
0.0
 41
7.5
 42
7.5
 43
7.5
  0
TEXT
  5
521
  8
BEM1
 62
     3
 10
54.360789
 20
279.530097
 30
0.0
 40
3.5
  1
19.80
 41
0.7
 51
15.0
  0
SOLID
  5
522
  8
BEM1
 10
62.231315
 20
269.86343
 30
0.0
 11
62.231315
 21
268.696763
 31
0.0
 12
58.731315
 22
269.280097
 32
0.0
 13
58.731315
 23
269.280097
 33
0.0
  0
INSERT
  5
523
  8
BEM1
  2
3
 10
63.962551
 20
281.321155
 30
0.0
  0
LINE
  5
524
  8
05
 10
98.237002
 20
243.683228
 30
0.0
 11
94.506136
 21
240.55266
 31
0.0
  0
ARC
  5
525
  8
05
 10
73.731315
 20
215.3
 30
0.0
 40
35.4
 50
30.25675
 51
49.74325
  0
ARC
  5
526
  8
05
 10
73.731315
 20
215.3
 30
0.0
 40
37.498485
 50
28.587806
 51
69.08932
  0
LINE
  5
527
  8
05
 10
204.08283
 20
246.235351
 30
0.0
 11
204.08283
 21
224.3
 31
0.0
  0
TEXT
  5
528
  8
BEM1
 62
     3
 10
116.815235
 20
238.577857
 30
0.0
 40
3.5
  1
5.40 [0.213"]
 50
90.0
 41
0.7
 51
15.0
 72
     1
 11
115.065235
 21
250.419523
 31
0.0
 73
     2
  0
LINE
  5
529
  8
BEM1
 10
119.249621
 20
238.186421
 30
0.0
 11
119.249621
 21
244.545213
 31
0.0
  0
LINE
  5
52A
  8
BEM1
 10
103.4298
 20
194.201515
 30
0.0
 11
103.4298
 21
247.371336
 31
0.0
  0
ARC
  5
52B
  8
05
 10
90.38705
 20
241.148578
 30
0.0
 40
1.5
 50
150.0
 51
237.203974
  0
LINE
  5
52C
  8
05
 10
209.78283
 20
237.198485
 30
0.0
 11
209.78283
 21
252.798485
 31
0.0
  0
LINE
  5
52D
  8
05
 10
82.131315
 20
242.69355
 30
0.0
 11
82.131315
 21
237.781993
 31
0.0
  0
LINE
  5
52E
  8
05
 10
187.88283
 20
243.399986
 30
0.0
 11
187.88283
 21
198.864685
 31
0.0
  0
LINE
  5
52F
  8
05
 10
164.78283
 20
251.3
 30
0.0
 11
164.78283
 21
228.348685
 31
0.0
  0
ARC
  5
530
  8
05
 10
124.731315
 20
200.157801
 30
0.0
 40
18.0
 50
180.0
 51
214.346556
  0
LINE
  5
531
  8
035
 10
91.210117
 20
196.690625
 30
0.0
 11
93.676601
 21
193.904952
 31
0.0
  0
LINE
  5
532
  8
035
 10
90.08707
 20
195.696259
 30
0.0
 11
92.553553
 21
192.910586
 31
0.0
  0
ARC
  5
533
  8
05
 10
103.4298
 20
185.601515
 30
0.0
 40
7.8
 50
270.0
 51
34.346556
  0
LINE
  5
534
  8
MITTE
 10
85.161315
 20
180.706815
 30
0.0
 11
85.161315
 21
170.68409
 31
0.0
  0
LINE
  5
535
  8
035
 10
100.1298
 20
177.801515
 30
0.0
 11
100.1298
 21
167.301515
 31
0.0
  0
LINE
  5
536
  8
035
 10
98.6298
 20
177.801515
 30
0.0
 11
98.6298
 21
167.301515
 31
0.0
  0
LINE
  5
537
  8
MITTE
 10
85.881315
 20
173.301515
 30
0.0
 11
85.881315
 21
167.301511
 31
0.0
  0
LINE
  5
538
  8
035
 10
86.631315
 20
173.301515
 30
0.0
 11
86.631315
 21
167.301511
 31
0.0
  0
LINE
  5
539
  8
035
 10
85.131315
 20
173.301515
 30
0.0
 11
85.131315
 21
167.301511
 31
0.0
  0
LINE
  5
53A
  8
035
 10
86.631315
 20
167.301511
 30
0.0
 11
85.131315
 21
167.301511
 31
0.0
  0
LINE
  5
53B
  8
035
 10
98.6298
 20
167.301515
 30
0.0
 11
100.1298
 21
167.301515
 31
0.0
  0
LINE
  5
53C
  8
05
 10
82.911315
 20
173.901515
 30
0.0
 11
87.411315
 21
173.901515
 31
0.0
  0
LINE
  5
53D
  8
05
 10
86.811315
 20
173.301515
 30
0.0
 11
87.411315
 21
173.901515
 31
0.0
  0
LINE
  5
53E
  8
05
 10
82.911315
 20
177.801515
 30
0.0
 11
82.911315
 21
173.901515
 31
0.0
  0
LINE
  5
53F
  8
05
 10
83.511315
 20
173.301515
 30
0.0
 11
86.811315
 21
173.301515
 31
0.0
  0
LINE
  5
540
  8
05
 10
82.911315
 20
173.901515
 30
0.0
 11
83.511315
 21
173.301515
 31
0.0
  0
LINE
  5
541
  8
05
 10
87.411315
 20
177.801515
 30
0.0
 11
87.411315
 21
173.901515
 31
0.0
  0
LINE
  5
542
  8
05
 10
100.1298
 20
188.415765
 30
0.0
 11
100.1298
 21
182.703417
 31
0.0
  0
ARC
  5
543
  8
05
 10
100.7298
 20
182.787266
 30
0.0
 40
0.6
 50
46.186939
 51
180.0
  0
LINE
  5
544
  8
MITTE
 10
103.4298
 20
191.601515
 30
0.0
 11
103.4298
 21
179.601515
 31
0.0
  0
ARC
  5
545
  8
05
 10
103.4298
 20
185.601515
 30
0.0
 40
3.3
 50
226.186908
 51
133.813061
  0
LINE
  5
546
  8
05
 10
98.6298
 20
190.701515
 30
0.0
 11
98.6298
 21
180.501515
 31
0.0
  0
ARC
  5
547
  8
05
 10
103.4298
 20
185.601515
 30
0.0
 40
4.2
 50
218.825778
 51
141.174222
  0
LINE
  5
548
  8
035
 10
100.1298
 20
182.001515
 30
0.0
 11
98.6298
 21
182.001515
 31
0.0
  0
LINE
  5
549
  8
05
 10
100.1298
 20
180.501515
 30
0.0
 11
98.6298
 21
180.501515
 31
0.0
  0
LINE
  5
54A
  8
05
 10
100.1298
 20
182.787266
 30
0.0
 11
100.1298
 21
180.501515
 31
0.0
  0
LINE
  5
54B
  8
MITTE
 10
109.4298
 20
185.601515
 30
0.0
 11
97.4298
 21
185.601515
 31
0.0
  0
LINE
  5
54C
  8
05
 10
100.1298
 20
188.415765
 30
0.0
 11
100.1298
 21
190.701515
 31
0.0
  0
LINE
  5
54D
  8
035
 10
100.1298
 20
184.101515
 30
0.0
 11
98.6298
 21
184.101515
 31
0.0
  0
LINE
  5
54E
  8
035
 10
100.1298
 20
187.101515
 30
0.0
 11
98.6298
 21
187.101515
 31
0.0
  0
ARC
  5
54F
  8
05
 10
100.7298
 20
188.415765
 30
0.0
 40
0.6
 50
180.0
 51
313.813061
  0
LINE
  5
550
  8
035
 10
100.1298
 20
189.201515
 30
0.0
 11
98.6298
 21
189.201515
 31
0.0
  0
LINE
  5
551
  8
05
 10
100.1298
 20
190.701515
 30
0.0
 11
98.6298
 21
190.701515
 31
0.0
  0
LINE
  5
552
  8
05
 10
106.731315
 20
200.157801
 30
0.0
 11
106.731315
 21
232.956109
 31
0.0
  0
LINE
  5
553
  8
035
 10
85.131315
 20
219.127205
 30
0.0
 11
85.131315
 21
217.7
 31
0.0
  0
LINE
  5
554
  8
035
 10
86.631315
 20
219.127205
 30
0.0
 11
86.631315
 21
217.7
 31
0.0
  0
LINE
  5
555
  8
MITTE
 10
85.881315
 20
219.2
 30
0.0
 11
85.881315
 21
211.4
 31
0.0
  0
CIRCLE
  5
556
  8
05
 10
85.881315
 20
215.3
 30
0.0
 40
3.75
  0
TEXT
  5
557
  8
035
 10
84.372751
 20
205.781166
 30
0.0
 40
4.5
  1
1
  7
UNIV
  0
LINE
  5
558
  8
035
 10
91.210117
 20
196.690625
 30
0.0
 11
90.08707
 21
195.696259
 31
0.0
  0
LINE
  5
559
  8
035
 10
85.131315
 20
212.9
 30
0.0
 11
85.131315
 21
211.472795
 31
0.0
  0
LINE
  5
55A
  8
035
 10
86.631315
 20
212.9
 30
0.0
 11
86.631315
 21
211.472795
 31
0.0
  0
LINE
  5
55B
  8
035
 10
86.631315
 20
212.9
 30
0.0
 11
85.131315
 21
212.9
 31
0.0
  0
LINE
  5
55C
  8
035
 10
86.631315
 20
217.7
 30
0.0
 11
85.131315
 21
217.7
 31
0.0
  0
LINE
  5
55D
  8
05
 10
107.230046
 20
195.95
 30
0.0
 11
108.981315
 21
195.95
 31
0.0
  0
LINE
  5
55E
  8
05
 10
109.731315
 20
198.95
 30
0.0
 11
106.771883
 21
198.95
 31
0.0
  0
LINE
  5
55F
  8
05
 10
108.981315
 20
195.95
 30
0.0
 11
109.731315
 21
196.7
 31
0.0
  0
LINE
  5
560
  8
05
 10
109.731315
 20
198.95
 30
0.0
 11
109.731315
 21
196.7
 31
0.0
  0
LINE
  5
561
  8
05
 10
108.981315
 20
198.95
 30
0.0
 11
108.981315
 21
195.95
 31
0.0
  0
LINE
  5
562
  8
035
 10
86.48246
 20
225.199296
 30
0.0
 11
88.056998
 21
225.199296
 31
0.0
  0
LINE
  5
563
  8
035
 10
85.950549
 20
222.8
 30
0.0
 11
87.525087
 21
222.8
 31
0.0
  0
POLYLINE
  5
564
  8
035
 66
     1
 10
0.0
 20
0.0
 30
0.0
  0
VERTEX
  5
B81
  8
035
 10
82.417056
 20
223.874898
 30
0.0
 42
0.015369
  0
VERTEX
  5
B82
  8
035
 10
82.526841
 20
223.931085
 30
0.0
 42
0.073981
  0
VERTEX
  5
B83
  8
035
 10
82.842728
 20
224.171953
 30
0.0
 42
0.106894
  0
VERTEX
  5
B84
  8
035
 10
83.040264
 20
224.487967
 30
0.0
 42
0.153048
  0
VERTEX
  5
B85
  8
035
 10
83.051307
 20
224.751111
 30
0.0
 42
0.153048
  0
VERTEX
  5
B86
  8
035
 10
82.910171
 20
224.97348
 30
0.0
 42
0.106894
  0
VERTEX
  5
B87
  8
035
 10
82.581093
 20
225.148388
 30
0.0
 42
0.067948
  0
VERTEX
  5
B88
  8
035
 10
82.219499
 20
225.199296
 30
0.0
 42
0.060566
  0
SEQEND
  5
B89
  8
035
  0
LINE
  5
565
  8
035
 10
83.326319
 20
222.8
 30
0.0
 11
83.85823
 21
225.199296
 31
0.0
  0
LINE
  5
566
  8
035
 10
84.975835
 20
222.8
 30
0.0
 11
85.507746
 21
225.199296
 31
0.0
  0
LINE
  5
567
  8
035
 10
85.950549
 20
222.8
 30
0.0
 11
86.48246
 21
225.199296
 31
0.0
  0
LINE
  5
568
  8
035
 10
79.127551
 20
222.8
 30
0.0
 11
79.293773
 21
223.54978
 31
0.0
  0
LINE
  5
569
  8
035
 10
82.519118
 20
223.051085
 30
0.0
 11
82.558189
 21
223.609823
 31
0.0
  0
LINE
  5
56A
  8
035
 10
80.865412
 20
222.991158
 30
0.0
 11
80.89561
 21
223.430672
 31
0.0
  0
LINE
  5
56B
  8
035
 10
79.293773
 20
223.54978
 30
0.0
 11
80.725303
 21
223.54978
 31
0.0
  0
ARC
  5
56C
  8
035
 10
82.893095
 20
223.024934
 30
0.0
 40
0.37489
 50
176.0
 51
216.869898
  0
ARC
  5
56D
  8
035
 10
81.226438
 20
222.996022
 30
0.0
 40
0.361059
 50
180.772005
 51
212.881875
  0
LINE
  5
56E
  8
035
 10
80.923224
 20
222.8
 30
0.0
 11
82.593183
 21
222.8
 31
0.0
  0
POLYLINE
  5
56F
  8
035
 66
     1
 10
0.0
 20
0.0
 30
0.0
  0
VERTEX
  5
B8A
  8
035
 10
82.558189
 20
223.609823
 30
0.0
 42
0.084831
  0
VERTEX
  5
B8B
  8
035
 10
82.549622
 20
223.702136
 30
0.0
 42
0.153048
  0
VERTEX
  5
B8C
  8
035
 10
82.461412
 20
223.841116
 30
0.0
 42
0.025315
  0
VERTEX
  5
B8D
  8
035
 10
82.417056
 20
223.874898
 30
0.0
 42
0.067948
  0
SEQEND
  5
B8E
  8
035
  0
POLYLINE
  5
570
  8
035
 66
     1
 10
0.0
 20
0.0
 30
0.0
  0
VERTEX
  5
B8F
  8
035
 10
80.89561
 20
223.430672
 30
0.0
 42
0.082344
  0
VERTEX
  5
B90
  8
035
 10
80.892787
 20
223.459538
 30
0.0
 42
0.153048
  0
VERTEX
  5
B91
  8
035
 10
80.864369
 20
223.504312
 30
0.0
 42
0.106894
  0
VERTEX
  5
B92
  8
035
 10
80.79811
 20
223.53953
 30
0.0
 42
0.067948
  0
VERTEX
  5
B93
  8
035
 10
80.725303
 20
223.54978
 30
0.0
 42
0.060506
  0
SEQEND
  5
B94
  8
035
  0
LINE
  5
571
  8
035
 10
83.326319
 20
222.8
 30
0.0
 11
84.975835
 21
222.8
 31
0.0
  0
LINE
  5
572
  8
035
 10
79.420102
 20
224.119613
 30
0.0
 11
80.701858
 21
224.119613
 31
0.0
  0
LINE
  5
573
  8
035
 10
79.420102
 20
224.119613
 30
0.0
 11
79.533133
 21
224.629463
 31
0.0
  0
LINE
  5
574
  8
035
 10
79.533133
 20
224.629463
 30
0.0
 11
80.923783
 21
224.629463
 31
0.0
  0
POLYLINE
  5
575
  8
035
 66
     1
 10
0.0
 20
0.0
 30
0.0
  0
VERTEX
  5
B95
  8
035
 10
80.701858
 20
224.119613
 30
0.0
 42
0.065514
  0
VERTEX
  5
B96
  8
035
 10
80.876143
 20
224.143163
 30
0.0
 42
0.060566
  0
VERTEX
  5
B97
  8
035
 10
81.026922
 20
224.203873
 30
0.0
 42
0.073981
  0
VERTEX
  5
B98
  8
035
 10
81.132928
 20
224.284704
 30
0.0
 42
0.106894
  0
VERTEX
  5
B99
  8
035
 10
81.199218
 20
224.390753
 30
0.0
 42
0.153048
  0
VERTEX
  5
B9A
  8
035
 10
81.202924
 20
224.47906
 30
0.0
 42
0.153048
  0
VERTEX
  5
B9B
  8
035
 10
81.155561
 20
224.553683
 30
0.0
 42
0.106894
  0
VERTEX
  5
B9C
  8
035
 10
81.045128
 20
224.612379
 30
0.0
 42
0.067948
  0
VERTEX
  5
B9D
  8
035
 10
80.923783
 20
224.629463
 30
0.0
 42
0.060506
  0
SEQEND
  5
B9E
  8
035
  0
LINE
  5
576
  8
035
 10
83.85823
 20
225.199296
 30
0.0
 11
85.507746
 21
225.199296
 31
0.0
  0
LINE
  5
577
  8
035
 10
89.945421
 20
224.374538
 30
0.0
 11
91.498921
 21
222.8
 31
0.0
  0
LINE
  5
578
  8
035
 10
89.249581
 20
222.8
 30
0.0
 11
91.498921
 21
222.8
 31
0.0
  0
LINE
  5
579
  8
035
 10
87.525087
 20
222.8
 30
0.0
 11
87.658065
 21
223.399824
 31
0.0
  0
LINE
  5
57A
  8
035
 10
87.658065
 20
223.399824
 30
0.0
 11
88.361867
 21
223.699736
 31
0.0
  0
LINE
  5
57B
  8
035
 10
88.361867
 20
223.699736
 30
0.0
 11
89.249581
 21
222.8
 31
0.0
  0
LINE
  5
57C
  8
035
 10
89.781492
 20
225.199296
 30
0.0
 11
91.880876
 21
225.199296
 31
0.0
  0
LINE
  5
57D
  8
035
 10
89.945421
 20
224.374538
 30
0.0
 11
91.880876
 21
225.199296
 31
0.0
  0
LINE
  5
57E
  8
035
 10
87.877087
 20
224.387769
 30
0.0
 11
89.781492
 21
225.199296
 31
0.0
  0
LINE
  5
57F
  8
035
 10
87.877087
 20
224.387769
 30
0.0
 11
88.056998
 21
225.199296
 31
0.0
  0
LINE
  5
580
  8
05
 10
105.938706
 20
234.504695
 30
0.0
 11
102.20784
 21
231.374126
 31
0.0
  0
ARC
  5
581
  8
05
 10
106.131315
 20
232.956109
 30
0.0
 40
0.6
 50
0.0
 51
28.587806
  0
LINE
  5
582
  8
05
 10
204.08283
 20
206.3
 30
0.0
 11
204.08283
 21
180.8
 31
0.0
  0
LINE
  5
583
  8
05
 10
187.88283
 20
196.221485
 30
0.0
 11
187.88283
 21
186.18
 31
0.0
  0
LINE
  5
584
  8
05
 10
204.08283
 20
179.301515
 30
0.0
 11
204.08283
 21
206.3
 31
0.0
  0
LINE
  5
585
  8
05
 10
176.78283
 20
198.864685
 30
0.0
 11
176.78283
 21
192.2
 31
0.0
  0
LINE
  5
586
  8
05
 10
168.87783
 20
202.251315
 30
0.0
 11
168.87783
 21
179.301515
 31
0.0
  0
LINE
  5
587
  8
BEM1
 10
154.158106
 20
167.301515
 30
0.0
 11
181.893014
 21
167.301515
 31
0.0
  0
LINE
  5
588
  8
035
 10
183.87783
 20
191.301315
 30
0.0
 11
175.47783
 21
191.301315
 31
0.0
  0
LINE
  5
589
  8
035
 10
186.87783
 20
188.301315
 30
0.0
 11
175.47783
 21
188.301315
 31
0.0
  0
LINE
  5
58A
  8
035
 10
178.17783
 20
179.301315
 30
0.0
 11
169.47783
 21
179.301315
 31
0.0
  0
LINE
  5
58B
  8
035
 10
188.37783
 20
185.301315
 30
0.0
 11
175.47783
 21
185.301315
 31
0.0
  0
LINE
  5
58C
  8
05
 10
183.57783
 20
191.601515
 30
0.0
 11
175.47783
 21
192.2
 31
0.0
  0
TEXT
  5
58D
  8
BEM1
 62
     3
 10
153.416258
 20
169.046833
 30
0.0
 40
3.5
  1
3.50 [0.138"]
 50
90.0
 41
0.7
 51
15.0
  0
LINE
  5
58E
  8
BEM1
 10
156.002638
 20
162.452082
 30
0.0
 11
156.002638
 21
193.024876
 31
0.0
  0
LINE
  5
58F
  8
035
 10
170.67783
 20
177.2
 30
0.0
 11
170.67783
 21
168.5
 31
0.0
  0
LINE
  5
590
  8
035
 10
173.07783
 20
177.2
 30
0.0
 11
173.07783
 21
168.5
 31
0.0
  0
SOLID
  5
591
  8
BEM1
 10
155.419304
 20
163.801515
 30
0.0
 11
156.585971
 21
163.801515
 31
0.0
 12
156.002638
 22
167.301515
 32
0.0
 13
156.002638
 23
167.301515
 33
0.0
  0
ARC
  5
592
  8
035
 10
171.87783
 20
168.5
 30
0.0
 40
1.2
 50
180.0
 51
0.0
  0
LINE
  5
593
  8
BEM1
 10
167.967971
 20
177.801515
 30
0.0
 11
154.509903
 21
177.801515
 31
0.0
  0
SOLID
  5
594
  8
BEM1
 10
155.419304
 20
181.301515
 30
0.0
 11
156.585971
 21
181.301515
 31
0.0
 12
156.002638
 22
177.801515
 32
0.0
 13
156.002638
 23
177.801515
 33
0.0
  0
ARC
  5
595
  8
035
 10
169.47783
 20
179.901315
 30
0.0
 40
0.6
 50
180.0
 51
270.0
  0
ARC
  5
596
  8
035
 10
169.47783
 20
178.4
 30
0.0
 40
0.6
 50
180.0
 51
270.0
  0
LINE
  5
597
  8
05
 10
172.47783
 20
179.301515
 30
0.0
 11
168.87783
 21
179.301515
 31
0.0
  0
LINE
  5
598
  8
035
 10
170.57283
 20
179.301515
 30
0.0
 11
168.87783
 21
179.301515
 31
0.0
  0
LINE
  5
599
  8
035
 10
168.87783
 20
178.4
 30
0.0
 11
168.87783
 21
179.301515
 31
0.0
  0
ARC
  5
59A
  8
035
 10
170.07783
 20
177.2
 30
0.0
 40
0.6
 50
0.0
 51
90.0
  0
ARC
  5
59B
  8
035
 10
173.67783
 20
177.2
 30
0.0
 40
0.6
 50
90.0
 51
180.0
  0
LINE
  5
59C
  8
05
 10
175.47783
 20
177.801515
 30
0.0
 11
172.47783
 21
177.801515
 31
0.0
  0
LINE
  5
59D
  8
035
 10
170.07783
 20
177.8
 30
0.0
 11
169.47783
 21
177.8
 31
0.0
  0
LINE
  5
59E
  8
05
 10
172.47783
 20
177.801515
 30
0.0
 11
172.47783
 21
179.301515
 31
0.0
  0
LINE
  5
59F
  8
05
 10
175.47783
 20
179.301515
 30
0.0
 11
175.47783
 21
177.801515
 31
0.0
  0
LINE
  5
5A0
  8
05
 10
176.78283
 20
192.2
 30
0.0
 11
168.87783
 21
192.2
 31
0.0
  0
ARC
  5
5A1
  8
035
 10
175.477831
 20
185.601314
 30
0.0
 40
0.3
 50
90.0
 51
270.0
  0
LINE
  5
5A2
  8
035
 10
175.47783
 20
185.901314
 30
0.0
 11
175.47783
 21
187.701316
 31
0.0
  0
ARC
  5
5A3
  8
035
 10
175.477831
 20
188.001316
 30
0.0
 40
0.3
 50
90.0
 51
270.0
  0
LINE
  5
5A4
  8
035
 10
175.477831
 20
191.901315
 30
0.0
 11
175.477831
 21
192.2
 31
0.0
  0
ARC
  5
5A5
  8
035
 10
175.477831
 20
191.601315
 30
0.0
 40
0.3
 50
90.0
 51
270.0
  0
LINE
  5
5A6
  8
MITTE
 10
196.61283
 20
180.706815
 30
0.0
 11
196.61283
 21
170.68409
 31
0.0
  0
LINE
  5
5A7
  8
035
 10
201.12783
 20
179.301515
 30
0.0
 11
201.12783
 21
168.5
 31
0.0
  0
LINE
  5
5A8
  8
035
 10
203.52783
 20
179.301515
 30
0.0
 11
203.52783
 21
168.5
 31
0.0
  0
LINE
  5
5A9
  8
035
 10
187.426705
 20
171.33673
 30
0.0
 11
186.988955
 21
176.165899
 31
0.0
  0
LINE
  5
5AA
  8
035
 10
185.521705
 20
171.33673
 30
0.0
 11
185.083955
 21
176.165899
 31
0.0
  0
LINE
  5
5AB
  8
035
 10
181.033955
 20
171.33673
 30
0.0
 11
181.471705
 21
176.165899
 31
0.0
  0
LINE
  5
5AC
  8
MITTE
 10
183.27783
 20
180.04409
 30
0.0
 11
183.27783
 21
166.890928
 31
0.0
  0
ARC
  5
5AD
  8
035
 10
185.18283
 20
168.801315
 30
0.0
 40
1.5
 50
270.0
 51
342.645975
  0
LINE
  5
5AE
  8
035
 10
184.70955
 20
168.353902
 30
0.0
 11
185.45955
 21
170.753902
 31
0.0
  0
LINE
  5
5AF
  8
035
 10
181.84611
 20
168.353902
 30
0.0
 11
181.09611
 21
170.753902
 31
0.0
  0
ARC
  5
5B0
  8
035
 10
182.52783
 20
171.201315
 30
0.0
 40
1.5
 50
174.82046
 51
197.354002
  0
ARC
  5
5B1
  8
035
 10
185.18283
 20
168.801315
 30
0.0
 40
1.5
 50
230.580016
 51
270.0
  0
ARC
  5
5B2
  8
035
 10
183.27783
 20
168.801315
 30
0.0
 40
1.5
 50
197.354025
 51
270.0
  0
ARC
  5
5B3
  8
035
 10
183.27783
 20
168.801315
 30
0.0
 40
1.5
 50
270.0
 51
342.645975
  0
LINE
  5
5B4
  8
MITTE
 10
185.18283
 20
169.868398
 30
0.0
 11
185.18283
 21
166.890928
 31
0.0
  0
ARC
  5
5B5
  8
035
 10
185.93283
 20
171.201315
 30
0.0
 40
1.5
 50
342.645998
 51
5.17954
  0
ARC
  5
5B6
  8
035
 10
184.02783
 20
171.201315
 30
0.0
 40
1.5
 50
342.645998
 51
5.17954
  0
LINE
  5
5B7
  8
035
 10
186.61455
 20
168.353902
 30
0.0
 11
187.36455
 21
170.753902
 31
0.0
  0
ARC
  5
5B8
  8
035
 10
202.32783
 20
168.5
 30
0.0
 40
1.2
 50
180.0
 51
0.0
  0
LINE
  5
5B9
  8
05
 10
204.08283
 20
186.18
 30
0.0
 11
187.88283
 21
186.18
 31
0.0
  0
LINE
  5
5BA
  8
05
 10
204.08283
 20
179.301515
 30
0.0
 11
188.37783
 21
179.301515
 31
0.0
  0
LINE
  5
5BB
  8
05
 10
188.37783
 20
186.18
 30
0.0
 11
188.37783
 21
179.301515
 31
0.0
  0
ARC
  5
5BC
  8
035
 10
185.67783
 20
177.201315
 30
0.0
 40
0.6
 50
90.0
 51
180.0
  0
ARC
  5
5BD
  8
035
 10
180.87783
 20
177.201315
 30
0.0
 40
0.6
 50
0.0
 51
90.0
  0
LINE
  5
5BE
  8
035
 10
185.07783
 20
177.201315
 30
0.0
 11
185.07783
 21
176.301315
 31
0.0
  0
ARC
  5
5BF
  8
035
 10
186.57783
 20
176.301315
 30
0.0
 40
1.5
 50
180.0
 51
185.179522
  0
LINE
  5
5C0
  8
035
 10
181.47783
 20
177.201315
 30
0.0
 11
181.47783
 21
176.301315
 31
0.0
  0
ARC
  5
5C1
  8
035
 10
179.97783
 20
176.301315
 30
0.0
 40
1.5
 50
354.820478
 51
0.0
  0
ARC
  5
5C2
  8
035
 10
178.17783
 20
178.701315
 30
0.0
 40
0.6
 50
0.0
 51
90.0
  0
LINE
  5
5C3
  8
035
 10
178.77783
 20
178.701315
 30
0.0
 11
178.77783
 21
178.401315
 31
0.0
  0
ARC
  5
5C4
  8
035
 10
179.37783
 20
178.401315
 30
0.0
 40
0.6
 50
180.0
 51
270.0
  0
LINE
  5
5C5
  8
035
 10
180.87783
 20
177.801315
 30
0.0
 11
179.37783
 21
177.801315
 31
0.0
  0
ARC
  5
5C6
  8
035
 10
187.58283
 20
177.201315
 30
0.0
 40
0.6
 50
90.0
 51
180.0
  0
LINE
  5
5C7
  8
035
 10
186.98283
 20
177.201315
 30
0.0
 11
186.98283
 21
176.301315
 31
0.0
  0
ARC
  5
5C8
  8
035
 10
188.48283
 20
176.301315
 30
0.0
 40
1.5
 50
180.0
 51
185.179522
  0
ARC
  5
5C9
  8
035
 10
189.08283
 20
178.401315
 30
0.0
 40
0.6
 50
270.0
 51
0.0
  0
LINE
  5
5CA
  8
035
 10
187.77783
 20
178.701315
 30
0.0
 11
187.77783
 21
178.401315
 31
0.0
  0
ARC
  5
5CB
  8
035
 10
188.37783
 20
178.701315
 30
0.0
 40
0.6
 50
90.0
 51
180.0
  0
LINE
  5
5CC
  8
035
 10
187.58283
 20
177.801315
 30
0.0
 11
189.08283
 21
177.801315
 31
0.0
  0
ARC
  5
5CD
  8
035
 10
187.17783
 20
178.401315
 30
0.0
 40
0.6
 50
270.0
 51
0.0
  0
LINE
  5
5CE
  8
035
 10
185.67783
 20
177.801315
 30
0.0
 11
187.17783
 21
177.801315
 31
0.0
  0
LINE
  5
5CF
  8
035
 10
189.68283
 20
178.701315
 30
0.0
 11
189.68283
 21
178.401315
 31
0.0
  0
ARC
  5
5D0
  8
035
 10
190.28283
 20
178.701315
 30
0.0
 40
0.6
 50
90.0
 51
180.0
  0
LINE
  5
5D1
  8
035
 10
187.160183
 20
191.470726
 30
0.0
 11
184.47783
 21
192.501315
 31
0.0
  0
LINE
  5
5D2
  8
05
 10
187.88283
 20
192.7162
 30
0.0
 11
184.47783
 21
192.7162
 31
0.0
  0
LINE
  5
5D3
  8
035
 10
184.47783
 20
192.501315
 30
0.0
 11
184.47783
 21
191.301315
 31
0.0
  0
ARC
  5
5D4
  8
035
 10
184.17783
 20
191.301315
 30
0.0
 40
0.3
 50
180.0
 51
0.0
  0
LINE
  5
5D5
  8
05
 10
184.47783
 20
192.7162
 30
0.0
 11
184.47783
 21
191.601515
 31
0.0
  0
LINE
  5
5D6
  8
05
 10
184.47783
 20
192.7162
 30
0.0
 11
184.47783
 21
191.601515
 31
0.0
  0
LINE
  5
5D7
  8
05
 10
184.47783
 20
191.601515
 30
0.0
 11
183.57783
 21
191.601515
 31
0.0
  0
LINE
  5
5D8
  8
035
 10
187.47783
 20
188.901315
 30
0.0
 11
187.47783
 21
190.941315
 31
0.0
  0
ARC
  5
5D9
  8
035
 10
186.87783
 20
188.901315
 30
0.0
 40
0.6
 50
270.0
 51
0.0
  0
ARC
  5
5DA
  8
035
 10
186.87783
 20
190.941315
 30
0.0
 40
0.6
 50
0.0
 51
61.927513
  0
LINE
  5
5DB
  8
05
 10
198.86283
 20
179.301515
 30
0.0
 11
198.86283
 21
173.901515
 31
0.0
  0
LINE
  5
5DC
  8
05
 10
194.36283
 20
179.301515
 30
0.0
 11
194.36283
 21
173.901515
 31
0.0
  0
LINE
  5
5DD
  8
05
 10
194.36283
 20
173.901515
 30
0.0
 11
198.86283
 21
173.901515
 31
0.0
  0
LINE
  5
5DE
  8
05
 10
194.96283
 20
173.301515
 30
0.0
 11
198.26283
 21
173.301515
 31
0.0
  0
LINE
  5
5DF
  8
05
 10
194.36283
 20
173.901515
 30
0.0
 11
194.96283
 21
173.301515
 31
0.0
  0
LINE
  5
5E0
  8
05
 10
198.26283
 20
173.301515
 30
0.0
 11
198.86283
 21
173.901515
 31
0.0
  0
LINE
  5
5E1
  8
05
 10
209.60283
 20
180.8
 30
0.0
 11
209.60283
 21
173.901515
 31
0.0
  0
LINE
  5
5E2
  8
05
 10
209.78283
 20
177.801515
 30
0.0
 11
209.78283
 21
180.8
 31
0.0
  0
LINE
  5
5E3
  8
05
 10
187.88283
 20
239.462253
 30
0.0
 11
164.78283
 21
239.462253
 31
0.0
  0
LINE
  5
5E4
  8
05
 10
187.88283
 20
218.598685
 30
0.0
 11
168.87783
 21
218.598685
 31
0.0
  0
LINE
  5
5E5
  8
05
 10
187.88283
 20
216.8
 30
0.0
 11
169.47783
 21
216.8
 31
0.0
  0
LINE
  5
5E6
  8
05
 10
187.88283
 20
211.998685
 30
0.0
 11
168.87783
 21
211.998685
 31
0.0
  0
LINE
  5
5E7
  8
05
 10
187.88283
 20
198.864685
 30
0.0
 11
176.78283
 21
198.864685
 31
0.0
  0
LINE
  5
5E8
  8
05
 10
168.87783
 20
202.251315
 30
0.0
 11
187.88283
 21
202.251315
 31
0.0
  0
LINE
  5
5E9
  8
05
 10
187.88283
 20
206.6
 30
0.0
 11
168.87783
 21
206.6
 31
0.0
  0
LINE
  5
5EA
  8
05
 10
187.88283
 20
230.747371
 30
0.0
 11
172.47783
 21
230.747371
 31
0.0
  0
LINE
  5
5EB
  8
05
 10
187.88283
 20
224.147371
 30
0.0
 11
172.47783
 21
224.147371
 31
0.0
  0
LINE
  5
5EC
  8
05
 10
168.87783
 20
228.348685
 30
0.0
 11
168.87783
 21
205.464685
 31
0.0
  0
LINE
  5
5ED
  8
05
 10
172.47783
 20
204.651315
 30
0.0
 11
172.47783
 21
206.6
 31
0.0
  0
LINE
  5
5EE
  8
05
 10
168.87783
 20
205.464685
 30
0.0
 11
170.07783
 21
204.264685
 31
0.0
  0
LINE
  5
5EF
  8
05
 10
176.78283
 20
196.241019
 30
0.0
 11
168.87783
 21
196.241019
 31
0.0
  0
LINE
  5
5F0
  8
035
 10
168.87783
 20
205.464685
 30
0.0
 11
168.87783
 21
202.251315
 31
0.0
  0
LINE
  5
5F1
  8
05
 10
175.47783
 20
202.464685
 30
0.0
 11
170.07783
 21
202.464685
 31
0.0
  0
LINE
  5
5F2
  8
05
 10
175.47783
 20
204.051315
 30
0.0
 11
173.07783
 21
204.051315
 31
0.0
  0
LINE
  5
5F3
  8
05
 10
170.07783
 20
204.264685
 30
0.0
 11
172.86446
 21
204.264685
 31
0.0
  0
LINE
  5
5F4
  8
05
 10
169.86446
 20
202.251315
 30
0.0
 11
170.07783
 21
202.464685
 31
0.0
  0
LINE
  5
5F5
  8
05
 10
173.07783
 20
204.051315
 30
0.0
 11
172.47783
 21
204.651315
 31
0.0
  0
LINE
  5
5F6
  8
05
 10
175.47783
 20
202.251315
 30
0.0
 11
175.47783
 21
204.051315
 31
0.0
  0
LINE
  5
5F7
  8
05
 10
168.87783
 20
213.2
 30
0.0
 11
170.07783
 21
214.4
 31
0.0
  0
LINE
  5
5F8
  8
05
 10
168.87783
 20
217.4
 30
0.0
 11
170.07783
 21
216.2
 31
0.0
  0
LINE
  5
5F9
  8
035
 10
168.87783
 20
217.314685
 30
0.0
 11
168.87783
 21
213.114685
 31
0.0
  0
LINE
  5
5FA
  8
05
 10
175.47783
 20
216.8
 30
0.0
 11
175.47783
 21
211.998685
 31
0.0
  0
LINE
  5
5FB
  8
05
 10
175.47783
 20
213.8
 30
0.0
 11
169.47783
 21
213.8
 31
0.0
  0
LINE
  5
5FC
  8
05
 10
175.47783
 20
214.4
 30
0.0
 11
170.07783
 21
214.4
 31
0.0
  0
LINE
  5
5FD
  8
05
 10
175.47783
 20
216.2
 30
0.0
 11
170.07783
 21
216.2
 31
0.0
  0
LINE
  5
5FE
  8
05
 10
172.47783
 20
228.948685
 30
0.0
 11
172.47783
 21
230.747371
 31
0.0
  0
LINE
  5
5FF
  8
05
 10
164.78283
 20
228.348685
 30
0.0
 11
175.47783
 21
228.348685
 31
0.0
  0
LINE
  5
600
  8
05
 10
172.779145
 20
226.25
 30
0.0
 11
168.87783
 21
226.25
 31
0.0
  0
LINE
  5
601
  8
05
 10
175.47783
 20
226.548685
 30
0.0
 11
173.07783
 21
226.548685
 31
0.0
  0
LINE
  5
602
  8
05
 10
172.47783
 20
225.948685
 30
0.0
 11
172.47783
 21
224.147371
 31
0.0
  0
LINE
  5
603
  8
05
 10
173.07783
 20
228.348685
 30
0.0
 11
172.47783
 21
228.948685
 31
0.0
  0
LINE
  5
604
  8
05
 10
173.07783
 20
226.548685
 30
0.0
 11
172.47783
 21
225.948685
 31
0.0
  0
LINE
  5
605
  8
05
 10
175.47783
 20
228.348685
 30
0.0
 11
175.47783
 21
226.548685
 31
0.0
  0
LINE
  5
606
  8
05
 10
207.935774
 20
224.3
 30
0.0
 11
207.935774
 21
206.3
 31
0.0
  0
LINE
  5
607
  8
05
 10
204.08283
 20
195.864685
 30
0.0
 11
187.88283
 21
195.864685
 31
0.0
  0
LINE
  5
608
  8
05
 10
204.08283
 20
198.864685
 30
0.0
 11
187.88283
 21
198.864685
 31
0.0
  0
ARC
  5
609
  8
05
 10
188.99283
 20
197.769685
 30
0.0
 40
1.155
 50
180.0
 51
0.0
  0
ARC
  5
60A
  8
05
 10
188.99283
 20
197.769685
 30
0.0
 40
1.905
 50
180.0
 51
0.0
  0
LINE
  5
60B
  8
05
 10
187.83783
 20
198.864685
 30
0.0
 11
187.83783
 21
197.769685
 31
0.0
  0
LINE
  5
60C
  8
05
 10
187.08783
 20
198.864685
 30
0.0
 11
187.08783
 21
197.769685
 31
0.0
  0
LINE
  5
60D
  8
05
 10
190.14783
 20
198.864685
 30
0.0
 11
190.14783
 21
197.769685
 31
0.0
  0
LINE
  5
60E
  8
05
 10
190.89783
 20
198.864685
 30
0.0
 11
190.89783
 21
197.769685
 31
0.0
  0
LINE
  5
60F
  8
05
 10
191.07783
 20
204.051315
 30
0.0
 11
188.48283
 21
204.051315
 31
0.0
  0
LINE
  5
610
  8
05
 10
191.07783
 20
202.251315
 30
0.0
 11
188.48283
 21
202.251315
 31
0.0
  0
LINE
  5
611
  8
05
 10
188.48283
 20
204.051315
 30
0.0
 11
187.88283
 21
204.651315
 31
0.0
  0
LINE
  5
612
  8
05
 10
188.48283
 20
202.251315
 30
0.0
 11
187.88283
 21
201.651315
 31
0.0
  0
LINE
  5
613
  8
05
 10
191.07783
 20
204.051315
 30
0.0
 11
191.07783
 21
202.251315
 31
0.0
  0
ARC
  5
614
  8
05
 10
243.87192
 20
215.3
 30
0.0
 40
35.99109
 50
183.166317
 51
194.481175
  0
ARC
  5
615
  8
05
 10
198.51783
 20
197.769685
 30
0.0
 40
1.155
 50
180.0
 51
0.0
  0
ARC
  5
616
  8
05
 10
198.51783
 20
197.769685
 30
0.0
 40
1.905
 50
180.0
 51
0.0
  0
LINE
  5
617
  8
05
 10
197.36283
 20
198.864685
 30
0.0
 11
197.36283
 21
197.769685
 31
0.0
  0
LINE
  5
618
  8
05
 10
196.61283
 20
198.864685
 30
0.0
 11
196.61283
 21
197.769685
 31
0.0
  0
LINE
  5
619
  8
05
 10
199.67283
 20
198.864685
 30
0.0
 11
199.67283
 21
197.769685
 31
0.0
  0
LINE
  5
61A
  8
05
 10
200.42283
 20
198.864685
 30
0.0
 11
200.42283
 21
197.769685
 31
0.0
  0
LINE
  5
61B
  8
05
 10
208.309148
 20
209.763952
 30
0.0
 11
207.935774
 21
209.763952
 31
0.0
  0
LINE
  5
61C
  8
05
 10
204.08283
 20
231.648685
 30
0.0
 11
187.88283
 21
231.648685
 31
0.0
  0
LINE
  5
61D
  8
05
 10
204.08283
 20
228.348685
 30
0.0
 11
188.48283
 21
228.348685
 31
0.0
  0
LINE
  5
61E
  8
05
 10
191.07783
 20
226.548685
 30
0.0
 11
188.48283
 21
226.548685
 31
0.0
  0
LINE
  5
61F
  8
05
 10
188.48283
 20
226.548685
 30
0.0
 11
187.88283
 21
225.948685
 31
0.0
  0
LINE
  5
620
  8
05
 10
188.48283
 20
228.348685
 30
0.0
 11
187.88283
 21
228.948685
 31
0.0
  0
LINE
  5
621
  8
05
 10
191.07783
 20
228.348685
 30
0.0
 11
191.07783
 21
226.548685
 31
0.0
  0
LINE
  5
622
  8
BEM1
 10
79.686457
 20
264.68498
 30
0.0
 11
120.049621
 21
264.68498
 31
0.0
  0
LINE
  5
623
  8
BEM1
 10
85.944255
 20
248.472081
 30
0.0
 11
112.165569
 21
248.472081
 31
0.0
  0
ARC
  5
624
  8
035
 10
82.807574
 20
254.395347
 30
0.0
 40
5.923756
 50
269.262375
 51
359.871708
  0
ARC
  5
625
  8
035
 10
73.731315
 20
215.184981
 30
0.0
 40
32.7
 50
61.15
 51
77.28019
  0
ARC
  5
626
  8
05
 10
73.731316
 20
215.299999
 30
0.0
 40
33.0
 50
60.000002
 51
67.500002
  0
LINE
  5
627
  8
035
 10
80.931315
 20
247.272081
 30
0.0
 11
80.931315
 21
245.944594
 31
0.0
  0
ARC
  5
628
  8
05
 10
73.731315
 20
215.3
 30
0.0
 40
33.0
 50
67.5
 51
77.358845
  0
LINE
  5
629
  8
05
 10
84.867403
 20
243.29355
 30
0.0
 11
82.731315
 21
243.29355
 31
0.0
  0
LINE
  5
62A
  8
035
 10
81.184061
 20
247.024368
 30
0.0
 11
80.637071
 21
244.687532
 31
0.0
  0
ARC
  5
62B
  8
05
 10
82.731315
 20
242.69355
 30
0.0
 40
0.6
 50
90.0
 51
180.0
  0
ARC
  5
62C
  8
05
 10
85.097013
 20
242.739222
 30
0.0
 40
0.6
 50
102.540939
 51
288.525354
  0
LINE
  5
62D
  8
05
 10
85.750997
 20
241.966266
 30
0.0
 11
86.112821
 21
242.839787
 31
0.0
  0
LINE
  5
62E
  8
05
 10
86.204387
 20
245.412658
 30
0.0
 11
86.359868
 21
245.788025
 31
0.0
  0
LINE
  5
62F
  8
035
 10
82.131315
 20
248.472081
 30
0.0
 11
82.731315
 21
248.472081
 31
0.0
  0
ARC
  5
630
  8
035
 10
82.131315
 20
247.272081
 30
0.0
 40
1.2
 50
90.0
 51
180.0
  0
ARC
  5
631
  8
05
 10
90.612314
 20
241.538748
 30
0.0
 40
1.5
 50
57.244333
 51
150.0
  0
LINE
  5
632
  8
05
 10
87.031601
 20
245.057918
 30
0.0
 11
87.19136
 21
245.443609
 31
0.0
  0
LINE
  5
633
  8
035
 10
89.509661
 20
243.826451
 30
0.0
 11
88.351617
 21
241.724325
 31
0.0
  0
LINE
  5
634
  8
05
 10
89.088011
 20
241.898578
 30
0.0
 11
90.231315
 21
243.878838
 31
0.0
  0
ARC
  5
635
  8
035
 10
82.731315
 20
256.935592
 30
0.0
 40
6.0
 50
0.0
 51
66.378582
  0
LINE
  5
636
  8
BEM1
 10
88.731315
 20
257.735592
 30
0.0
 11
88.731315
 21
263.806299
 31
0.0
  0
LINE
  5
637
  8
035
 10
88.731315
 20
256.935592
 30
0.0
 11
88.731315
 21
254.382083
 31
0.0
  0
LINE
  5
638
  8
BEM1
 10
103.4298
 20
249.119736
 30
0.0
 11
103.4298
 21
263.806299
 31
0.0
  0
SOLID
  5
639
  8
BEM1
 10
85.231315
 20
269.86343
 30
0.0
 11
85.231315
 21
268.696763
 31
0.0
 12
88.731315
 22
269.280097
 32
0.0
 13
88.731315
 23
269.280097
 33
0.0
  0
LINE
  5
63A
  8
BEM1
 10
88.731315
 20
265.5547
 30
0.0
 11
88.731315
 21
269.940666
 31
0.0
  0
TEXT
  5
63B
  8
SCHRAFFIERT
 10
84.050363
 20
280.136168
 30
0.0
 40
2.5
  1
%%p0.004
 41
0.7
 51
15.0
  0
LINE
  5
63C
  8
BEM1
 10
103.4298
 20
265.5547
 30
0.0
 11
103.4298
 21
278.788898
 31
0.0
  0
SOLID
  5
63D
  8
BEM1
 10
99.9298
 20
277.196763
 30
0.0
 11
99.9298
 21
278.36343
 31
0.0
 12
103.4298
 22
277.780097
 32
0.0
 13
103.4298
 23
277.780097
 33
0.0
  0
LINE
  5
63E
  8
BEM1
 10
119.249621
 20
248.472081
 30
0.0
 11
119.249621
 21
269.41206
 31
0.0
  0
LINE
  5
63F
  8
BEM1
 10
117.341064
 20
248.472081
 30
0.0
 11
120.049621
 21
248.472081
 31
0.0
  0
SOLID
  5
640
  8
BEM1
 10
118.666287
 20
244.972081
 30
0.0
 11
119.832954
 21
244.972081
 31
0.0
 12
119.249621
 22
248.472081
 32
0.0
 13
119.249621
 23
248.472081
 33
0.0
  0
LINE
  5
641
  8
BEM1
 10
119.249621
 20
244.972081
 30
0.0
 11
119.249621
 21
241.472081
 31
0.0
  0
SOLID
  5
642
  8
BEM1
 10
118.666287
 20
268.18498
 30
0.0
 11
119.832954
 21
268.18498
 31
0.0
 12
119.249621
 22
264.68498
 32
0.0
 13
119.249621
 23
264.68498
 33
0.0
  0
LINE
  5
643
  8
05
 10
164.78283
 20
247.224019
 30
0.0
 11
193.28283
 21
247.224019
 31
0.0
  0
LINE
  5
644
  8
05
 10
204.08283
 20
246.235351
 30
0.0
 11
164.78283
 21
246.235351
 31
0.0
  0
LINE
  5
645
  8
05
 10
187.88283
 20
242.263729
 30
0.0
 11
164.78283
 21
242.263729
 31
0.0
  0
LINE
  5
646
  8
05
 10
164.78283
 20
251.3
 30
0.0
 11
193.28283
 21
251.3
 31
0.0
  0
LINE
  5
647
  8
BEM1
 10
164.78283
 20
253.234842
 30
0.0
 11
164.78283
 21
277.836689
 31
0.0
  0
LINE
  5
648
  8
BEM1
 10
164.78283
 20
253.234842
 30
0.0
 11
164.78283
 21
277.836689
 31
0.0
  0
SOLID
  5
649
  8
BEM1
 10
168.28283
 20
276.196763
 30
0.0
 11
168.28283
 21
277.36343
 31
0.0
 12
164.78283
 22
276.780097
 32
0.0
 13
164.78283
 23
276.780097
 33
0.0
  0
LINE
  5
64A
  8
05
 10
193.28283
 20
247.252134
 30
0.0
 11
193.88283
 21
246.97128
 31
0.0
  0
LINE
  5
64B
  8
05
 10
209.78283
 20
251.702422
 30
0.0
 11
193.28283
 21
251.702422
 31
0.0
  0
LINE
  5
64C
  8
05
 10
209.78283
 20
250.15685
 30
0.0
 11
193.28283
 21
250.15685
 31
0.0
  0
LINE
  5
64D
  8
05
 10
187.88283
 20
243.399986
 30
0.0
 11
204.08283
 21
243.399986
 31
0.0
  0
LINE
  5
64E
  8
05
 10
193.28283
 20
246.235351
 30
0.0
 11
193.28283
 21
252.798485
 31
0.0
  0
LINE
  5
64F
  8
05
 10
193.28283
 20
246.235351
 30
0.0
 11
193.28283
 21
251.3
 31
0.0
  0
LINE
  5
650
  8
05
 10
193.88283
 20
246.97128
 30
0.0
 11
209.78283
 21
246.97128
 31
0.0
  0
LINE
  5
651
  8
05
 10
193.88283
 20
246.235351
 30
0.0
 11
193.88283
 21
246.97128
 31
0.0
  0
LINE
  5
652
  8
05
 10
209.78283
 20
245.905059
 30
0.0
 11
204.08283
 21
245.905059
 31
0.0
  0
TEXT
  5
653
  8
BEM1
 62
     3
 10
193.446067
 20
278.530097
 30
0.0
 40
3.5
  1
[0.768"]
 41
0.7
 51
15.0
  0
TEXT
  5
654
  8
BEM1
 62
     3
 10
180.260948
 20
278.530097
 30
0.0
 40
3.5
  1
19.50
 41
0.7
 51
15.0
  0
TEXT
  5
655
  8
035
 10
321.677019
 20
148.861972
 30
0.0
 40
3.5
  1
min. Einbauabstand
  7
ARIAL
  0
TEXT
  5
656
  8
035
 10
321.677019
 20
142.861972
 30
0.0
 40
3.0
  1
min assembling distance
  7
ARIAL
  0
ARC
  5
657
  8
035
 10
334.27294
 20
105.898004
 30
0.0
 40
10.9
 50
121.071011
 51
58.928989
  0
ARC
  5
658
  8
035
 10
334.27294
 20
105.898004
 30
0.0
 40
8.0
 50
140.415958
 51
77.232658
  0
ARC
  5
659
  8
035
 10
334.27294
 20
105.898004
 30
0.0
 40
9.75
 50
113.651752
 51
66.348248
  0
LINE
  5
65A
  8
MITTE
 10
346.630642
 20
105.898004
 30
0.0
 11
321.850585
 21
105.898004
 31
0.0
  0
ARC
  5
65B
  8
035
 10
334.27294
 20
105.898004
 30
0.0
 40
12.499495
 50
28.707238
 51
69.08932
  0
LINE
  5
65C
  8
BEM1
 10
337.77294
 20
128.588516
 30
0.0
 11
353.77294
 21
128.588516
 31
0.0
  0
TEXT
  5
65D
  8
BEM1
 62
     3
 10
332.237362
 20
130.357018
 30
0.0
 40
3.5
  1
23.00 [0.906"]
 41
0.7
 51
15.0
  0
LINE
  5
65E
  8
035
 10
344.172435
 20
93.398509
 30
0.0
 11
329.07294
 21
93.398509
 31
0.0
  0
LINE
  5
65F
  8
035
 10
342.441502
 20
115.35908
 30
0.0
 11
341.19788
 21
114.315557
 31
0.0
  0
POLYLINE
  5
660
  8
BEM2
 66
     1
 10
0.0
 20
0.0
 30
0.0
  0
VERTEX
  5
B9F
  8
BEM2
 10
276.158278
 20
52.342007
 30
0.0
  0
VERTEX
  5
BA0
  8
BEM2
 10
276.158278
 20
52.342007
 30
0.0
 42
0.026693
  0
SEQEND
  5
BA1
  8
BEM2
  0
TEXT
  5
662
  8
025
 10
320.670279
 20
38.931128
 30
0.0
 40
2.5
  1
- UL94V-0
 41
0.7
 51
15.0
  0
TEXT
  5
663
  8
025
 10
320.670279
 20
43.097795
 30
0.0
 40
2.5
  1
Zytel FR 51
 41
0.7
 51
15.0
  0
TEXT
  5
664
  8
025
 10
320.670279
 20
47.264461
 30
0.0
 40
2.5
  1
Plastic:
 41
0.7
 51
15.0
  0
LINE
  5
665
  8
BEM1
 10
246.521723
 20
90.858712
 30
0.0
 11
246.521723
 21
114.028712
 31
0.0
  0
LINE
  5
666
  8
MITTE
 10
210.047367
 20
121.271469
 30
0.0
 11
210.047367
 21
58.515377
 31
0.0
  0
TEXT
  5
667
  8
BEM1
 62
     3
 10
234.525961
 20
99.418677
 30
0.0
 40
3.5
  1
[0.150"]
 50
90.0
 41
0.7
 51
15.0
  0
TEXT
  5
668
  8
BEM1
 62
     3
 10
245.142946
 20
98.353053
 30
0.0
 40
3.5
  1
[0.350"]
 50
90.0
 41
0.7
 51
15.0
  0
TEXT
  5
669
  8
BEM1
 62
     3
 10
245.135436
 20
88.400697
 30
0.0
 40
3.5
  1
8.89
 50
90.0
 41
0.7
 51
15.0
  0
LINE
  5
66A
  8
BEM1
 10
216.571532
 20
87.358712
 30
0.0
 11
247.341772
 21
87.358712
 31
0.0
  0
LINE
  5
66B
  8
BEM1
 10
221.477367
 20
85.108712
 30
0.0
 11
221.477367
 21
77.502199
 31
0.0
  0
LINE
  5
66C
  8
BEM1
 10
223.586369
 20
81.848529
 30
0.0
 11
225.909845
 21
75.777989
 31
0.0
  0
TEXT
  5
66D
  8
035
 10
224.251338
 20
68.456778
 30
0.0
 40
4.5
  1
2
  7
HELV
  0
LINE
  5
66E
  8
BEM1
 10
225.909845
 20
75.777989
 30
0.0
 11
229.409845
 21
75.777989
 31
0.0
  0
LINE
  5
66F
  8
BEM1
 10
210.047367
 20
61.093712
 30
0.0
 11
210.047367
 21
64.093712
 31
0.0
  0
LINE
  5
670
  8
BEM1
 10
210.047367
 20
61.093712
 30
0.0
 11
210.047367
 21
64.093712
 31
0.0
  0
POLYLINE
  5
671
  8
05
 66
     1
 10
0.0
 20
0.0
 30
0.0
  0
VERTEX
  5
BA2
  8
05
 10
210.073972
 20
71.276597
 30
0.0
  0
VERTEX
  5
BA3
  8
05
 10
210.073972
 20
71.276597
 30
0.0
 42
0.122446
  0
SEQEND
  5
BA4
  8
05
  0
LINE
  5
672
  8
BEM1
 10
210.047367
 20
74.428712
 30
0.0
 11
210.047367
 21
77.428712
 31
0.0
  0
LINE
  5
673
  8
BEM1
 10
210.047367
 20
74.428712
 30
0.0
 11
210.047367
 21
77.428712
 31
0.0
  0
LINE
  5
674
  8
BEM1
 10
221.477367
 20
72.523712
 30
0.0
 11
221.477367
 21
75.523712
 31
0.0
  0
CIRCLE
  5
675
  8
05
 10
221.477367
 20
74.023712
 30
0.0
 40
2.4
  0
LINE
  5
676
  8
BEM1
 10
219.977367
 20
74.023712
 30
0.0
 11
222.977367
 21
74.023712
 31
0.0
  0
LINE
  5
677
  8
BEM1
 10
218.792367
 20
74.023712
 30
0.0
 11
221.792367
 21
74.023712
 31
0.0
  0
TEXT
  5
678
  8
BEM1
 62
     3
 10
231.677403
 20
74.271838
 30
0.0
 40
3.5
  1
(4x)
 41
0.7
 51
15.0
  0
SOLID
  5
679
  8
BEM1
 10
224.131161
 20
82.057046
 30
0.0
 11
223.041577
 21
81.640012
 31
0.0
 12
222.335266
 22
85.117281
 32
0.0
 13
222.335266
 23
85.117281
 33
0.0
  0
CIRCLE
  5
67A
  8
05
 10
221.477367
 20
87.358712
 30
0.0
 40
2.4
  0
LINE
  5
67B
  8
BEM1
 10
219.977367
 20
87.358712
 30
0.0
 11
222.977367
 21
87.358712
 31
0.0
  0
LINE
  5
67C
  8
BEM1
 10
221.477367
 20
85.858712
 30
0.0
 11
221.477367
 21
88.858712
 31
0.0
  0
LINE
  5
67D
  8
BEM1
 10
221.477367
 20
91.413256
 30
0.0
 11
221.477367
 21
101.43222
 31
0.0
  0
TEXT
  5
67E
  8
BEM1
 62
     3
 10
234.669244
 20
90.639072
 30
0.0
 40
3.5
  1
3.81
 50
90.0
 41
0.7
 51
15.0
  0
TEXT
  5
67F
  8
BEM1
 62
     3
 10
243.011805
 20
74.390527
 30
0.0
 40
3.5
  1
%%c1.60 [0.063"]
 41
0.7
 51
15.0
  0
SOLID
  5
680
  8
BEM1
 10
247.105056
 20
90.858712
 30
0.0
 11
245.93839
 21
90.858712
 31
0.0
 12
246.521723
 22
87.358712
 32
0.0
 13
246.521723
 23
87.358712
 33
0.0
  0
LINE
  5
681
  8
BEM1
 10
221.477367
 20
103.235885
 30
0.0
 11
221.477367
 21
125.819825
 31
0.0
  0
LINE
  5
682
  8
BEM1
 10
210.047367
 20
124.819825
 30
0.0
 11
210.047367
 21
133.122016
 31
0.0
  0
LINE
  5
683
  8
BEM1
 10
210.047367
 20
116.723415
 30
0.0
 11
210.047367
 21
125.819825
 31
0.0
  0
SOLID
  5
684
  8
BEM1
 10
224.977367
 20
124.436491
 30
0.0
 11
224.977367
 21
125.603158
 31
0.0
 12
221.477367
 22
125.019825
 32
0.0
 13
221.477367
 23
125.019825
 33
0.0
  0
LINE
  5
685
  8
BEM1
 10
210.047367
 20
123.219825
 30
0.0
 11
210.047367
 21
122.219825
 31
0.0
  0
SOLID
  5
686
  8
BEM1
 10
237.002577
 20
110.528712
 30
0.0
 11
235.835911
 21
110.528712
 31
0.0
 12
236.419244
 22
114.028712
 32
0.0
 13
236.419244
 23
114.028712
 33
0.0
  0
LINE
  5
687
  8
BEM1
 10
236.419244
 20
106.098712
 30
0.0
 11
236.419244
 21
110.528712
 31
0.0
  0
SOLID
  5
688
  8
BEM1
 10
237.002577
 20
106.098712
 30
0.0
 11
235.835911
 21
106.098712
 31
0.0
 12
236.419244
 22
102.598712
 32
0.0
 13
236.419244
 23
102.598712
 33
0.0
  0
LINE
  5
689
  8
BEM1
 10
235.676005
 20
102.598712
 30
0.0
 11
237.229457
 21
102.598712
 31
0.0
  0
TEXT
  5
68A
  8
BEM1
 62
     3
 10
210.894323
 20
126.791375
 30
0.0
 40
3.5
  1
3.81 [0.150"]
 41
0.7
 51
15.0
  0
LINE
  5
68B
  8
05
 10
243.047367
 20
114.028712
 30
0.0
 11
259.397236
 21
114.028712
 31
0.0
  0
LINE
  5
68C
  8
05
 10
243.047367
 20
120.028712
 30
0.0
 11
259.397236
 21
120.028712
 31
0.0
  0
POLYLINE
  5
68D
  8
025
 66
     1
 10
0.0
 20
0.0
 30
0.0
  0
VERTEX
  5
BA5
  8
025
 10
259.397236
 20
120.028712
 30
0.0
  0
VERTEX
  5
BA6
  8
025
 10
258.72789
 20
118.060693
 30
0.0
  0
VERTEX
  5
BA7
  8
025
 10
259.258699
 20
116.761262
 30
0.0
  0
VERTEX
  5
BA8
  8
025
 10
260.143382
 20
116.01873
 30
0.0
  0
VERTEX
  5
BA9
  8
025
 10
259.397236
 20
114.028712
 30
0.0
  0
SEQEND
  5
BAA
  8
025
  0
SOLID
  5
68E
  8
BEM1
 10
247.105056
 20
110.528712
 30
0.0
 11
245.93839
 21
110.528712
 31
0.0
 12
246.521723
 22
114.028712
 32
0.0
 13
246.521723
 23
114.028712
 33
0.0
  0
LINE
  5
68F
  8
05
 10
243.047367
 20
120.028712
 30
0.0
 11
243.047367
 21
114.028712
 31
0.0
  0
LINE
  5
690
  8
MITTE
 10
334.27294
 20
120.272493
 30
0.0
 11
334.27294
 21
91.51751
 31
0.0
  0
CIRCLE
  5
691
  8
035
 10
334.27294
 20
101.948004
 30
0.0
 40
1.3
  0
LINE
  5
692
  8
035
 10
323.27294
 20
100.012636
 30
0.0
 11
323.27294
 21
110.945404
 31
0.0
  0
ARC
  5
693
  8
035
 10
334.27294
 20
105.898004
 30
0.0
 40
11.8
 50
210.286897
 51
239.713104
  0
ARC
  5
694
  8
035
 10
334.27294
 20
105.898004
 30
0.0
 40
12.499495
 50
208.707238
 51
245.54259
  0
ARC
  5
695
  8
035
 10
323.57294
 20
100.038168
 30
0.0
 40
0.3
 50
180.0
 51
208.707238
  0
LINE
  5
696
  8
035
 10
323.573108
 20
99.436506
 30
0.0
 11
324.743366
 21
100.606763
 31
0.0
  0
ARC
  5
697
  8
035
 10
323.47294
 20
100.012636
 30
0.0
 40
0.2
 50
180.0
 51
208.587806
  0
LINE
  5
698
  8
035
 10
322.27294
 20
100.448004
 30
0.0
 11
323.27294
 21
100.448004
 31
0.0
  0
LINE
  5
699
  8
035
 10
323.27294
 20
100.448004
 30
0.0
 11
323.27294
 21
99.448004
 31
0.0
  0
LINE
  5
69A
  8
035
 10
322.52294
 20
99.448004
 30
0.0
 11
322.27294
 21
99.698004
 31
0.0
  0
LINE
  5
69B
  8
035
 10
322.27294
 20
100.448004
 30
0.0
 11
322.27294
 21
99.698004
 31
0.0
  0
LINE
  5
69C
  8
035
 10
322.52294
 20
100.448004
 30
0.0
 11
322.52294
 21
99.448004
 31
0.0
  0
LINE
  5
69D
  8
035
 10
323.566173
 20
99.448004
 30
0.0
 11
322.52294
 21
99.448004
 31
0.0
  0
LINE
  5
69E
  8
MITTE
 10
335.57294
 20
101.948004
 30
0.0
 11
332.97294
 21
101.948004
 31
0.0
  0
LINE
  5
69F
  8
035
 10
327.811442
 20
95.198173
 30
0.0
 11
328.981699
 21
96.36843
 31
0.0
  0
LINE
  5
6A0
  8
035
 10
331.01294
 20
91.898509
 30
0.0
 11
329.91294
 21
91.898509
 31
0.0
  0
LINE
  5
6A1
  8
035
 10
331.21294
 20
92.098509
 30
0.0
 11
329.71294
 21
92.098509
 31
0.0
  0
LINE
  5
6A2
  8
035
 10
331.21294
 20
92.098509
 30
0.0
 11
331.01294
 21
91.898509
 31
0.0
  0
LINE
  5
6A3
  8
035
 10
329.91294
 20
91.898509
 30
0.0
 11
329.71294
 21
92.098509
 31
0.0
  0
LINE
  5
6A4
  8
035
 10
331.21294
 20
93.398509
 30
0.0
 11
331.21294
 21
92.098509
 31
0.0
  0
LINE
  5
6A5
  8
035
 10
329.71294
 20
93.398509
 30
0.0
 11
329.71294
 21
92.098509
 31
0.0
  0
LINE
  5
6A6
  8
035
 10
329.09794
 20
94.520098
 30
0.0
 11
329.09794
 21
93.398509
 31
0.0
  0
LINE
  5
6A7
  8
MITTE
 10
330.46294
 20
94.366943
 30
0.0
 11
330.46294
 21
91.898509
 31
0.0
  0
LINE
  5
6A8
  8
035
 10
338.63294
 20
91.898509
 30
0.0
 11
337.53294
 21
91.898509
 31
0.0
  0
LINE
  5
6A9
  8
035
 10
338.83294
 20
92.098509
 30
0.0
 11
337.33294
 21
92.098509
 31
0.0
  0
LINE
  5
6AA
  8
035
 10
338.83294
 20
92.098509
 30
0.0
 11
338.63294
 21
91.898509
 31
0.0
  0
LINE
  5
6AB
  8
035
 10
337.53294
 20
91.898509
 30
0.0
 11
337.33294
 21
92.098509
 31
0.0
  0
LINE
  5
6AC
  8
035
 10
338.83294
 20
93.398509
 30
0.0
 11
338.83294
 21
92.098509
 31
0.0
  0
LINE
  5
6AD
  8
035
 10
337.33294
 20
93.398509
 30
0.0
 11
337.33294
 21
92.098509
 31
0.0
  0
LINE
  5
6AE
  8
MITTE
 10
338.08294
 20
94.366943
 30
0.0
 11
338.08294
 21
91.898509
 31
0.0
  0
TEXT
  5
6AF
  8
035
 10
333.648036
 20
98.87162
 30
0.0
 40
1.5
  1
3
  7
HELV
  0
LINE
  5
6B0
  8
BEM1
 10
334.27294
 20
121.072493
 30
0.0
 11
334.27294
 21
129.388516
 31
0.0
  0
CIRCLE
  5
6B1
  8
035
 10
324.373445
 20
115.797499
 30
0.0
 40
1.1
  0
CIRCLE
  5
6B2
  8
035
 10
324.373445
 20
115.797499
 30
0.0
 40
1.6
  0
CIRCLE
  5
6B3
  8
035
 10
324.373445
 20
115.797499
 30
0.0
 40
1.1
  0
ARC
  5
6B4
  8
035
 10
324.373445
 20
115.797499
 30
0.0
 40
2.6
 50
62.465414
 51
214.346556
  0
ARC
  5
6B5
  8
035
 10
317.27294
 20
110.945404
 30
0.0
 40
6.0
 50
360.0
 51
34.346556
  0
ARC
  5
6B6
  8
035
 10
334.27294
 20
105.898004
 30
0.0
 40
8.0
 50
102.767342
 51
129.584042
  0
LINE
  5
6B7
  8
035
 10
335.77294
 20
115.847657
 30
0.0
 11
335.77294
 21
113.517619
 31
0.0
  0
LINE
  5
6B8
  8
035
 10
332.77294
 20
115.847657
 30
0.0
 11
332.77294
 21
113.517619
 31
0.0
  0
LINE
  5
6B9
  8
035
 10
337.07294
 20
115.029187
 30
0.0
 11
337.07294
 21
113.392002
 31
0.0
  0
LINE
  5
6BA
  8
035
 10
331.47294
 20
115.029187
 30
0.0
 11
331.47294
 21
113.392002
 31
0.0
  0
ARC
  5
6BB
  8
035
 10
332.549197
 20
113.505153
 30
0.0
 40
0.2
 50
30.0
 51
102.767342
  0
ARC
  5
6BC
  8
035
 10
335.996682
 20
113.505153
 30
0.0
 40
0.2
 50
77.232658
 51
150.0
  0
INSERT
  5
6BD
  8
025
  2
NT
 10
334.27294
 20
105.898004
 30
0.0
 41
3.0
 42
3.0
 43
3.0
  0
POLYLINE
  5
6BE
  8
035
 66
     1
 10
0.0
 20
0.0
 30
0.0
  0
VERTEX
  5
BAB
  8
035
 10
332.53923
 20
108.697916
 30
0.0
 42
0.199105
  0
VERTEX
  5
BAC
  8
035
 10
332.556034
 20
108.657389
 30
0.0
 42
0.098437
  0
VERTEX
  5
BAD
  8
035
 10
332.627723
 20
108.609554
 30
0.0
 42
0.055684
  0
VERTEX
  5
BAE
  8
035
 10
332.718295
 20
108.583419
 30
0.0
 42
0.042444
  0
VERTEX
  5
BAF
  8
035
 10
332.841364
 20
108.572953
 30
0.0
 42
0.042444
  0
VERTEX
  5
BB0
  8
035
 10
332.964434
 20
108.583419
 30
0.0
 42
0.055684
  0
VERTEX
  5
BB1
  8
035
 10
333.055006
 20
108.609554
 30
0.0
 42
0.098437
  0
VERTEX
  5
BB2
  8
035
 10
333.126695
 20
108.657389
 30
0.0
 42
0.141327
  0
VERTEX
  5
BB3
  8
035
 10
333.142061
 20
108.685164
 30
0.0
 42
0.199105
  0
SEQEND
  5
BB4
  8
035
  0
POLYLINE
  5
6BF
  8
035
 66
     1
 10
0.0
 20
0.0
 30
0.0
  0
VERTEX
  5
BB5
  8
035
 10
331.974991
 20
108.622938
 30
0.0
 42
0.242955
  0
VERTEX
  5
BB6
  8
035
 10
332.013551
 20
108.548267
 30
0.0
 42
0.083039
  0
VERTEX
  5
BB7
  8
035
 10
332.223877
 20
108.446213
 30
0.0
 42
0.041229
  0
VERTEX
  5
BB8
  8
035
 10
332.475813
 20
108.394188
 30
0.0
 42
0.030317
  0
VERTEX
  5
BB9
  8
035
 10
332.824742
 20
108.373011
 30
0.0
 42
0.030317
  0
VERTEX
  5
BBA
  8
035
 10
333.17367
 20
108.394188
 30
0.0
 42
0.041229
  0
VERTEX
  5
BBB
  8
035
 10
333.425606
 20
108.446213
 30
0.0
 42
0.083039
  0
VERTEX
  5
BBC
  8
035
 10
333.635933
 20
108.548267
 30
0.0
 42
0.186877
  0
VERTEX
  5
BBD
  8
035
 10
333.672396
 20
108.603456
 30
0.0
 42
0.242955
  0
SEQEND
  5
BBE
  8
035
  0
ARC
  5
6C0
  8
035
 10
333.18841
 20
113.198004
 30
0.0
 40
0.2
 50
210.0
 51
270.0
  0
CIRCLE
  5
6C1
  8
035
 10
330.22294
 20
105.898004
 30
0.0
 40
1.3
  0
TEXT
  5
6C2
  8
035
 10
329.560319
 20
102.769396
 30
0.0
 40
1.5
  1
2
  7
HELV
  0
LINE
  5
6C3
  8
MITTE
 10
330.22294
 20
107.198004
 30
0.0
 11
330.22294
 21
104.598004
 31
0.0
  0
ARC
  5
6C4
  8
035
 10
328.828218
 20
111.342726
 30
0.0
 40
0.8
 50
42.022256
 51
227.977744
  0
LINE
  5
6C5
  8
035
 10
328.95113
 20
109.197769
 30
0.0
 11
329.448391
 21
108.847872
 31
0.0
  0
LINE
  5
6C6
  8
035
 10
328.773589
 20
108.847872
 30
0.0
 11
329.273679
 21
108.398004
 31
0.0
  0
LINE
  5
6C7
  8
035
 10
328.673855
 20
108.398004
 30
0.0
 11
328.773589
 21
108.847872
 31
0.0
  0
LINE
  5
6C8
  8
035
 10
328.124017
 20
108.398004
 30
0.0
 11
328.30132
 21
109.197769
 31
0.0
  0
LINE
  5
6C9
  8
035
 10
328.30132
 20
109.197769
 30
0.0
 11
328.95113
 21
109.197769
 31
0.0
  0
LINE
  5
6CA
  8
035
 10
328.124017
 20
108.398004
 30
0.0
 11
328.673855
 21
108.398004
 31
0.0
  0
POLYLINE
  5
6CB
  8
035
 66
     1
 10
0.0
 20
0.0
 30
0.0
  0
VERTEX
  5
BBF
  8
035
 10
332.540767
 20
108.711095
 30
0.0
 42
0.058115
  0
VERTEX
  5
BC0
  8
035
 10
332.53923
 20
108.697916
 30
0.0
 42
0.199105
  0
SEQEND
  5
BC1
  8
035
  0
POLYLINE
  5
6CC
  8
035
 66
     1
 10
0.0
 20
0.0
 30
0.0
  0
VERTEX
  5
BC2
  8
035
 10
331.977061
 20
108.642299
 30
0.0
 42
0.053304
  0
VERTEX
  5
BC3
  8
035
 10
331.974991
 20
108.622938
 30
0.0
 42
0.242955
  0
SEQEND
  5
BC4
  8
035
  0
LINE
  5
6CD
  8
035
 10
332.100206
 20
109.197769
 30
0.0
 11
332.64866
 21
109.197769
 31
0.0
  0
LINE
  5
6CE
  8
035
 10
332.540767
 20
108.711095
 30
0.0
 11
332.64866
 21
109.197769
 31
0.0
  0
LINE
  5
6CF
  8
035
 10
331.977061
 20
108.642299
 30
0.0
 11
332.100206
 21
109.197769
 31
0.0
  0
LINE
  5
6D0
  8
035
 10
331.80817
 20
109.007825
 30
0.0
 11
331.850279
 21
109.197769
 31
0.0
  0
LINE
  5
6D1
  8
035
 10
330.832961
 20
108.892859
 30
0.0
 11
330.858448
 21
109.007825
 31
0.0
  0
LINE
  5
6D2
  8
035
 10
330.790851
 20
108.702915
 30
0.0
 11
331.665594
 21
108.702915
 31
0.0
  0
LINE
  5
6D3
  8
035
 10
330.832961
 20
108.892859
 30
0.0
 11
331.707704
 21
108.892859
 31
0.0
  0
LINE
  5
6D4
  8
035
 10
330.350719
 20
109.197769
 30
0.0
 11
331.850279
 21
109.197769
 31
0.0
  0
LINE
  5
6D5
  8
035
 10
330.173415
 20
108.398004
 30
0.0
 11
331.672975
 21
108.398004
 31
0.0
  0
LINE
  5
6D6
  8
035
 10
330.858448
 20
109.007825
 30
0.0
 11
331.80817
 21
109.007825
 31
0.0
  0
LINE
  5
6D7
  8
035
 10
330.765364
 20
108.587948
 30
0.0
 11
331.715085
 21
108.587948
 31
0.0
  0
LINE
  5
6D8
  8
035
 10
331.672975
 20
108.398004
 30
0.0
 11
331.715085
 21
108.587948
 31
0.0
  0
LINE
  5
6D9
  8
035
 10
331.665594
 20
108.702915
 30
0.0
 11
331.707704
 21
108.892859
 31
0.0
  0
LINE
  5
6DA
  8
035
 10
330.765364
 20
108.587948
 30
0.0
 11
330.790851
 21
108.702915
 31
0.0
  0
LINE
  5
6DB
  8
035
 10
330.173415
 20
108.398004
 30
0.0
 11
330.350719
 21
109.197769
 31
0.0
  0
LINE
  5
6DC
  8
035
 10
329.273679
 20
108.398004
 30
0.0
 11
329.898496
 21
108.398004
 31
0.0
  0
LINE
  5
6DD
  8
035
 10
329.525961
 20
109.197769
 30
0.0
 11
330.0758
 21
109.197769
 31
0.0
  0
LINE
  5
6DE
  8
035
 10
329.448391
 20
108.847872
 30
0.0
 11
329.525961
 21
109.197769
 31
0.0
  0
LINE
  5
6DF
  8
035
 10
329.898496
 20
108.398004
 30
0.0
 11
330.0758
 21
109.197769
 31
0.0
  0
LINE
  5
6E0
  8
035
 10
333.015205
 20
113.098004
 30
0.0
 11
332.722402
 21
113.605153
 31
0.0
  0
CIRCLE
  5
6E1
  8
035
 10
338.32294
 20
105.898004
 30
0.0
 40
1.3
  0
TEXT
  5
6E2
  8
035
 10
337.820085
 20
102.72506
 30
0.0
 40
1.5
  1
1
  7
HELV
  0
LINE
  5
6E3
  8
MITTE
 10
338.32294
 20
107.198004
 30
0.0
 11
338.32294
 21
104.598004
 31
0.0
  0
POLYLINE
  5
6E4
  8
035
 66
     1
 10
0.0
 20
0.0
 30
0.0
  0
VERTEX
  5
BC5
  8
035
 10
337.168187
 20
108.756304
 30
0.0
 42
0.015369
  0
VERTEX
  5
BC6
  8
035
 10
337.204782
 20
108.775032
 30
0.0
 42
0.073981
  0
VERTEX
  5
BC7
  8
035
 10
337.310077
 20
108.855322
 30
0.0
 42
0.106894
  0
VERTEX
  5
BC8
  8
035
 10
337.375923
 20
108.96066
 30
0.0
 42
0.153048
  0
VERTEX
  5
BC9
  8
035
 10
337.379604
 20
109.048375
 30
0.0
 42
0.153048
  0
VERTEX
  5
BCA
  8
035
 10
337.332558
 20
109.122497
 30
0.0
 42
0.106894
  0
VERTEX
  5
BCB
  8
035
 10
337.222866
 20
109.1808
 30
0.0
 42
0.067948
  0
VERTEX
  5
BCC
  8
035
 10
337.102335
 20
109.197769
 30
0.0
 42
0.060566
  0
SEQEND
  5
BCD
  8
035
  0
LINE
  5
6E5
  8
035
 10
336.670243
 20
108.398004
 30
0.0
 11
337.226896
 21
108.398004
 31
0.0
  0
POLYLINE
  5
6E6
  8
035
 66
     1
 10
0.0
 20
0.0
 30
0.0
  0
VERTEX
  5
BCE
  8
035
 10
336.661038
 20
108.608228
 30
0.0
 42
0.082344
  0
VERTEX
  5
BCF
  8
035
 10
336.660097
 20
108.61785
 30
0.0
 42
0.153048
  0
VERTEX
  5
BD0
  8
035
 10
336.650625
 20
108.632775
 30
0.0
 42
0.106894
  0
VERTEX
  5
BD1
  8
035
 10
336.628538
 20
108.644514
 30
0.0
 42
0.067948
  0
VERTEX
  5
BD2
  8
035
 10
336.604269
 20
108.647931
 30
0.0
 42
0.060506
  0
SEQEND
  5
BD3
  8
035
  0
POLYLINE
  5
6E7
  8
035
 66
     1
 10
0.0
 20
0.0
 30
0.0
  0
VERTEX
  5
BD4
  8
035
 10
336.596454
 20
108.837875
 30
0.0
 42
0.065514
  0
VERTEX
  5
BD5
  8
035
 10
336.654549
 20
108.845725
 30
0.0
 42
0.060566
  0
VERTEX
  5
BD6
  8
035
 10
336.704809
 20
108.865962
 30
0.0
 42
0.073981
  0
VERTEX
  5
BD7
  8
035
 10
336.740144
 20
108.892905
 30
0.0
 42
0.106894
  0
VERTEX
  5
BD8
  8
035
 10
336.762241
 20
108.928255
 30
0.0
 42
0.153048
  0
VERTEX
  5
BD9
  8
035
 10
336.763476
 20
108.957691
 30
0.0
 42
0.153048
  0
VERTEX
  5
BDA
  8
035
 10
336.747688
 20
108.982565
 30
0.0
 42
0.106894
  0
VERTEX
  5
BDB
  8
035
 10
336.710877
 20
109.002131
 30
0.0
 42
0.067948
  0
VERTEX
  5
BDC
  8
035
 10
336.670429
 20
109.007825
 30
0.0
 42
0.060506
  0
SEQEND
  5
BDD
  8
035
  0
ARC
  5
6E8
  8
035
 10
336.771314
 20
108.463345
 30
0.0
 40
0.120353
 50
180.772005
 51
212.881875
  0
LINE
  5
6E9
  8
035
 10
336.206879
 20
109.007825
 30
0.0
 11
336.670429
 21
109.007825
 31
0.0
  0
LINE
  5
6EA
  8
035
 10
336.169202
 20
108.837875
 30
0.0
 11
336.206879
 21
109.007825
 31
0.0
  0
LINE
  5
6EB
  8
035
 10
336.169202
 20
108.837875
 30
0.0
 11
336.596454
 21
108.837875
 31
0.0
  0
LINE
  5
6EC
  8
035
 10
336.127092
 20
108.647931
 30
0.0
 11
336.604269
 21
108.647931
 31
0.0
  0
LINE
  5
6ED
  8
035
 10
336.650972
 20
108.461723
 30
0.0
 11
336.661038
 21
108.608228
 31
0.0
  0
LINE
  5
6EE
  8
035
 10
335.69915
 20
109.197769
 30
0.0
 11
337.102335
 21
109.197769
 31
0.0
  0
LINE
  5
6EF
  8
035
 10
335.521846
 20
108.398004
 30
0.0
 11
336.071685
 21
108.398004
 31
0.0
  0
LINE
  5
6F0
  8
035
 10
336.071685
 20
108.398004
 30
0.0
 11
336.127092
 21
108.647931
 31
0.0
  0
LINE
  5
6F1
  8
035
 10
335.521846
 20
108.398004
 30
0.0
 11
335.69915
 21
109.197769
 31
0.0
  0
LINE
  5
6F2
  8
035
 10
334.955029
 20
108.997828
 30
0.0
 11
335.479875
 21
108.997828
 31
0.0
  0
LINE
  5
6F3
  8
035
 10
333.949663
 20
109.197769
 30
0.0
 11
335.524201
 21
109.197769
 31
0.0
  0
LINE
  5
6F4
  8
035
 10
334.272213
 20
108.398004
 30
0.0
 11
334.822052
 21
108.398004
 31
0.0
  0
LINE
  5
6F5
  8
035
 10
333.905337
 20
108.997828
 30
0.0
 11
334.405191
 21
108.997828
 31
0.0
  0
LINE
  5
6F6
  8
035
 10
335.479875
 20
108.997828
 30
0.0
 11
335.524201
 21
109.197769
 31
0.0
  0
LINE
  5
6F7
  8
035
 10
334.822052
 20
108.398004
 30
0.0
 11
334.955029
 21
108.997828
 31
0.0
  0
LINE
  5
6F8
  8
035
 10
334.272213
 20
108.398004
 30
0.0
 11
334.405191
 21
108.997828
 31
0.0
  0
LINE
  5
6F9
  8
035
 10
333.905337
 20
108.997828
 30
0.0
 11
333.949663
 21
109.197769
 31
0.0
  0
LINE
  5
6FA
  8
035
 10
333.255703
 20
109.197769
 30
0.0
 11
333.804152
 21
109.197769
 31
0.0
  0
LINE
  5
6FB
  8
035
 10
333.672396
 20
108.603456
 30
0.0
 11
333.804152
 21
109.197769
 31
0.0
  0
LINE
  5
6FC
  8
035
 10
333.142061
 20
108.685164
 30
0.0
 11
333.255703
 21
109.197769
 31
0.0
  0
LINE
  5
6FD
  8
035
 10
335.35747
 20
112.998004
 30
0.0
 11
333.18841
 21
112.998004
 31
0.0
  0
LINE
  5
6FE
  8
035
 10
335.530675
 20
113.098004
 30
0.0
 11
335.823477
 21
113.605153
 31
0.0
  0
ARC
  5
6FF
  8
035
 10
335.35747
 20
113.198004
 30
0.0
 40
0.2
 50
270.0
 51
330.0
  0
LINE
  5
700
  8
035
 10
339.445695
 20
108.398004
 30
0.0
 11
340.195475
 21
108.398004
 31
0.0
  0
LINE
  5
701
  8
035
 10
338.988197
 20
108.927261
 30
0.0
 11
339.048167
 21
109.197769
 31
0.0
  0
LINE
  5
702
  8
035
 10
339.677642
 20
108.92285
 30
0.0
 11
340.322794
 21
109.197769
 31
0.0
  0
LINE
  5
703
  8
035
 10
339.677642
 20
108.92285
 30
0.0
 11
340.195475
 21
108.398004
 31
0.0
  0
LINE
  5
704
  8
035
 10
339.14979
 20
108.697916
 30
0.0
 11
339.445695
 21
108.398004
 31
0.0
  0
LINE
  5
705
  8
035
 10
339.622999
 20
109.197769
 30
0.0
 11
340.322794
 21
109.197769
 31
0.0
  0
LINE
  5
706
  8
035
 10
338.988197
 20
108.927261
 30
0.0
 11
339.622999
 21
109.197769
 31
0.0
  0
LINE
  5
707
  8
035
 10
338.91519
 20
108.597945
 30
0.0
 11
339.14979
 21
108.697916
 31
0.0
  0
LINE
  5
708
  8
035
 10
338.346018
 20
108.398004
 30
0.0
 11
338.870864
 21
108.398004
 31
0.0
  0
LINE
  5
709
  8
035
 10
338.523321
 20
109.197769
 30
0.0
 11
339.048167
 21
109.197769
 31
0.0
  0
LINE
  5
70A
  8
035
 10
338.870864
 20
108.398004
 30
0.0
 11
338.91519
 21
108.597945
 31
0.0
  0
LINE
  5
70B
  8
035
 10
338.346018
 20
108.398004
 30
0.0
 11
338.523321
 21
109.197769
 31
0.0
  0
LINE
  5
70C
  8
035
 10
337.648578
 20
109.197769
 30
0.0
 11
338.198417
 21
109.197769
 31
0.0
  0
LINE
  5
70D
  8
035
 10
337.471274
 20
108.398004
 30
0.0
 11
338.021113
 21
108.398004
 31
0.0
  0
LINE
  5
70E
  8
035
 10
338.021113
 20
108.398004
 30
0.0
 11
338.198417
 21
109.197769
 31
0.0
  0
LINE
  5
70F
  8
035
 10
337.471274
 20
108.398004
 30
0.0
 11
337.648578
 21
109.197769
 31
0.0
  0
POLYLINE
  5
710
  8
035
 66
     1
 10
0.0
 20
0.0
 30
0.0
  0
VERTEX
  5
BDE
  8
035
 10
337.215231
 20
108.667945
 30
0.0
 42
0.084831
  0
VERTEX
  5
BDF
  8
035
 10
337.212375
 20
108.698716
 30
0.0
 42
0.153048
  0
VERTEX
  5
BE0
  8
035
 10
337.182972
 20
108.745043
 30
0.0
 42
0.025315
  0
VERTEX
  5
BE1
  8
035
 10
337.168187
 20
108.756304
 30
0.0
 42
0.067948
  0
SEQEND
  5
BE2
  8
035
  0
ARC
  5
711
  8
035
 10
337.326866
 20
108.472982
 30
0.0
 40
0.124963
 50
176.0
 51
216.869898
  0
LINE
  5
712
  8
035
 10
337.202208
 20
108.481699
 30
0.0
 11
337.215231
 21
108.667945
 31
0.0
  0
ARC
  5
713
  8
035
 10
334.27294
 20
112.359664
 30
0.0
 40
10.0
 50
90.0
 51
112.34225
  0
ARC
  5
714
  8
035
 10
334.27294
 20
105.859664
 30
0.0
 40
10.1
 50
61.15
 51
118.85
  0
LINE
  5
715
  8
035
 10
329.27294
 20
119.776535
 30
0.0
 11
329.27294
 21
118.925365
 31
0.0
  0
ARC
  5
716
  8
035
 10
334.27294
 20
105.898004
 30
0.0
 40
11.0
 50
102.641154
 51
120.0
  0
ARC
  5
717
  8
035
 10
331.24752
 20
118.929786
 30
0.0
 40
1.974585
 50
180.128292
 51
270.737625
  0
LINE
  5
718
  8
035
 10
328.77294
 20
115.424284
 30
0.0
 11
329.298945
 21
114.513216
 31
0.0
  0
ARC
  5
719
  8
035
 10
328.349087
 20
123.423394
 30
0.0
 40
6.0
 50
242.465414
 51
283.885663
  0
ARC
  5
71A
  8
035
 10
328.750669
 20
115.062857
 30
0.0
 40
0.2
 50
30.0
 51
121.071011
  0
LINE
  5
71B
  8
035
 10
331.27294
 20
116.955365
 30
0.0
 11
331.47294
 21
116.955365
 31
0.0
  0
LINE
  5
71C
  8
035
 10
331.87294
 20
116.555365
 30
0.0
 11
331.87294
 21
116.112869
 31
0.0
  0
LINE
  5
71D
  8
035
 10
331.788691
 20
116.472793
 30
0.0
 11
331.971021
 21
115.693848
 31
0.0
  0
ARC
  5
71E
  8
035
 10
331.47294
 20
116.555365
 30
0.0
 40
0.4
 50
0.0
 51
90.0
  0
LINE
  5
71F
  8
035
 10
329.013491
 20
115.406821
 30
0.0
 11
329.399506
 21
114.706112
 31
0.0
  0
ARC
  5
720
  8
035
 10
334.27294
 20
105.859664
 30
0.0
 40
10.9
 50
102.71981
 51
118.85
  0
ARC
  5
721
  8
035
 10
331.27294
 20
115.029187
 30
0.0
 40
0.2
 50
0.0
 51
90.0
  0
LINE
  5
722
  8
035
 10
331.27294
 20
115.229187
 30
0.0
 11
330.501728
 21
115.229187
 31
0.0
  0
ARC
  5
723
  8
035
 10
330.281233
 20
115.012211
 30
0.0
 40
0.2
 50
293.651752
 51
22.5
  0
LINE
  5
724
  8
035
 10
330.466009
 20
115.088748
 30
0.0
 11
330.421396
 21
115.196452
 31
0.0
  0
LINE
  5
725
  8
035
 10
330.115249
 20
115.935557
 30
0.0
 11
330.063422
 21
116.060679
 31
0.0
  0
ARC
  5
726
  8
035
 10
329.12574
 20
114.413216
 30
0.0
 40
0.2
 50
301.151751
 51
30.0
  0
ARC
  5
727
  8
035
 10
331.27294
 20
119.776535
 30
0.0
 40
2.0
 50
113.621418
 51
180.0
  0
LINE
  5
728
  8
035
 10
339.27294
 20
119.776535
 30
0.0
 11
339.27294
 21
118.925365
 31
0.0
  0
LINE
  5
729
  8
035
 10
337.07294
 20
116.955365
 30
0.0
 11
337.27294
 21
116.955365
 31
0.0
  0
ARC
  5
72A
  8
035
 10
334.27294
 20
105.859664
 30
0.0
 40
10.9
 50
61.15
 51
77.28019
  0
ARC
  5
72B
  8
035
 10
337.27294
 20
115.029187
 30
0.0
 40
0.2
 50
90.0
 51
180.0
  0
ARC
  5
72C
  8
035
 10
334.27294
 20
105.898004
 30
0.0
 40
11.0
 50
60.0
 51
77.358845
  0
LINE
  5
72D
  8
035
 10
336.67294
 20
116.555365
 30
0.0
 11
336.67294
 21
116.112869
 31
0.0
  0
LINE
  5
72E
  8
035
 10
336.757189
 20
116.472793
 30
0.0
 11
336.574858
 21
115.693848
 31
0.0
  0
ARC
  5
72F
  8
035
 10
337.07294
 20
116.555365
 30
0.0
 40
0.4
 50
90.0
 51
180.0
  0
LINE
  5
730
  8
035
 10
339.532388
 20
115.406821
 30
0.0
 11
339.146374
 21
114.706112
 31
0.0
  0
ARC
  5
731
  8
035
 10
337.298359
 20
118.929786
 30
0.0
 40
1.974585
 50
269.262375
 51
359.871708
  0
LINE
  5
732
  8
035
 10
338.044152
 20
115.229187
 30
0.0
 11
337.27294
 21
115.229187
 31
0.0
  0
ARC
  5
733
  8
035
 10
338.264647
 20
115.012211
 30
0.0
 40
0.2
 50
157.5
 51
246.348248
  0
LINE
  5
734
  8
035
 10
338.079871
 20
115.088748
 30
0.0
 11
338.124483
 21
115.196452
 31
0.0
  0
LINE
  5
735
  8
035
 10
338.43063
 20
115.935557
 30
0.0
 11
338.482458
 21
116.060679
 31
0.0
  0
ARC
  5
736
  8
035
 10
339.42014
 20
114.413216
 30
0.0
 40
0.2
 50
150.0
 51
238.848249
  0
ARC
  5
737
  8
035
 10
339.79521
 20
115.062857
 30
0.0
 40
0.2
 50
58.928989
 51
150.0
  0
LINE
  5
738
  8
035
 10
339.77294
 20
115.424284
 30
0.0
 11
339.246935
 21
114.513216
 31
0.0
  0
ARC
  5
739
  8
035
 10
334.27294
 20
112.359664
 30
0.0
 40
10.0
 50
67.65775
 51
90.0
  0
ARC
  5
73A
  8
035
 10
337.27294
 20
119.776535
 30
0.0
 40
2.0
 50
0.0
 51
66.378582
  0
SOLID
  5
73B
  8
BEM1
 10
337.77294
 20
128.005183
 30
0.0
 11
337.77294
 21
129.171849
 31
0.0
 12
334.27294
 22
128.588516
 32
0.0
 13
334.27294
 23
128.588516
 33
0.0
  0
ARC
  5
73C
  8
035
 10
357.27294
 20
105.898004
 30
0.0
 40
8.0
 50
140.415958
 51
77.232658
  0
LINE
  5
73D
  8
035
 10
368.27294
 20
100.850604
 30
0.0
 11
368.27294
 21
111.783374
 31
0.0
  0
LINE
  5
73E
  8
035
 10
346.27294
 20
100.012636
 30
0.0
 11
346.27294
 21
110.945404
 31
0.0
  0
CIRCLE
  5
73F
  8
035
 10
357.27294
 20
101.948004
 30
0.0
 40
1.3
  0
ARC
  5
740
  8
035
 10
357.27294
 20
105.898004
 30
0.0
 40
9.75
 50
113.651752
 51
66.348248
  0
ARC
  5
741
  8
035
 10
357.27294
 20
105.898004
 30
0.0
 40
10.9
 50
121.071011
 51
58.928989
  0
LINE
  5
742
  8
MITTE
 10
357.27294
 20
120.272493
 30
0.0
 11
357.27294
 21
91.51751
 31
0.0
  0
LINE
  5
743
  8
035
 10
345.27294
 20
100.850604
 30
0.0
 11
345.27294
 21
111.783374
 31
0.0
  0
LINE
  5
744
  8
035
 10
367.172435
 20
93.398509
 30
0.0
 11
352.07294
 21
93.398509
 31
0.0
  0
LINE
  5
745
  8
MITTE
 10
358.57294
 20
101.948004
 30
0.0
 11
355.97294
 21
101.948004
 31
0.0
  0
ARC
  5
746
  8
035
 10
357.27294
 20
105.898004
 30
0.0
 40
12.499495
 50
208.707238
 51
245.54259
  0
ARC
  5
747
  8
035
 10
357.27294
 20
105.898004
 30
0.0
 40
11.8
 50
210.286897
 51
239.713104
  0
LINE
  5
748
  8
035
 10
343.072435
 20
96.936592
 30
0.0
 11
343.072435
 21
95.032476
 31
0.0
  0
LINE
  5
749
  8
035
 10
342.572435
 20
97.698509
 30
0.0
 11
342.572435
 21
94.298509
 31
0.0
  0
ARC
  5
74A
  8
035
 10
344.172435
 20
95.998509
 30
0.0
 40
1.1
 50
226.186908
 51
133.813061
  0
ARC
  5
74B
  8
035
 10
344.172435
 20
95.998509
 30
0.0
 40
1.6
 50
226.567463
 51
133.432537
  0
ARC
  5
74C
  8
035
 10
344.172435
 20
95.998509
 30
0.0
 40
2.6
 50
270.0
 51
34.346556
  0
LINE
  5
74D
  8
035
 10
343.072435
 20
94.798509
 30
0.0
 11
342.572435
 21
94.798509
 31
0.0
  0
LINE
  5
74E
  8
035
 10
343.072435
 20
95.498509
 30
0.0
 11
342.572435
 21
95.498509
 31
0.0
  0
LINE
  5
74F
  8
035
 10
343.072435
 20
94.298509
 30
0.0
 11
342.572435
 21
94.298509
 31
0.0
  0
LINE
  5
750
  8
035
 10
343.072435
 20
95.060426
 30
0.0
 11
343.072435
 21
94.298509
 31
0.0
  0
ARC
  5
751
  8
035
 10
343.272435
 20
95.060426
 30
0.0
 40
0.2
 50
46.186939
 51
180.0
  0
ARC
  5
752
  8
035
 10
351.27294
 20
100.850604
 30
0.0
 40
6.0
 50
180.0
 51
214.346556
  0
LINE
  5
753
  8
035
 10
346.27294
 20
100.448004
 30
0.0
 11
345.286462
 21
100.448004
 31
0.0
  0
LINE
  5
754
  8
035
 10
343.072435
 20
97.198509
 30
0.0
 11
342.572435
 21
97.198509
 31
0.0
  0
LINE
  5
755
  8
035
 10
343.072435
 20
96.498509
 30
0.0
 11
342.572435
 21
96.498509
 31
0.0
  0
LINE
  5
756
  8
035
 10
343.072435
 20
97.698509
 30
0.0
 11
342.572435
 21
97.698509
 31
0.0
  0
LINE
  5
757
  8
035
 10
343.072435
 20
96.936592
 30
0.0
 11
343.072435
 21
97.698509
 31
0.0
  0
ARC
  5
758
  8
035
 10
343.272435
 20
96.936592
 30
0.0
 40
0.2
 50
180.0
 51
313.813061
  0
LINE
  5
759
  8
035
 10
346.573108
 20
99.436506
 30
0.0
 11
347.743366
 21
100.606763
 31
0.0
  0
ARC
  5
75A
  8
035
 10
346.57294
 20
100.038168
 30
0.0
 40
0.3
 50
180.0
 51
208.707238
  0
LINE
  5
75B
  8
035
 10
346.566173
 20
99.448004
 30
0.0
 11
345.52294
 21
99.448004
 31
0.0
  0
ARC
  5
75C
  8
035
 10
346.47294
 20
100.012636
 30
0.0
 40
0.2
 50
180.0
 51
208.587806
  0
LINE
  5
75D
  8
035
 10
346.27294
 20
100.448004
 30
0.0
 11
346.27294
 21
100.038168
 31
0.0
  0
ARC
  5
75E
  8
035
 10
346.57294
 20
100.038168
 30
0.0
 40
0.3
 50
180.0
 51
208.707238
  0
LINE
  5
75F
  8
035
 10
346.02294
 20
100.448004
 30
0.0
 11
346.02294
 21
99.448004
 31
0.0
  0
LINE
  5
760
  8
035
 10
346.27294
 20
100.448004
 30
0.0
 11
346.27294
 21
99.698004
 31
0.0
  0
LINE
  5
761
  8
035
 10
346.02294
 20
99.448004
 30
0.0
 11
346.27294
 21
99.698004
 31
0.0
  0
LINE
  5
762
  8
035
 10
345.439184
 20
99.448004
 30
0.0
 11
346.02294
 21
99.448004
 31
0.0
  0
LINE
  5
763
  8
035
 10
350.811442
 20
95.198173
 30
0.0
 11
351.981699
 21
96.36843
 31
0.0
  0
LINE
  5
764
  8
035
 10
354.21294
 20
92.098509
 30
0.0
 11
352.71294
 21
92.098509
 31
0.0
  0
LINE
  5
765
  8
035
 10
354.01294
 20
91.898509
 30
0.0
 11
352.91294
 21
91.898509
 31
0.0
  0
LINE
  5
766
  8
MITTE
 10
353.46294
 20
94.366943
 30
0.0
 11
353.46294
 21
91.898509
 31
0.0
  0
LINE
  5
767
  8
035
 10
352.09794
 20
94.520098
 30
0.0
 11
352.09794
 21
93.398509
 31
0.0
  0
LINE
  5
768
  8
035
 10
352.71294
 20
93.398509
 30
0.0
 11
352.71294
 21
92.098509
 31
0.0
  0
LINE
  5
769
  8
035
 10
352.91294
 20
91.898509
 30
0.0
 11
352.71294
 21
92.098509
 31
0.0
  0
LINE
  5
76A
  8
035
 10
354.21294
 20
93.398509
 30
0.0
 11
354.21294
 21
92.098509
 31
0.0
  0
LINE
  5
76B
  8
035
 10
354.21294
 20
92.098509
 30
0.0
 11
354.01294
 21
91.898509
 31
0.0
  0
TEXT
  5
76C
  8
035
 10
356.648036
 20
98.87162
 30
0.0
 40
1.5
  1
3
  7
HELV
  0
ARC
  5
76D
  8
035
 10
367.172435
 20
95.998509
 30
0.0
 40
1.6
 50
226.567463
 51
133.432537
  0
LINE
  5
76E
  8
035
 10
366.072435
 20
97.698509
 30
0.0
 11
365.572435
 21
97.698509
 31
0.0
  0
LINE
  5
76F
  8
035
 10
366.072435
 20
94.298509
 30
0.0
 11
365.572435
 21
94.298509
 31
0.0
  0
LINE
  5
770
  8
035
 10
366.072435
 20
96.498509
 30
0.0
 11
365.572435
 21
96.498509
 31
0.0
  0
LINE
  5
771
  8
035
 10
366.072435
 20
95.498509
 30
0.0
 11
365.572435
 21
95.498509
 31
0.0
  0
LINE
  5
772
  8
035
 10
366.072435
 20
97.198509
 30
0.0
 11
365.572435
 21
97.198509
 31
0.0
  0
LINE
  5
773
  8
035
 10
366.072435
 20
94.798509
 30
0.0
 11
365.572435
 21
94.798509
 31
0.0
  0
LINE
  5
774
  8
035
 10
365.572435
 20
97.698509
 30
0.0
 11
365.572435
 21
94.298509
 31
0.0
  0
LINE
  5
775
  8
035
 10
361.83294
 20
92.098509
 30
0.0
 11
361.63294
 21
91.898509
 31
0.0
  0
LINE
  5
776
  8
035
 10
361.83294
 20
92.098509
 30
0.0
 11
360.33294
 21
92.098509
 31
0.0
  0
LINE
  5
777
  8
MITTE
 10
361.08294
 20
94.366943
 30
0.0
 11
361.08294
 21
91.898509
 31
0.0
  0
LINE
  5
778
  8
035
 10
360.33294
 20
93.398509
 30
0.0
 11
360.33294
 21
92.098509
 31
0.0
  0
LINE
  5
779
  8
035
 10
360.53294
 20
91.898509
 30
0.0
 11
360.33294
 21
92.098509
 31
0.0
  0
LINE
  5
77A
  8
035
 10
361.63294
 20
91.898509
 30
0.0
 11
360.53294
 21
91.898509
 31
0.0
  0
LINE
  5
77B
  8
035
 10
361.83294
 20
93.398509
 30
0.0
 11
361.83294
 21
92.098509
 31
0.0
  0
ARC
  5
77C
  8
035
 10
367.172435
 20
95.998509
 30
0.0
 40
2.6
 50
270.0
 51
34.346556
  0
ARC
  5
77D
  8
035
 10
367.172435
 20
95.998509
 30
0.0
 40
1.1
 50
226.186908
 51
133.813061
  0
LINE
  5
77E
  8
035
 10
366.072435
 20
96.936592
 30
0.0
 11
366.072435
 21
95.032476
 31
0.0
  0
ARC
  5
77F
  8
035
 10
366.272435
 20
95.060426
 30
0.0
 40
0.2
 50
46.186939
 51
180.0
  0
LINE
  5
780
  8
035
 10
366.072435
 20
95.060426
 30
0.0
 11
366.072435
 21
94.298509
 31
0.0
  0
ARC
  5
781
  8
035
 10
369.57294
 20
100.038168
 30
0.0
 40
0.3
 50
180.0
 51
208.707238
  0
ARC
  5
782
  8
035
 10
374.27294
 20
100.850604
 30
0.0
 40
6.0
 50
180.0
 51
214.346556
  0
LINE
  5
783
  8
035
 10
369.27294
 20
100.448004
 30
0.0
 11
368.286462
 21
100.448004
 31
0.0
  0
LINE
  5
784
  8
035
 10
369.02294
 20
100.448004
 30
0.0
 11
369.02294
 21
99.448004
 31
0.0
  0
LINE
  5
785
  8
035
 10
369.27294
 20
100.448004
 30
0.0
 11
369.27294
 21
99.698004
 31
0.0
  0
LINE
  5
786
  8
035
 10
369.02294
 20
99.448004
 30
0.0
 11
369.27294
 21
99.698004
 31
0.0
  0
LINE
  5
787
  8
035
 10
368.439184
 20
99.448004
 30
0.0
 11
369.02294
 21
99.448004
 31
0.0
  0
ARC
  5
788
  8
035
 10
366.272435
 20
96.936592
 30
0.0
 40
0.2
 50
180.0
 51
313.813061
  0
LINE
  5
789
  8
035
 10
366.072435
 20
96.936592
 30
0.0
 11
366.072435
 21
97.698509
 31
0.0
  0
LINE
  5
78A
  8
BEM1
 10
357.27294
 20
121.072493
 30
0.0
 11
357.27294
 21
129.388516
 31
0.0
  0
INSERT
  5
78B
  8
025
  2
NT
 10
357.27294
 20
105.898004
 30
0.0
 41
3.0
 42
3.0
 43
3.0
  0
LINE
  5
78C
  8
035
 10
358.35747
 20
112.998004
 30
0.0
 11
356.18841
 21
112.998004
 31
0.0
  0
ARC
  5
78D
  8
035
 10
357.27294
 20
105.859664
 30
0.0
 40
10.1
 50
61.15
 51
118.85
  0
ARC
  5
78E
  8
035
 10
357.27294
 20
112.359664
 30
0.0
 40
10.0
 50
67.65775
 51
90.0
  0
LINE
  5
78F
  8
MITTE
 10
369.630642
 20
105.898004
 30
0.0
 11
344.850585
 21
105.898004
 31
0.0
  0
LINE
  5
790
  8
035
 10
357.272213
 20
108.398004
 30
0.0
 11
357.822052
 21
108.398004
 31
0.0
  0
LINE
  5
791
  8
035
 10
356.949663
 20
109.197769
 30
0.0
 11
358.524201
 21
109.197769
 31
0.0
  0
ARC
  5
792
  8
035
 10
355.549197
 20
113.505153
 30
0.0
 40
0.2
 50
30.0
 51
102.767342
  0
LINE
  5
793
  8
035
 10
355.77294
 20
115.847657
 30
0.0
 11
355.77294
 21
113.517619
 31
0.0
  0
ARC
  5
794
  8
035
 10
357.27294
 20
105.898004
 30
0.0
 40
8.0
 50
102.767342
 51
129.584042
  0
ARC
  5
795
  8
035
 10
340.27294
 20
110.945404
 30
0.0
 40
6.0
 50
360.0
 51
34.346556
  0
ARC
  5
796
  8
035
 10
334.27294
 20
105.898004
 30
0.0
 40
11.8
 50
30.25675
 51
49.74325
  0
LINE
  5
797
  8
035
 10
354.47294
 20
115.029187
 30
0.0
 11
354.47294
 21
113.392002
 31
0.0
  0
ARC
  5
798
  8
035
 10
344.97294
 20
111.75784
 30
0.0
 40
0.3
 50
0.0
 51
28.707238
  0
LINE
  5
799
  8
035
 10
345.008737
 20
112.299569
 30
0.0
 11
343.765115
 21
111.256046
 31
0.0
  0
CIRCLE
  5
79A
  8
035
 10
353.22294
 20
105.898004
 30
0.0
 40
1.3
  0
LINE
  5
79B
  8
MITTE
 10
353.22294
 20
107.198004
 30
0.0
 11
353.22294
 21
104.598004
 31
0.0
  0
TEXT
  5
79C
  8
035
 10
352.560319
 20
102.769396
 30
0.0
 40
1.5
  1
2
  7
HELV
  0
LINE
  5
79D
  8
035
 10
353.173415
 20
108.398004
 30
0.0
 11
354.672975
 21
108.398004
 31
0.0
  0
LINE
  5
79E
  8
035
 10
353.350719
 20
109.197769
 30
0.0
 11
354.850279
 21
109.197769
 31
0.0
  0
LINE
  5
79F
  8
035
 10
351.124017
 20
108.398004
 30
0.0
 11
351.673855
 21
108.398004
 31
0.0
  0
LINE
  5
7A0
  8
035
 10
351.30132
 20
109.197769
 30
0.0
 11
351.95113
 21
109.197769
 31
0.0
  0
LINE
  5
7A1
  8
035
 10
351.124017
 20
108.398004
 30
0.0
 11
351.30132
 21
109.197769
 31
0.0
  0
LINE
  5
7A2
  8
035
 10
351.673855
 20
108.398004
 30
0.0
 11
351.773589
 21
108.847872
 31
0.0
  0
LINE
  5
7A3
  8
035
 10
352.898496
 20
108.398004
 30
0.0
 11
353.0758
 21
109.197769
 31
0.0
  0
LINE
  5
7A4
  8
035
 10
352.448391
 20
108.847872
 30
0.0
 11
352.525961
 21
109.197769
 31
0.0
  0
LINE
  5
7A5
  8
035
 10
351.773589
 20
108.847872
 30
0.0
 11
352.273679
 21
108.398004
 31
0.0
  0
LINE
  5
7A6
  8
035
 10
351.95113
 20
109.197769
 30
0.0
 11
352.448391
 21
108.847872
 31
0.0
  0
LINE
  5
7A7
  8
035
 10
352.525961
 20
109.197769
 30
0.0
 11
353.0758
 21
109.197769
 31
0.0
  0
LINE
  5
7A8
  8
035
 10
352.273679
 20
108.398004
 30
0.0
 11
352.898496
 21
108.398004
 31
0.0
  0
LINE
  5
7A9
  8
035
 10
353.173415
 20
108.398004
 30
0.0
 11
353.350719
 21
109.197769
 31
0.0
  0
ARC
  5
7AA
  8
035
 10
351.828218
 20
111.342726
 30
0.0
 40
0.8
 50
42.022256
 51
227.977744
  0
ARC
  5
7AB
  8
035
 10
356.18841
 20
113.198004
 30
0.0
 40
0.2
 50
210.0
 51
270.0
  0
LINE
  5
7AC
  8
035
 10
356.015205
 20
113.098004
 30
0.0
 11
355.722402
 21
113.605153
 31
0.0
  0
LINE
  5
7AD
  8
035
 10
353.765364
 20
108.587948
 30
0.0
 11
353.790851
 21
108.702915
 31
0.0
  0
LINE
  5
7AE
  8
035
 10
354.665594
 20
108.702915
 30
0.0
 11
354.707704
 21
108.892859
 31
0.0
  0
LINE
  5
7AF
  8
035
 10
354.672975
 20
108.398004
 30
0.0
 11
354.715085
 21
108.587948
 31
0.0
  0
LINE
  5
7B0
  8
035
 10
353.765364
 20
108.587948
 30
0.0
 11
354.715085
 21
108.587948
 31
0.0
  0
LINE
  5
7B1
  8
035
 10
353.858448
 20
109.007825
 30
0.0
 11
354.80817
 21
109.007825
 31
0.0
  0
LINE
  5
7B2
  8
035
 10
353.832961
 20
108.892859
 30
0.0
 11
354.707704
 21
108.892859
 31
0.0
  0
LINE
  5
7B3
  8
035
 10
353.790851
 20
108.702915
 30
0.0
 11
354.665594
 21
108.702915
 31
0.0
  0
LINE
  5
7B4
  8
035
 10
353.832961
 20
108.892859
 30
0.0
 11
353.858448
 21
109.007825
 31
0.0
  0
LINE
  5
7B5
  8
035
 10
354.80817
 20
109.007825
 30
0.0
 11
354.850279
 21
109.197769
 31
0.0
  0
LINE
  5
7B6
  8
035
 10
354.977061
 20
108.642299
 30
0.0
 11
355.100206
 21
109.197769
 31
0.0
  0
LINE
  5
7B7
  8
035
 10
355.540767
 20
108.711095
 30
0.0
 11
355.64866
 21
109.197769
 31
0.0
  0
LINE
  5
7B8
  8
035
 10
356.142061
 20
108.685164
 30
0.0
 11
356.255703
 21
109.197769
 31
0.0
  0
LINE
  5
7B9
  8
035
 10
356.672396
 20
108.603456
 30
0.0
 11
356.804152
 21
109.197769
 31
0.0
  0
LINE
  5
7BA
  8
035
 10
355.100206
 20
109.197769
 30
0.0
 11
355.64866
 21
109.197769
 31
0.0
  0
POLYLINE
  5
7BB
  8
035
 66
     1
 10
0.0
 20
0.0
 30
0.0
  0
VERTEX
  5
BE3
  8
035
 10
354.977061
 20
108.642299
 30
0.0
 42
0.053304
  0
VERTEX
  5
BE4
  8
035
 10
354.974991
 20
108.622938
 30
0.0
 42
0.242955
  0
SEQEND
  5
BE5
  8
035
  0
POLYLINE
  5
7BC
  8
035
 66
     1
 10
0.0
 20
0.0
 30
0.0
  0
VERTEX
  5
BE6
  8
035
 10
354.974991
 20
108.622938
 30
0.0
 42
0.242955
  0
VERTEX
  5
BE7
  8
035
 10
355.013551
 20
108.548267
 30
0.0
 42
0.083039
  0
VERTEX
  5
BE8
  8
035
 10
355.223877
 20
108.446213
 30
0.0
 42
0.041229
  0
VERTEX
  5
BE9
  8
035
 10
355.475813
 20
108.394188
 30
0.0
 42
0.030317
  0
VERTEX
  5
BEA
  8
035
 10
355.824742
 20
108.373011
 30
0.0
 42
0.030317
  0
VERTEX
  5
BEB
  8
035
 10
356.17367
 20
108.394188
 30
0.0
 42
0.041229
  0
VERTEX
  5
BEC
  8
035
 10
356.425606
 20
108.446213
 30
0.0
 42
0.083039
  0
VERTEX
  5
BED
  8
035
 10
356.635933
 20
108.548267
 30
0.0
 42
0.186877
  0
VERTEX
  5
BEE
  8
035
 10
356.672396
 20
108.603456
 30
0.0
 42
0.242955
  0
SEQEND
  5
BEF
  8
035
  0
POLYLINE
  5
7BD
  8
035
 66
     1
 10
0.0
 20
0.0
 30
0.0
  0
VERTEX
  5
BF0
  8
035
 10
355.53923
 20
108.697916
 30
0.0
 42
0.199105
  0
VERTEX
  5
BF1
  8
035
 10
355.556034
 20
108.657389
 30
0.0
 42
0.098437
  0
VERTEX
  5
BF2
  8
035
 10
355.627723
 20
108.609554
 30
0.0
 42
0.055684
  0
VERTEX
  5
BF3
  8
035
 10
355.718295
 20
108.583419
 30
0.0
 42
0.042444
  0
VERTEX
  5
BF4
  8
035
 10
355.841364
 20
108.572953
 30
0.0
 42
0.042444
  0
VERTEX
  5
BF5
  8
035
 10
355.964434
 20
108.583419
 30
0.0
 42
0.055684
  0
VERTEX
  5
BF6
  8
035
 10
356.055006
 20
108.609554
 30
0.0
 42
0.098437
  0
VERTEX
  5
BF7
  8
035
 10
356.126695
 20
108.657389
 30
0.0
 42
0.141327
  0
VERTEX
  5
BF8
  8
035
 10
356.142061
 20
108.685164
 30
0.0
 42
0.199105
  0
SEQEND
  5
BF9
  8
035
  0
POLYLINE
  5
7BE
  8
035
 66
     1
 10
0.0
 20
0.0
 30
0.0
  0
VERTEX
  5
BFA
  8
035
 10
355.540767
 20
108.711095
 30
0.0
 42
0.058115
  0
VERTEX
  5
BFB
  8
035
 10
355.53923
 20
108.697916
 30
0.0
 42
0.199105
  0
SEQEND
  5
BFC
  8
035
  0
LINE
  5
7BF
  8
035
 10
356.255703
 20
109.197769
 30
0.0
 11
356.804152
 21
109.197769
 31
0.0
  0
LINE
  5
7C0
  8
035
 10
356.905337
 20
108.997828
 30
0.0
 11
356.949663
 21
109.197769
 31
0.0
  0
LINE
  5
7C1
  8
035
 10
357.272213
 20
108.398004
 30
0.0
 11
357.405191
 21
108.997828
 31
0.0
  0
LINE
  5
7C2
  8
035
 10
356.905337
 20
108.997828
 30
0.0
 11
357.405191
 21
108.997828
 31
0.0
  0
ARC
  5
7C3
  8
035
 10
351.349087
 20
123.423394
 30
0.0
 40
6.0
 50
242.465414
 51
283.885663
  0
ARC
  5
7C4
  8
035
 10
347.373445
 20
115.797499
 30
0.0
 40
2.6
 50
62.465414
 51
214.346556
  0
CIRCLE
  5
7C5
  8
035
 10
347.373445
 20
115.797499
 30
0.0
 40
1.1
  0
CIRCLE
  5
7C6
  8
035
 10
347.373445
 20
115.797499
 30
0.0
 40
1.6
  0
CIRCLE
  5
7C7
  8
035
 10
347.373445
 20
115.797499
 30
0.0
 40
1.1
  0
LINE
  5
7C8
  8
035
 10
352.27294
 20
119.776535
 30
0.0
 11
352.27294
 21
118.925365
 31
0.0
  0
ARC
  5
7C9
  8
035
 10
357.27294
 20
105.898004
 30
0.0
 40
11.0
 50
102.641154
 51
120.0
  0
ARC
  5
7CA
  8
035
 10
357.27294
 20
105.859664
 30
0.0
 40
10.9
 50
102.71981
 51
118.85
  0
ARC
  5
7CB
  8
035
 10
354.24752
 20
118.929786
 30
0.0
 40
1.974585
 50
180.128292
 51
270.737625
  0
LINE
  5
7CC
  8
035
 10
354.27294
 20
115.229187
 30
0.0
 11
353.501728
 21
115.229187
 31
0.0
  0
LINE
  5
7CD
  8
035
 10
352.013491
 20
115.406821
 30
0.0
 11
352.399506
 21
114.706112
 31
0.0
  0
ARC
  5
7CE
  8
035
 10
352.12574
 20
114.413216
 30
0.0
 40
0.2
 50
301.151751
 51
30.0
  0
ARC
  5
7CF
  8
035
 10
351.750669
 20
115.062857
 30
0.0
 40
0.2
 50
30.0
 51
121.071011
  0
LINE
  5
7D0
  8
035
 10
353.115249
 20
115.935557
 30
0.0
 11
353.063422
 21
116.060679
 31
0.0
  0
LINE
  5
7D1
  8
035
 10
353.466009
 20
115.088748
 30
0.0
 11
353.421396
 21
115.196452
 31
0.0
  0
LINE
  5
7D2
  8
035
 10
351.77294
 20
115.424284
 30
0.0
 11
352.298945
 21
114.513216
 31
0.0
  0
ARC
  5
7D3
  8
035
 10
353.281233
 20
115.012211
 30
0.0
 40
0.2
 50
293.651752
 51
22.5
  0
LINE
  5
7D4
  8
035
 10
354.788691
 20
116.472793
 30
0.0
 11
354.971021
 21
115.693848
 31
0.0
  0
LINE
  5
7D5
  8
035
 10
354.87294
 20
116.555365
 30
0.0
 11
354.87294
 21
116.112869
 31
0.0
  0
LINE
  5
7D6
  8
035
 10
354.27294
 20
116.955365
 30
0.0
 11
354.47294
 21
116.955365
 31
0.0
  0
ARC
  5
7D7
  8
035
 10
354.47294
 20
116.555365
 30
0.0
 40
0.4
 50
0.0
 51
90.0
  0
ARC
  5
7D8
  8
035
 10
354.27294
 20
115.029187
 30
0.0
 40
0.2
 50
0.0
 51
90.0
  0
ARC
  5
7D9
  8
035
 10
357.27294
 20
112.359664
 30
0.0
 40
10.0
 50
90.0
 51
112.34225
  0
ARC
  5
7DA
  8
035
 10
354.27294
 20
119.776535
 30
0.0
 40
2.0
 50
113.621418
 51
180.0
  0
ARC
  5
7DB
  8
035
 10
358.996682
 20
113.505153
 30
0.0
 40
0.2
 50
77.232658
 51
150.0
  0
LINE
  5
7DC
  8
035
 10
358.77294
 20
115.847657
 30
0.0
 11
358.77294
 21
113.517619
 31
0.0
  0
ARC
  5
7DD
  8
035
 10
357.27294
 20
105.898004
 30
0.0
 40
11.8
 50
30.25675
 51
49.74325
  0
ARC
  5
7DE
  8
035
 10
357.27294
 20
105.898004
 30
0.0
 40
12.499495
 50
28.707238
 51
69.08932
  0
LINE
  5
7DF
  8
035
 10
360.07294
 20
115.029187
 30
0.0
 11
360.07294
 21
113.392002
 31
0.0
  0
CIRCLE
  5
7E0
  8
035
 10
361.32294
 20
105.898004
 30
0.0
 40
1.3
  0
LINE
  5
7E1
  8
MITTE
 10
361.32294
 20
107.198004
 30
0.0
 11
361.32294
 21
104.598004
 31
0.0
  0
TEXT
  5
7E2
  8
035
 10
360.820085
 20
102.72506
 30
0.0
 40
1.5
  1
1
  7
HELV
  0
LINE
  5
7E3
  8
035
 10
361.523321
 20
109.197769
 30
0.0
 11
362.048167
 21
109.197769
 31
0.0
  0
LINE
  5
7E4
  8
035
 10
361.346018
 20
108.398004
 30
0.0
 11
361.870864
 21
108.398004
 31
0.0
  0
LINE
  5
7E5
  8
035
 10
358.530675
 20
113.098004
 30
0.0
 11
358.823477
 21
113.605153
 31
0.0
  0
ARC
  5
7E6
  8
035
 10
358.35747
 20
113.198004
 30
0.0
 40
0.2
 50
270.0
 51
330.0
  0
LINE
  5
7E7
  8
035
 10
357.822052
 20
108.398004
 30
0.0
 11
357.955029
 21
108.997828
 31
0.0
  0
LINE
  5
7E8
  8
035
 10
358.479875
 20
108.997828
 30
0.0
 11
358.524201
 21
109.197769
 31
0.0
  0
LINE
  5
7E9
  8
035
 10
357.955029
 20
108.997828
 30
0.0
 11
358.479875
 21
108.997828
 31
0.0
  0
LINE
  5
7EA
  8
035
 10
358.521846
 20
108.398004
 30
0.0
 11
358.69915
 21
109.197769
 31
0.0
  0
LINE
  5
7EB
  8
035
 10
359.071685
 20
108.398004
 30
0.0
 11
359.127092
 21
108.647931
 31
0.0
  0
LINE
  5
7EC
  8
035
 10
358.521846
 20
108.398004
 30
0.0
 11
359.071685
 21
108.398004
 31
0.0
  0
LINE
  5
7ED
  8
035
 10
358.69915
 20
109.197769
 30
0.0
 11
360.102335
 21
109.197769
 31
0.0
  0
LINE
  5
7EE
  8
035
 10
360.202208
 20
108.481699
 30
0.0
 11
360.215231
 21
108.667945
 31
0.0
  0
LINE
  5
7EF
  8
035
 10
359.650972
 20
108.461723
 30
0.0
 11
359.661038
 21
108.608228
 31
0.0
  0
LINE
  5
7F0
  8
035
 10
359.127092
 20
108.647931
 30
0.0
 11
359.604269
 21
108.647931
 31
0.0
  0
LINE
  5
7F1
  8
035
 10
359.169202
 20
108.837875
 30
0.0
 11
359.596454
 21
108.837875
 31
0.0
  0
LINE
  5
7F2
  8
035
 10
359.169202
 20
108.837875
 30
0.0
 11
359.206879
 21
109.007825
 31
0.0
  0
LINE
  5
7F3
  8
035
 10
359.206879
 20
109.007825
 30
0.0
 11
359.670429
 21
109.007825
 31
0.0
  0
ARC
  5
7F4
  8
035
 10
360.326866
 20
108.472982
 30
0.0
 40
0.124963
 50
176.0
 51
216.869898
  0
ARC
  5
7F5
  8
035
 10
359.771314
 20
108.463345
 30
0.0
 40
0.120353
 50
180.772005
 51
212.881875
  0
LINE
  5
7F6
  8
035
 10
359.670243
 20
108.398004
 30
0.0
 11
360.226896
 21
108.398004
 31
0.0
  0
POLYLINE
  5
7F7
  8
035
 66
     1
 10
0.0
 20
0.0
 30
0.0
  0
VERTEX
  5
BFD
  8
035
 10
360.215231
 20
108.667945
 30
0.0
 42
0.084831
  0
VERTEX
  5
BFE
  8
035
 10
360.212375
 20
108.698716
 30
0.0
 42
0.153048
  0
VERTEX
  5
BFF
  8
035
 10
360.182972
 20
108.745043
 30
0.0
 42
0.025315
  0
VERTEX
  5
C00
  8
035
 10
360.168187
 20
108.756304
 30
0.0
 42
0.067948
  0
SEQEND
  5
C01
  8
035
  0
POLYLINE
  5
7F8
  8
035
 66
     1
 10
0.0
 20
0.0
 30
0.0
  0
VERTEX
  5
C02
  8
035
 10
360.168187
 20
108.756304
 30
0.0
 42
0.015369
  0
VERTEX
  5
C03
  8
035
 10
360.204782
 20
108.775032
 30
0.0
 42
0.073981
  0
VERTEX
  5
C04
  8
035
 10
360.310077
 20
108.855322
 30
0.0
 42
0.106894
  0
VERTEX
  5
C05
  8
035
 10
360.375923
 20
108.96066
 30
0.0
 42
0.153048
  0
VERTEX
  5
C06
  8
035
 10
360.379604
 20
109.048375
 30
0.0
 42
0.153048
  0
VERTEX
  5
C07
  8
035
 10
360.332558
 20
109.122497
 30
0.0
 42
0.106894
  0
VERTEX
  5
C08
  8
035
 10
360.222866
 20
109.1808
 30
0.0
 42
0.067948
  0
VERTEX
  5
C09
  8
035
 10
360.102335
 20
109.197769
 30
0.0
 42
0.060566
  0
SEQEND
  5
C0A
  8
035
  0
POLYLINE
  5
7F9
  8
035
 66
     1
 10
0.0
 20
0.0
 30
0.0
  0
VERTEX
  5
C0B
  8
035
 10
359.596454
 20
108.837875
 30
0.0
 42
0.065514
  0
VERTEX
  5
C0C
  8
035
 10
359.654549
 20
108.845725
 30
0.0
 42
0.060566
  0
VERTEX
  5
C0D
  8
035
 10
359.704809
 20
108.865962
 30
0.0
 42
0.073981
  0
VERTEX
  5
C0E
  8
035
 10
359.740144
 20
108.892905
 30
0.0
 42
0.106894
  0
VERTEX
  5
C0F
  8
035
 10
359.762241
 20
108.928255
 30
0.0
 42
0.153048
  0
VERTEX
  5
C10
  8
035
 10
359.763476
 20
108.957691
 30
0.0
 42
0.153048
  0
VERTEX
  5
C11
  8
035
 10
359.747688
 20
108.982565
 30
0.0
 42
0.106894
  0
VERTEX
  5
C12
  8
035
 10
359.710877
 20
109.002131
 30
0.0
 42
0.067948
  0
VERTEX
  5
C13
  8
035
 10
359.670429
 20
109.007825
 30
0.0
 42
0.060506
  0
SEQEND
  5
C14
  8
035
  0
POLYLINE
  5
7FA
  8
035
 66
     1
 10
0.0
 20
0.0
 30
0.0
  0
VERTEX
  5
C15
  8
035
 10
359.661038
 20
108.608228
 30
0.0
 42
0.082344
  0
VERTEX
  5
C16
  8
035
 10
359.660097
 20
108.61785
 30
0.0
 42
0.153048
  0
VERTEX
  5
C17
  8
035
 10
359.650625
 20
108.632775
 30
0.0
 42
0.106894
  0
VERTEX
  5
C18
  8
035
 10
359.628538
 20
108.644514
 30
0.0
 42
0.067948
  0
VERTEX
  5
C19
  8
035
 10
359.604269
 20
108.647931
 30
0.0
 42
0.060506
  0
SEQEND
  5
C1A
  8
035
  0
LINE
  5
7FB
  8
035
 10
360.471274
 20
108.398004
 30
0.0
 11
360.648578
 21
109.197769
 31
0.0
  0
LINE
  5
7FC
  8
035
 10
361.021113
 20
108.398004
 30
0.0
 11
361.198417
 21
109.197769
 31
0.0
  0
LINE
  5
7FD
  8
035
 10
360.471274
 20
108.398004
 30
0.0
 11
361.021113
 21
108.398004
 31
0.0
  0
LINE
  5
7FE
  8
035
 10
360.648578
 20
109.197769
 30
0.0
 11
361.198417
 21
109.197769
 31
0.0
  0
LINE
  5
7FF
  8
035
 10
361.346018
 20
108.398004
 30
0.0
 11
361.523321
 21
109.197769
 31
0.0
  0
LINE
  5
800
  8
035
 10
361.870864
 20
108.398004
 30
0.0
 11
361.91519
 21
108.597945
 31
0.0
  0
LINE
  5
801
  8
035
 10
361.91519
 20
108.597945
 30
0.0
 11
362.14979
 21
108.697916
 31
0.0
  0
LINE
  5
802
  8
035
 10
361.988197
 20
108.927261
 30
0.0
 11
362.622999
 21
109.197769
 31
0.0
  0
LINE
  5
803
  8
035
 10
362.622999
 20
109.197769
 30
0.0
 11
363.322794
 21
109.197769
 31
0.0
  0
LINE
  5
804
  8
035
 10
362.14979
 20
108.697916
 30
0.0
 11
362.445695
 21
108.398004
 31
0.0
  0
LINE
  5
805
  8
035
 10
362.677642
 20
108.92285
 30
0.0
 11
363.195475
 21
108.398004
 31
0.0
  0
LINE
  5
806
  8
035
 10
362.677642
 20
108.92285
 30
0.0
 11
363.322794
 21
109.197769
 31
0.0
  0
LINE
  5
807
  8
035
 10
361.988197
 20
108.927261
 30
0.0
 11
362.048167
 21
109.197769
 31
0.0
  0
LINE
  5
808
  8
035
 10
362.445695
 20
108.398004
 30
0.0
 11
363.195475
 21
108.398004
 31
0.0
  0
LINE
  5
809
  8
035
 10
368.008737
 20
112.299569
 30
0.0
 11
366.765115
 21
111.256046
 31
0.0
  0
ARC
  5
80A
  8
035
 10
367.97294
 20
111.75784
 30
0.0
 40
0.3
 50
0.0
 51
28.707238
  0
LINE
  5
80B
  8
035
 10
362.27294
 20
119.776535
 30
0.0
 11
362.27294
 21
118.925365
 31
0.0
  0
ARC
  5
80C
  8
035
 10
357.27294
 20
105.859664
 30
0.0
 40
10.9
 50
61.15
 51
77.28019
  0
ARC
  5
80D
  8
035
 10
360.298359
 20
118.929786
 30
0.0
 40
1.974585
 50
269.262375
 51
359.871708
  0
ARC
  5
80E
  8
035
 10
357.27294
 20
105.898004
 30
0.0
 40
11.0
 50
60.0
 51
77.358845
  0
ARC
  5
80F
  8
035
 10
360.07294
 20
116.555365
 30
0.0
 40
0.4
 50
90.0
 51
180.0
  0
LINE
  5
810
  8
035
 10
359.757189
 20
116.472793
 30
0.0
 11
359.574858
 21
115.693848
 31
0.0
  0
LINE
  5
811
  8
035
 10
359.67294
 20
116.555365
 30
0.0
 11
359.67294
 21
116.112869
 31
0.0
  0
LINE
  5
812
  8
035
 10
360.07294
 20
116.955365
 30
0.0
 11
360.27294
 21
116.955365
 31
0.0
  0
LINE
  5
813
  8
035
 10
361.43063
 20
115.935557
 30
0.0
 11
361.482458
 21
116.060679
 31
0.0
  0
LINE
  5
814
  8
035
 10
361.079871
 20
115.088748
 30
0.0
 11
361.124483
 21
115.196452
 31
0.0
  0
ARC
  5
815
  8
035
 10
361.264647
 20
115.012211
 30
0.0
 40
0.2
 50
157.5
 51
246.348248
  0
LINE
  5
816
  8
035
 10
361.044152
 20
115.229187
 30
0.0
 11
360.27294
 21
115.229187
 31
0.0
  0
ARC
  5
817
  8
035
 10
360.27294
 20
115.029187
 30
0.0
 40
0.2
 50
90.0
 51
180.0
  0
LINE
  5
818
  8
035
 10
365.441502
 20
115.35908
 30
0.0
 11
364.19788
 21
114.315557
 31
0.0
  0
LINE
  5
819
  8
035
 10
362.532388
 20
115.406821
 30
0.0
 11
362.146374
 21
114.706112
 31
0.0
  0
LINE
  5
81A
  8
035
 10
362.77294
 20
115.424284
 30
0.0
 11
362.246935
 21
114.513216
 31
0.0
  0
ARC
  5
81B
  8
035
 10
362.79521
 20
115.062857
 30
0.0
 40
0.2
 50
58.928989
 51
150.0
  0
ARC
  5
81C
  8
035
 10
362.42014
 20
114.413216
 30
0.0
 40
0.2
 50
150.0
 51
238.848249
  0
ARC
  5
81D
  8
035
 10
360.27294
 20
119.776535
 30
0.0
 40
2.0
 50
0.0
 51
66.378582
  0
SOLID
  5
81E
  8
BEM1
 10
353.77294
 20
128.005183
 30
0.0
 11
353.77294
 21
129.171849
 31
0.0
 12
357.27294
 22
128.588516
 32
0.0
 13
357.27294
 23
128.588516
 33
0.0
  0
ARC
  5
81F
  8
035
 10
346.29794
 20
215.184981
 30
0.0
 40
30.3
 50
68.075326
 51
111.924674
  0
ARC
  5
820
  8
035
 10
346.29794
 20
215.184981
 30
0.0
 40
32.7
 50
67.577123
 51
112.422877
  0
ARC
  5
821
  8
035
 10
346.29794
 20
234.68498
 30
0.0
 40
30.0
 50
90.0
 51
112.34225
  0
TEXT
  5
822
  8
BEM1
 62
     3
 10
334.54062
 20
271.030097
 30
0.0
 40
3.5
  1
25.00 [0.984"]
 41
0.7
 51
15.0
  0
LINE
  5
823
  8
BEM1
 10
312.299455
 20
269.280097
 30
0.0
 11
380.296425
 21
269.280097
 31
0.0
  0
LINE
  5
824
  8
05
 10
334.89794
 20
177.801515
 30
0.0
 11
345.54794
 21
177.801515
 31
0.0
  0
LINE
  5
825
  8
MITTE
 10
334.89794
 20
203.45
 30
0.0
 11
354.99794
 21
203.45
 31
0.0
  0
LINE
  5
826
  8
035
 10
352.74794
 20
223.1
 30
0.0
 11
339.84794
 21
223.1
 31
0.0
  0
LINE
  5
827
  8
035
 10
352.74794
 20
221.9
 30
0.0
 11
339.84794
 21
221.9
 31
0.0
  0
ARC
  5
828
  8
05
 10
346.29794
 20
215.3
 30
0.0
 40
33.0
 50
67.5
 51
112.5
  0
ARC
  5
829
  8
05
 10
346.29794
 20
215.3
 30
0.0
 40
37.498485
 50
90.0
 51
151.412194
  0
ARC
  5
82A
  8
05
 10
346.29794
 20
215.3
 30
0.0
 40
36.0
 50
62.471161
 51
117.528839
  0
ARC
  5
82B
  8
05
 10
346.29794
 20
203.45
 30
0.0
 40
5.4
 50
104.477512
 51
165.522488
  0
ARC
  5
82C
  8
05
 10
346.29794
 20
203.45
 30
0.0
 40
5.4
 50
194.477512
 51
255.522488
  0
LINE
  5
82D
  8
05
 10
342.84794
 20
214.4
 30
0.0
 11
339.957415
 21
214.4
 31
0.0
  0
LINE
  5
82E
  8
05
 10
342.84794
 20
216.2
 30
0.0
 11
339.957415
 21
216.2
 31
0.0
  0
LINE
  5
82F
  8
05
 10
337.422204
 20
206.424264
 30
0.0
 11
346.29794
 21
215.3
 31
0.0
  0
LINE
  5
830
  8
05
 10
339.96794
 20
221.9
 30
0.0
 11
342.54794
 21
221.9
 31
0.0
  0
ARC
  5
831
  8
05
 10
346.29794
 20
215.3
 30
0.0
 40
33.0
 50
67.5
 51
112.5
  0
LINE
  5
832
  8
05
 10
341.64794
 20
229.694
 30
0.0
 11
341.04794
 21
229.694
 31
0.0
  0
LINE
  5
833
  8
05
 10
341.64794
 20
230.306
 30
0.0
 11
341.04794
 21
230.306
 31
0.0
  0
LINE
  5
834
  8
05
 10
341.04794
 20
228.5
 30
0.0
 11
341.64794
 21
228.5
 31
0.0
  0
LINE
  5
835
  8
05
 10
337.89794
 20
231.5
 30
0.0
 11
341.64794
 21
231.5
 31
0.0
  0
LINE
  5
836
  8
MITTE
 10
312.89545
 20
215.3
 30
0.0
 11
381.529127
 21
215.3
 31
0.0
  0
LINE
  5
837
  8
05
 10
342.84794
 20
217.4
 30
0.0
 11
339.122877
 21
217.4
 31
0.0
  0
LINE
  5
838
  8
05
 10
342.84794
 20
213.2
 30
0.0
 11
339.122877
 21
213.2
 31
0.0
  0
LINE
  5
839
  8
05
 10
337.59794
 20
201.35
 30
0.0
 11
341.323003
 21
201.35
 31
0.0
  0
LINE
  5
83A
  8
05
 10
337.59794
 20
205.55
 30
0.0
 11
341.323003
 21
205.55
 31
0.0
  0
LINE
  5
83B
  8
05
 10
337.44794
 20
183.801515
 30
0.0
 11
345.54794
 21
183.801515
 31
0.0
  0
ARC
  5
83C
  8
05
 10
346.29794
 20
203.45
 30
0.0
 40
8.4
 50
210.0
 51
240.0
  0
ARC
  5
83D
  8
05
 10
341.312299
 20
234.2
 30
0.0
 40
0.6
 50
210.0
 51
270.0
  0
ARC
  5
83E
  8
05
 10
341.126712
 20
238.121446
 30
0.0
 40
0.6
 50
30.0
 51
102.767342
  0
ARC
  5
83F
  8
05
 10
346.29794
 20
215.3
 30
0.0
 40
35.098485
 50
130.172223
 51
149.827777
  0
LINE
  5
840
  8
BEM1
 10
308.799455
 20
187.467439
 30
0.0
 11
308.799455
 21
270.491441
 31
0.0
  0
ARC
  5
841
  8
05
 10
346.29794
 20
215.3
 30
0.0
 40
35.998485
 50
128.964282
 51
151.035718
  0
LINE
  5
842
  8
05
 10
223.28283
 20
195.915505
 30
0.0
 11
223.28283
 21
252.798485
 31
0.0
  0
LINE
  5
843
  8
05
 10
231.38283
 20
184.1
 30
0.0
 11
231.38283
 21
242.378838
 31
0.0
  0
LINE
  5
844
  8
05
 10
331.604936
 20
242.361147
 30
0.0
 11
332.557222
 21
240.607255
 31
0.0
  0
ARC
  5
845
  8
05
 10
325.591614
 20
239.826736
 30
0.0
 40
3.0
 50
130.172223
 51
173.087535
  0
LINE
  5
846
  8
05
 10
323.656352
 20
242.119063
 30
0.0
 11
325.289386
 21
240.748785
 31
0.0
  0
ARC
  5
847
  8
05
 10
346.29794
 20
215.3
 30
0.0
 40
33.0
 50
121.623196
 51
150.294918
  0
LINE
  5
848
  8
05
 10
337.89794
 20
242.69355
 30
0.0
 11
337.89794
 21
225.499998
 31
0.0
  0
LINE
  5
849
  8
05
 10
222.08283
 20
186.703262
 30
0.0
 11
222.08283
 21
195.915505
 31
0.0
  0
LINE
  5
84A
  8
05
 10
212.78283
 20
195.915505
 30
0.0
 11
212.78283
 21
183.200506
 31
0.0
  0
LINE
  5
84B
  8
MITTE
 10
211.85283
 20
180.706815
 30
0.0
 11
211.85283
 21
170.68409
 31
0.0
  0
LINE
  5
84C
  8
05
 10
229.88283
 20
182.6
 30
0.0
 11
223.28283
 21
182.6
 31
0.0
  0
LINE
  5
84D
  8
05
 10
223.28283
 20
177.801515
 30
0.0
 11
223.28283
 21
186.711279
 31
0.0
  0
LINE
  5
84E
  8
05
 10
223.28283
 20
183.200506
 30
0.0
 11
212.78283
 21
183.200506
 31
0.0
  0
LINE
  5
84F
  8
05
 10
214.10283
 20
177.801515
 30
0.0
 11
214.10283
 21
173.901515
 31
0.0
  0
LINE
  5
850
  8
05
 10
213.50283
 20
173.301515
 30
0.0
 11
214.10283
 21
173.901515
 31
0.0
  0
LINE
  5
851
  8
05
 10
210.20283
 20
173.301515
 30
0.0
 11
213.50283
 21
173.301515
 31
0.0
  0
LINE
  5
852
  8
05
 10
218.78283
 20
180.8
 30
0.0
 11
218.78283
 21
182.189414
 31
0.0
  0
LINE
  5
853
  8
05
 10
218.78283
 20
177.801515
 30
0.0
 11
218.78283
 21
180.8
 31
0.0
  0
LINE
  5
854
  8
05
 10
213.38283
 20
184.731713
 30
0.0
 11
221.207023
 21
185.711004
 31
0.0
  0
LINE
  5
855
  8
05
 10
212.78283
 20
184.731713
 30
0.0
 11
213.38283
 21
184.731713
 31
0.0
  0
LINE
  5
856
  8
05
 10
223.28283
 20
186.711279
 30
0.0
 11
222.08283
 21
186.711279
 31
0.0
  0
ARC
  5
857
  8
05
 10
221.08283
 20
186.703262
 30
0.0
 40
1.0
 50
277.134147
 51
0.0
  0
ARC
  5
858
  8
05
 10
229.88283
 20
184.1
 30
0.0
 40
1.5
 50
270.0
 51
0.0
  0
LINE
  5
859
  8
05
 10
223.28283
 20
195.915505
 30
0.0
 11
212.78283
 21
195.915505
 31
0.0
  0
LINE
  5
85A
  8
05
 10
218.78283
 20
225.362306
 30
0.0
 11
218.78283
 21
240.597747
 31
0.0
  0
POLYLINE
  5
85B
  8
05
 66
     1
 10
0.0
 20
0.0
 30
0.0
  0
VERTEX
  5
C1B
  8
05
 10
220.300988
 20
239.376792
 30
0.0
  0
VERTEX
  5
C1C
  8
05
 10
220.300988
 20
239.376792
 30
0.0
 42
0.174705
  0
SEQEND
  5
C1D
  8
05
  0
LINE
  5
85C
  8
BEM1
 10
298.265382
 20
211.8
 30
0.0
 11
298.265382
 21
181.301515
 31
0.0
  0
TEXT
  5
85D
  8
BEM1
 62
     3
 10
296.200365
 20
177.359091
 30
0.0
 40
3.5
  1
12.50   [0.492"   ]
 50
90.0
 41
0.7
 51
15.0
 72
     1
 11
294.450365
 21
196.550758
 31
0.0
 73
     2
  0
ARC
  5
85E
  8
05
 10
346.29794
 20
215.3
 30
0.0
 40
27.45
 50
226.121113
 51
235.557856
  0
LINE
  5
85F
  8
035
 10
334.89794
 20
224.0
 30
0.0
 11
334.89794
 21
167.301515
 31
0.0
  0
LINE
  5
860
  8
035
 10
327.546312
 20
195.253081
 30
0.0
 11
320.653359
 21
187.468106
 31
0.0
  0
LINE
  5
861
  8
035
 10
333.39794
 20
224.0
 30
0.0
 11
333.39794
 21
167.301515
 31
0.0
  0
ARC
  5
862
  8
05
 10
346.29794
 20
215.3
 30
0.0
 40
34.5
 50
214.115955
 51
222.030129
  0
ARC
  5
863
  8
05
 10
295.29794
 20
200.157801
 30
0.0
 40
18.0
 50
325.653444
 51
346.481064
  0
ARC
  5
864
  8
05
 10
314.083396
 20
196.104346
 30
0.0
 40
3.0
 50
283.4719
 51
357.050915
  0
LINE
  5
865
  8
MITTE
 10
334.14794
 20
224.0
 30
0.0
 11
334.14794
 21
165.910296
 31
0.0
  0
ARC
  5
866
  8
05
 10
346.29794
 20
215.3
 30
0.0
 40
33.0
 50
215.096801
 51
225.157266
  0
LINE
  5
867
  8
05
 10
332.64794
 20
191.901515
 30
0.0
 11
332.64794
 21
206.6
 31
0.0
  0
LINE
  5
868
  8
05
 10
335.64794
 20
191.901515
 30
0.0
 11
335.64794
 21
206.6
 31
0.0
  0
LINE
  5
869
  8
05
 10
327.271349
 20
195.513859
 30
0.0
 11
324.01878
 21
191.901515
 31
0.0
  0
LINE
  5
86A
  8
BEM1
 10
313.908822
 20
177.801515
 30
0.0
 11
297.465382
 21
177.801515
 31
0.0
  0
ARC
  5
86B
  8
05
 10
316.599455
 20
185.601515
 30
0.0
 40
7.8
 50
103.4719
 51
270.0
  0
SOLID
  5
86C
  8
BEM1
 10
298.848715
 20
181.301515
 30
0.0
 11
297.682048
 21
181.301515
 31
0.0
 12
298.265382
 22
177.801515
 32
0.0
 13
298.265382
 23
177.801515
 33
0.0
  0
INSERT
  5
86D
  8
BEM1
  2
3
 10
294.608209
 20
187.217373
 30
0.0
 50
90.0
  0
LINE
  5
86E
  8
035
 10
321.399455
 20
185.479374
 30
0.0
 11
321.399455
 21
167.301511
 31
0.0
  0
LINE
  5
86F
  8
035
 10
319.899455
 20
182.787266
 30
0.0
 11
319.899455
 21
167.301511
 31
0.0
  0
LINE
  5
870
  8
035
 10
321.399455
 20
167.301511
 30
0.0
 11
319.899455
 21
167.301511
 31
0.0
  0
LINE
  5
871
  8
035
 10
333.39794
 20
167.301515
 30
0.0
 11
334.89794
 21
167.301515
 31
0.0
  0
LINE
  5
872
  8
05
 10
321.399455
 20
177.801515
 30
0.0
 11
330.77294
 21
177.801515
 31
0.0
  0
LINE
  5
873
  8
035
 10
328.66936
 20
194.258715
 30
0.0
 11
321.776407
 21
186.47374
 31
0.0
  0
LINE
  5
874
  8
05
 10
322.826329
 20
187.659533
 30
0.0
 11
322.826329
 21
177.801515
 31
0.0
  0
LINE
  5
875
  8
035
 10
319.899455
 20
187.701515
 30
0.0
 11
319.899455
 21
180.501515
 31
0.0
  0
LINE
  5
876
  8
07
 10
319.899455
 20
182.693139
 30
0.0
 11
319.899455
 21
184.97889
 31
0.0
  0
ARC
  5
878
  8
05
 10
319.299455
 20
182.787266
 30
0.0
 40
0.6
 50
0.0
 51
133.813061
  0
ARC
  5
879
  8
05
 10
316.599455
 20
185.601515
 30
0.0
 40
3.3
 50
46.186939
 51
313.813092
  0
LINE
  5
87A
  8
MITTE
 10
316.599455
 20
191.601515
 30
0.0
 11
316.599455
 21
179.601515
 31
0.0
  0
LINE
  5
87B
  8
05
 10
316.599455
 20
177.801515
 30
0.0
 11
319.899455
 21
177.801515
 31
0.0
  0
LINE
  5
87C
  8
035
 10
321.399455
 20
180.501511
 30
0.0
 11
319.899455
 21
180.501511
 31
0.0
  0
LINE
  5
87D
  8
035
 10
319.899455
 20
180.501515
 30
0.0
 11
321.399455
 21
180.501515
 31
0.0
  0
LINE
  5
87E
  8
05
 10
318.399455
 20
177.801515
 30
0.0
 11
318.399455
 21
182.835652
 31
0.0
  0
LINE
  5
87F
  8
MITTE
 10
310.599455
 20
185.601515
 30
0.0
 11
322.599455
 21
185.601515
 31
0.0
  0
LINE
  5
880
  8
035
 10
319.899455
 20
187.701515
 30
0.0
 11
319.899455
 21
190.701515
 31
0.0
  0
LINE
  5
881
  8
035
 10
321.399455
 20
188.310754
 30
0.0
 11
321.399455
 21
190.701515
 31
0.0
  0
LINE
  5
882
  8
05
 10
318.399455
 20
188.367378
 30
0.0
 11
318.399455
 21
192.201515
 31
0.0
  0
ARC
  5
883
  8
035
 10
322.899455
 20
185.479374
 30
0.0
 40
3.0
 50
138.477764
 51
180.0
  0
ARC
  5
884
  8
05
 10
319.299455
 20
188.415765
 30
0.0
 40
0.6
 50
226.186939
 51
0.0
  0
ARC
  5
885
  8
035
 10
322.899455
 20
185.479374
 30
0.0
 40
1.5
 50
138.477764
 51
180.0
  0
LINE
  5
886
  8
035
 10
321.67959
 20
188.627142
 30
0.0
 11
322.802638
 21
187.632776
 31
0.0
  0
LINE
  5
887
  8
035
 10
319.899455
 20
190.701515
 30
0.0
 11
321.399455
 21
190.701515
 31
0.0
  0
LINE
  5
888
  8
05
 10
318.399455
 20
192.201515
 30
0.0
 11
322.729741
 21
192.201515
 31
0.0
  0
LINE
  5
889
  8
05
 10
318.399455
 20
192.201515
 30
0.0
 11
319.899455
 21
190.701515
 31
0.0
  0
LINE
  5
88A
  8
05
 10
322.826329
 20
192.103374
 30
0.0
 11
322.826329
 21
189.922281
 31
0.0
  0
LINE
  5
88B
  8
05
 10
321.399455
 20
190.701515
 30
0.0
 11
322.778807
 21
192.151558
 31
0.0
  0
ARC
  5
88C
  8
05
 10
346.29794
 20
215.3
 30
0.0
 40
32.1
 50
226.393366
 51
227.138956
  0
LINE
  5
88D
  8
05
 10
323.027553
 20
191.901515
 30
0.0
 11
324.01878
 21
191.901515
 31
0.0
  0
LINE
  5
88E
  8
05
 10
337.44794
 20
191.301515
 30
0.0
 11
337.44794
 21
179.301515
 31
0.0
  0
LINE
  5
88F
  8
05
 10
330.77294
 20
192.662048
 30
0.0
 11
330.77294
 21
177.801515
 31
0.0
  0
LINE
  5
890
  8
05
 10
333.39794
 20
185.601515
 30
0.0
 11
333.39794
 21
179.301515
 31
0.0
  0
LINE
  5
891
  8
05
 10
336.24794
 20
179.301515
 30
0.0
 11
336.24794
 21
191.901515
 31
0.0
  0
LINE
  5
892
  8
05
 10
334.89794
 20
191.901515
 30
0.0
 11
334.89794
 21
177.801515
 31
0.0
  0
LINE
  5
893
  8
05
 10
332.19794
 20
185.601515
 30
0.0
 11
332.19794
 21
179.301515
 31
0.0
  0
LINE
  5
894
  8
05
 10
333.39794
 20
173.901515
 30
0.0
 11
332.61794
 21
173.901515
 31
0.0
  0
LINE
  5
895
  8
05
 10
330.77294
 20
177.801515
 30
0.0
 11
333.39794
 21
177.801515
 31
0.0
  0
LINE
  5
896
  8
05
 10
333.21794
 20
173.301515
 30
0.0
 11
332.61794
 21
173.901515
 31
0.0
  0
LINE
  5
897
  8
05
 10
330.77294
 20
179.301515
 30
0.0
 11
333.39794
 21
179.301515
 31
0.0
  0
LINE
  5
898
  8
05
 10
332.61794
 20
177.801515
 30
0.0
 11
332.61794
 21
173.901515
 31
0.0
  0
LINE
  5
899
  8
05
 10
337.11794
 20
177.801515
 30
0.0
 11
337.11794
 21
173.901515
 31
0.0
  0
LINE
  5
89A
  8
05
 10
333.39794
 20
173.301515
 30
0.0
 11
333.21794
 21
173.301515
 31
0.0
  0
LINE
  5
89B
  8
05
 10
337.11794
 20
173.901515
 30
0.0
 11
336.51794
 21
173.301515
 31
0.0
  0
LINE
  5
89C
  8
05
 10
337.11794
 20
173.901515
 30
0.0
 11
334.89794
 21
173.901515
 31
0.0
  0
LINE
  5
89D
  8
05
 10
336.51794
 20
173.301515
 30
0.0
 11
334.89794
 21
173.301515
 31
0.0
  0
LINE
  5
89E
  8
05
 10
334.89794
 20
179.301515
 30
0.0
 11
337.44794
 21
179.301515
 31
0.0
  0
LINE
  5
89F
  8
05
 10
332.19794
 20
185.601515
 30
0.0
 11
333.39794
 21
185.601515
 31
0.0
  0
LINE
  5
8A0
  8
05
 10
332.64794
 20
194.301515
 30
0.0
 11
333.39794
 21
194.301515
 31
0.0
  0
LINE
  5
8A1
  8
05
 10
330.77294
 20
191.301515
 30
0.0
 11
333.39794
 21
191.301515
 31
0.0
  0
LINE
  5
8A2
  8
05
 10
330.77294
 20
191.901515
 30
0.0
 11
333.39794
 21
191.901515
 31
0.0
  0
ARC
  5
8A3
  8
05
 10
346.29794
 20
215.3
 30
0.0
 40
32.1
 50
229.816573
 51
241.076275
  0
ARC
  5
8A4
  8
05
 10
346.29794
 20
215.3
 30
0.0
 40
29.25
 50
229.947048
 51
237.942557
  0
ARC
  5
8A5
  8
05
 10
346.29794
 20
215.3
 30
0.0
 40
29.25
 50
226.236775
 51
227.008481
  0
ARC
  5
8A6
  8
05
 10
336.84794
 20
191.301515
 30
0.0
 40
0.6
 50
0.0
 51
90.0
  0
LINE
  5
8A7
  8
05
 10
334.89794
 20
191.901515
 30
0.0
 11
336.84794
 21
191.901515
 31
0.0
  0
LINE
  5
8A8
  8
05
 10
333.39794
 20
194.301515
 30
0.0
 11
333.39794
 21
191.301515
 31
0.0
  0
LINE
  5
8A9
  8
BEM1
 10
311.829694
 20
215.3
 30
0.0
 11
297.465382
 21
215.3
 31
0.0
  0
TEXT
  5
8AA
  8
SCHRAFFIERT
 10
295.633167
 20
207.400263
 30
0.0
 40
2.5
  1
%%p0.004
 50
90.0
 41
0.7
 51
15.0
  0
SOLID
  5
8AB
  8
BEM1
 10
298.848715
 20
211.8
 30
0.0
 11
297.682048
 21
211.8
 31
0.0
 12
298.265382
 22
215.3
 32
0.0
 13
298.265382
 23
215.3
 33
0.0
  0
ARC
  5
8AC
  8
05
 10
334.14794
 20
215.3
 30
0.0
 40
3.75
 50
281.536959
 51
78.463041
  0
LINE
  5
8AD
  8
05
 10
313.29794
 20
200.157801
 30
0.0
 11
313.29794
 21
232.956109
 31
0.0
  0
ARC
  5
8AE
  8
05
 10
346.29794
 20
215.3
 30
0.0
 40
33.0
 50
158.25134
 51
209.699728
  0
ARC
  5
8AF
  8
05
 10
322.59794
 20
218.0
 30
0.0
 40
0.6
 50
90.0
 51
180.0
  0
ARC
  5
8B0
  8
05
 10
334.14794
 20
215.3
 30
0.0
 40
5.4
 50
14.477512
 51
75.522488
  0
ARC
  5
8B1
  8
05
 10
334.14794
 20
215.3
 30
0.0
 40
5.4
 50
104.477512
 51
165.522488
  0
ARC
  5
8B2
  8
05
 10
334.14794
 20
215.3
 30
0.0
 40
3.75
 50
101.536959
 51
258.463041
  0
LINE
  5
8B3
  8
05
 10
321.99794
 20
213.8
 30
0.0
 11
325.44794
 21
213.8
 31
0.0
  0
LINE
  5
8B4
  8
05
 10
320.34794
 20
216.8
 30
0.0
 11
325.44794
 21
216.8
 31
0.0
  0
LINE
  5
8B5
  8
05
 10
319.29794
 20
202.25
 30
0.0
 11
332.04794
 21
202.25
 31
0.0
  0
LINE
  5
8B6
  8
05
 10
322.29794
 20
204.05
 30
0.0
 11
328.29794
 21
204.05
 31
0.0
  0
LINE
  5
8B7
  8
05
 10
326.036836
 20
212.0
 30
0.0
 11
320.34794
 21
212.0
 31
0.0
  0
LINE
  5
8B8
  8
MITTE
 10
322.29794
 20
203.45
 30
0.0
 11
333.39794
 21
203.45
 31
0.0
  0
LINE
  5
8B9
  8
05
 10
321.99794
 20
213.2
 30
0.0
 11
329.173003
 21
213.2
 31
0.0
  0
LINE
  5
8BA
  8
05
 10
321.99794
 20
217.4
 30
0.0
 11
329.173003
 21
217.4
 31
0.0
  0
LINE
  5
8BB
  8
05
 10
322.89794
 20
206.6
 30
0.0
 11
330.224931
 21
206.6
 31
0.0
  0
LINE
  5
8BC
  8
05
 10
322.29794
 20
204.95
 30
0.0
 11
328.29794
 21
204.95
 31
0.0
  0
ARC
  5
8BD
  8
05
 10
322.89794
 20
206.0
 30
0.0
 40
0.6
 50
90.0
 51
180.0
  0
LINE
  5
8BE
  8
05
 10
319.261714
 20
195.95
 30
0.0
 11
311.04794
 21
195.95
 31
0.0
  0
LINE
  5
8BF
  8
05
 10
317.633022
 20
198.95
 30
0.0
 11
310.29794
 21
198.95
 31
0.0
  0
LINE
  5
8C0
  8
05
 10
316.253348
 20
201.65
 30
0.0
 11
317.79794
 21
201.65
 31
0.0
  0
LINE
  5
8C1
  8
05
 10
315.987917
 20
202.25
 30
0.0
 11
317.79794
 21
202.25
 31
0.0
  0
LINE
  5
8C2
  8
05
 10
315.063704
 20
204.65
 30
0.0
 11
317.79794
 21
204.65
 31
0.0
  0
LINE
  5
8C3
  8
05
 10
315.274763
 20
204.05
 30
0.0
 11
317.79794
 21
204.05
 31
0.0
  0
ARC
  5
8C4
  8
05
 10
346.29794
 20
215.3
 30
0.0
 40
34.5
 50
196.957426
 51
208.288602
  0
LINE
  5
8C5
  8
05
 10
311.04794
 20
195.95
 30
0.0
 11
310.29794
 21
196.7
 31
0.0
  0
LINE
  5
8C6
  8
05
 10
311.04794
 20
198.95
 30
0.0
 11
311.04794
 21
195.95
 31
0.0
  0
LINE
  5
8C7
  8
05
 10
310.29794
 20
198.95
 30
0.0
 11
310.29794
 21
196.7
 31
0.0
  0
ARC
  5
8C8
  8
05
 10
295.29794
 20
200.157801
 30
0.0
 40
18.0
 50
356.15256
 51
0.0
  0
LINE
  5
8C9
  8
05
 10
313.29794
 20
198.95
 30
0.0
 11
313.29794
 21
195.95
 31
0.0
  0
LINE
  5
8CA
  8
05
 10
314.548924
 20
206.3
 30
0.0
 11
313.29794
 21
206.3
 31
0.0
  0
LINE
  5
8CB
  8
05
 10
319.29794
 20
202.25
 30
0.0
 11
319.29794
 21
196.326334
 31
0.0
  0
ARC
  5
8CC
  8
05
 10
319.261714
 20
195.35
 30
0.0
 40
0.6
 50
36.423574
 51
90.0
  0
LINE
  5
8CD
  8
05
 10
317.79794
 20
201.65
 30
0.0
 11
317.79794
 21
204.65
 31
0.0
  0
LINE
  5
8CE
  8
05
 10
322.29794
 20
206.0
 30
0.0
 11
322.29794
 21
202.25
 31
0.0
  0
LINE
  5
8CF
  8
05
 10
313.332048
 20
213.8
 30
0.0
 11
319.74794
 21
213.8
 31
0.0
  0
LINE
  5
8D0
  8
05
 10
313.332048
 20
216.8
 30
0.0
 11
320.34794
 21
216.8
 31
0.0
  0
ARC
  5
8D1
  8
05
 10
320.34794
 20
212.6
 30
0.0
 40
0.6
 50
180.0
 51
270.0
  0
ARC
  5
8D2
  8
05
 10
322.59794
 20
212.6
 30
0.0
 40
0.6
 50
180.0
 51
270.0
  0
ARC
  5
8D3
  8
05
 10
320.34794
 20
216.2
 30
0.0
 40
0.6
 50
90.0
 51
180.0
  0
LINE
  5
8D4
  8
05
 10
319.74794
 20
216.2
 30
0.0
 11
319.74794
 21
212.6
 31
0.0
  0
LINE
  5
8D5
  8
05
 10
321.99794
 20
216.8
 30
0.0
 11
321.99794
 21
218.0
 31
0.0
  0
LINE
  5
8D6
  8
05
 10
321.99794
 20
212.6
 30
0.0
 11
321.99794
 21
213.8
 31
0.0
  0
LINE
  5
8D7
  8
05
 10
328.29794
 20
204.05
 30
0.0
 11
328.29794
 21
206.6
 31
0.0
  0
ARC
  5
8D8
  8
05
 10
336.99794
 20
206.0
 30
0.0
 40
0.6
 50
0.0
 51
90.0
  0
ARC
  5
8D9
  8
05
 10
331.424931
 20
207.2
 30
0.0
 40
0.6
 50
180.0
 51
270.0
  0
ARC
  5
8DA
  8
05
 10
330.224931
 20
207.2
 30
0.0
 40
0.6
 50
270.0
 51
0.0
  0
ARC
  5
8DB
  8
05
 10
332.04794
 20
201.65
 30
0.0
 40
0.6
 50
0.0
 51
90.0
  0
LINE
  5
8DC
  8
05
 10
337.59794
 20
206.0
 30
0.0
 11
337.59794
 21
200.15
 31
0.0
  0
LINE
  5
8DD
  8
05
 10
338.503711
 20
199.55
 30
0.0
 11
338.19794
 21
199.55
 31
0.0
  0
ARC
  5
8DE
  8
05
 10
338.503711
 20
198.95
 30
0.0
 40
0.6
 50
30.0
 51
90.0
  0
ARC
  5
8DF
  8
05
 10
338.19794
 20
200.15
 30
0.0
 40
0.6
 50
180.0
 51
270.0
  0
ARC
  5
8E0
  8
05
 10
340.488465
 20
201.95
 30
0.0
 40
0.6
 50
14.477512
 51
90.0
  0
LINE
  5
8E1
  8
05
 10
337.59794
 20
202.55
 30
0.0
 11
340.488465
 21
202.55
 31
0.0
  0
ARC
  5
8E2
  8
05
 10
340.488465
 20
204.95
 30
0.0
 40
0.6
 50
270.0
 51
345.522488
  0
LINE
  5
8E3
  8
05
 10
337.59794
 20
204.35
 30
0.0
 11
340.488465
 21
204.35
 31
0.0
  0
LINE
  5
8E4
  8
05
 10
333.39794
 20
206.6
 30
0.0
 11
331.424931
 21
206.6
 31
0.0
  0
ARC
  5
8E5
  8
05
 10
332.64794
 20
209.490525
 30
0.0
 40
0.6
 50
0.0
 51
75.522488
  0
ARC
  5
8E6
  8
05
 10
334.14794
 20
215.3
 30
0.0
 40
5.4
 50
194.477512
 51
255.522488
  0
ARC
  5
8E7
  8
05
 10
334.14794
 20
215.3
 30
0.0
 40
8.4
 50
205.679289
 51
244.158067
  0
ARC
  5
8E8
  8
05
 10
326.036836
 20
211.4
 30
0.0
 40
0.6
 50
25.679289
 51
90.0
  0
LINE
  5
8E9
  8
05
 10
332.04794
 20
206.6
 30
0.0
 11
332.04794
 21
210.325063
 31
0.0
  0
ARC
  5
8EA
  8
05
 10
330.224931
 20
207.2
 30
0.0
 40
0.6
 50
360.0
 51
64.158067
  0
ARC
  5
8EB
  8
05
 10
328.338465
 20
213.8
 30
0.0
 40
0.6
 50
14.477512
 51
90.0
  0
ARC
  5
8EC
  8
05
 10
328.338465
 20
216.8
 30
0.0
 40
0.6
 50
270.0
 51
345.522488
  0
LINE
  5
8ED
  8
05
 10
325.44794
 20
216.2
 30
0.0
 11
328.338465
 21
216.2
 31
0.0
  0
LINE
  5
8EE
  8
05
 10
325.44794
 20
214.4
 30
0.0
 11
328.338465
 21
214.4
 31
0.0
  0
LINE
  5
8EF
  8
05
 10
325.44794
 20
216.8
 30
0.0
 11
325.44794
 21
213.8
 31
0.0
  0
ARC
  5
8F0
  8
05
 10
334.14794
 20
215.3
 30
0.0
 40
5.4
 50
284.477512
 51
345.522488
  0
ARC
  5
8F1
  8
05
 10
335.64794
 20
209.490525
 30
0.0
 40
0.6
 50
104.477512
 51
180.0
  0
LINE
  5
8F2
  8
05
 10
333.24794
 20
206.6
 30
0.0
 11
333.24794
 21
209.490525
 31
0.0
  0
LINE
  5
8F3
  8
05
 10
335.04794
 20
206.6
 30
0.0
 11
335.04794
 21
209.490525
 31
0.0
  0
LINE
  5
8F4
  8
05
 10
336.99794
 20
206.6
 30
0.0
 11
335.64794
 21
206.6
 31
0.0
  0
LINE
  5
8F5
  8
05
 10
335.64794
 20
206.6
 30
0.0
 11
334.89794
 21
206.6
 31
0.0
  0
LINE
  5
8F6
  8
05
 10
336.24794
 20
206.6
 30
0.0
 11
336.24794
 21
210.325063
 31
0.0
  0
ARC
  5
8F7
  8
05
 10
339.957415
 20
216.8
 30
0.0
 40
0.6
 50
194.477512
 51
270.0
  0
ARC
  5
8F8
  8
05
 10
339.957415
 20
213.8
 30
0.0
 40
0.6
 50
90.0
 51
165.522488
  0
LINE
  5
8F9
  8
05
 10
322.29794
 20
225.95
 30
0.0
 11
328.29794
 21
225.95
 31
0.0
  0
LINE
  5
8FA
  8
05
 10
322.29794
 20
228.95
 30
0.0
 11
328.29794
 21
228.95
 31
0.0
  0
LINE
  5
8FB
  8
05
 10
322.29794
 20
226.55
 30
0.0
 11
328.29794
 21
226.55
 31
0.0
  0
LINE
  5
8FC
  8
05
 10
322.29794
 20
228.35
 30
0.0
 11
328.29794
 21
228.35
 31
0.0
  0
LINE
  5
8FD
  8
05
 10
326.036836
 20
218.6
 30
0.0
 11
322.59794
 21
218.6
 31
0.0
  0
LINE
  5
8FE
  8
05
 10
322.89794
 20
230.747371
 30
0.0
 11
334.29794
 21
230.747371
 31
0.0
  0
LINE
  5
8FF
  8
05
 10
322.89794
 20
224.147371
 30
0.0
 11
330.17294
 21
224.147371
 31
0.0
  0
LINE
  5
900
  8
05
 10
313.29794
 20
228.35
 30
0.0
 11
313.29794
 21
231.35
 31
0.0
  0
LINE
  5
901
  8
05
 10
322.29794
 20
224.747371
 30
0.0
 11
322.29794
 21
230.147371
 31
0.0
  0
LINE
  5
902
  8
05
 10
317.79794
 20
228.35
 30
0.0
 11
313.29794
 21
228.35
 31
0.0
  0
LINE
  5
903
  8
05
 10
315.274763
 20
226.55
 30
0.0
 11
317.79794
 21
226.55
 31
0.0
  0
LINE
  5
904
  8
05
 10
315.063704
 20
225.95
 30
0.0
 11
317.79794
 21
225.95
 31
0.0
  0
LINE
  5
905
  8
05
 10
313.29794
 20
228.95
 30
0.0
 11
317.79794
 21
228.95
 31
0.0
  0
ARC
  5
906
  8
05
 10
346.29794
 20
215.3
 30
0.0
 40
33.0
 50
158.25134
 51
164.17338
  0
LINE
  5
907
  8
05
 10
314.548924
 20
224.3
 30
0.0
 11
313.29794
 21
224.3
 31
0.0
  0
ARC
  5
908
  8
05
 10
346.29794
 20
215.3
 30
0.0
 40
34.5
 50
157.774002
 51
163.042574
  0
ARC
  5
909
  8
05
 10
315.089648
 20
227.75
 30
0.0
 40
0.6
 50
338.25134
 51
90.0
  0
LINE
  5
90A
  8
05
 10
317.79794
 20
228.95
 30
0.0
 11
317.79794
 21
225.95
 31
0.0
  0
ARC
  5
90B
  8
05
 10
322.89794
 20
224.747371
 30
0.0
 40
0.6
 50
180.0
 51
270.0
  0
LINE
  5
90C
  8
05
 10
315.954648
 20
232.94053
 30
0.0
 11
317.581873
 21
231.575126
 31
0.0
  0
ARC
  5
90D
  8
05
 10
318.548204
 20
231.432727
 30
0.0
 40
3.0
 50
106.912465
 51
149.827777
  0
LINE
  5
90E
  8
05
 10
315.954648
 20
232.94053
 30
0.0
 11
317.587682
 21
231.570252
 31
0.0
  0
LINE
  5
90F
  8
05
 10
317.113398
 20
231.35
 30
0.0
 11
313.29794
 21
231.35
 31
0.0
  0
LINE
  5
910
  8
05
 10
314.802082
 20
232.732781
 30
0.0
 11
315.954648
 21
232.94053
 31
0.0
  0
LINE
  5
911
  8
05
 10
314.802082
 20
232.732781
 30
0.0
 11
316.450016
 21
231.35
 31
0.0
  0
ARC
  5
912
  8
05
 10
313.89794
 20
232.31658
 30
0.0
 40
0.6
 50
180.0
 51
230.0
  0
ARC
  5
913
  8
05
 10
313.89794
 20
232.956109
 30
0.0
 40
0.6
 50
151.412194
 51
180.0
  0
LINE
  5
914
  8
05
 10
313.512267
 20
231.856953
 30
0.0
 11
314.11643
 21
231.35
 31
0.0
  0
ARC
  5
915
  8
05
 10
315.628654
 20
241.034586
 30
0.0
 40
7.035909
 50
286.912465
 51
353.087535
  0
ARC
  5
916
  8
05
 10
317.113398
 20
231.95
 30
0.0
 40
0.6
 50
270.0
 51
330.294918
  0
ARC
  5
917
  8
05
 10
322.89794
 20
230.147371
 30
0.0
 40
0.6
 50
90.0
 51
180.0
  0
LINE
  5
918
  8
05
 10
334.89794
 20
239.69355
 30
0.0
 11
334.89794
 21
226.85
 31
0.0
  0
LINE
  5
919
  8
05
 10
328.29794
 20
224.147371
 30
0.0
 11
328.29794
 21
230.747371
 31
0.0
  0
LINE
  5
91A
  8
05
 10
331.372939
 20
226.25
 30
0.0
 11
334.29794
 21
226.25
 31
0.0
  0
ARC
  5
91B
  8
05
 10
332.64794
 20
221.109475
 30
0.0
 40
0.6
 50
284.477512
 51
0.0
  0
LINE
  5
91C
  8
05
 10
332.04794
 20
224.0
 30
0.0
 11
336.24794
 21
224.0
 31
0.0
  0
LINE
  5
91D
  8
05
 10
330.77294
 20
225.650001
 30
0.0
 11
330.77294
 21
223.374613
 31
0.0
  0
LINE
  5
91E
  8
05
 10
332.04794
 20
224.0
 30
0.0
 11
332.04794
 21
220.274937
 31
0.0
  0
ARC
  5
91F
  8
05
 10
330.17294
 20
223.547371
 30
0.0
 40
0.6
 50
0.0
 51
90.0
  0
ARC
  5
920
  8
05
 10
334.14794
 20
215.3
 30
0.0
 40
8.4
 50
116.210269
 51
154.320711
  0
ARC
  5
921
  8
05
 10
326.036836
 20
219.2
 30
0.0
 40
0.6
 50
270.0
 51
334.320711
  0
ARC
  5
922
  8
05
 10
330.17294
 20
223.374613
 30
0.0
 40
0.6
 50
296.210269
 51
0.0
  0
ARC
  5
923
  8
05
 10
331.37294
 20
225.65
 30
0.0
 40
0.6
 50
90.0
 51
180.0
  0
LINE
  5
924
  8
05
 10
335.04794
 20
224.0
 30
0.0
 11
335.04794
 21
221.109475
 31
0.0
  0
LINE
  5
925
  8
05
 10
333.24794
 20
224.0
 30
0.0
 11
333.24794
 21
221.109475
 31
0.0
  0
LINE
  5
926
  8
05
 10
341.04794
 20
229.694
 30
0.0
 11
341.04794
 21
223.1
 31
0.0
  0
LINE
  5
927
  8
05
 10
336.24794
 20
224.0
 30
0.0
 11
336.24794
 21
220.274937
 31
0.0
  0
ARC
  5
928
  8
05
 10
335.64794
 20
221.109475
 30
0.0
 40
0.6
 50
180.0
 51
255.522488
  0
LINE
  5
929
  8
035
 10
339.84794
 20
221.9
 30
0.0
 11
339.84794
 21
223.1
 31
0.0
  0
LINE
  5
92A
  8
05
 10
340.487555
 20
223.1
 30
0.0
 11
341.04794
 21
223.423538
 31
0.0
  0
LINE
  5
92B
  8
05
 10
334.89794
 20
228.35
 30
0.0
 11
337.89794
 21
228.35
 31
0.0
  0
ARC
  5
92C
  8
05
 10
334.29794
 20
226.85
 30
0.0
 40
0.6
 50
270.0
 51
360.0
  0
ARC
  5
92D
  8
05
 10
338.49794
 20
225.5
 30
0.0
 40
0.6
 50
180.0
 51
270.0
  0
LINE
  5
92E
  8
05
 10
338.49794
 20
224.9
 30
0.0
 11
341.04794
 21
224.9
 31
0.0
  0
ARC
  5
92F
  8
05
 10
333.084512
 20
240.89355
 30
0.0
 40
0.6
 50
208.5
 51
270.0
  0
ARC
  5
930
  8
05
 10
334.29794
 20
231.36168
 30
0.0
 40
0.6
 50
270.0
 51
0.0
  0
LINE
  5
931
  8
05
 10
341.04794
 20
231.5
 30
0.0
 11
341.04794
 21
230.306
 31
0.0
  0
ARC
  5
932
  8
05
 10
339.694711
 20
234.601745
 30
0.0
 40
0.6
 50
30.0
 51
108.886088
  0
LINE
  5
933
  8
05
 10
340.792684
 20
233.9
 30
0.0
 11
340.214326
 21
234.901745
 31
0.0
  0
ARC
  5
934
  8
05
 10
346.29794
 20
215.3
 30
0.0
 40
21.0
 50
108.886088
 51
113.578178
  0
LINE
  5
935
  8
05
 10
334.29794
 20
240.29355
 30
0.0
 11
333.084512
 21
240.29355
 31
0.0
  0
ARC
  5
936
  8
05
 10
334.29794
 20
239.69355
 30
0.0
 40
0.6
 50
0.0
 51
90.0
  0
ARC
  5
937
  8
05
 10
346.29794
 20
215.3
 30
0.0
 40
24.0
 50
102.767342
 51
110.487315
  0
TEXT
  5
938
  8
BEM1
 62
     3
 10
232.753858
 20
271.223438
 30
0.0
 40
3.5
  1
3.30 [0.130"]
 41
0.7
 51
15.0
 72
     1
 11
244.391358
 21
272.973438
 31
0.0
 73
     2
  0
SOLID
  5
939
  8
BEM1
 10
244.78283
 20
269.86343
 30
0.0
 11
244.78283
 21
268.696763
 31
0.0
 12
241.28283
 22
269.280097
 32
0.0
 13
241.28283
 23
269.280097
 33
0.0
  0
LINE
  5
93A
  8
BEM1
 10
231.38283
 20
269.280097
 30
0.0
 11
248.28283
 21
269.280097
 31
0.0
  0
LINE
  5
93B
  8
035
 10
241.28283
 20
264.68498
 30
0.0
 11
243.68283
 21
264.68498
 31
0.0
  0
LINE
  5
93C
  8
035
 10
243.68283
 20
248.472081
 30
0.0
 11
241.28283
 21
248.472081
 31
0.0
  0
ARC
  5
93D
  8
035
 10
240.08283
 20
248.225862
 30
0.0
 40
3.6
 50
270.0
 51
0.0
  0
TEXT
  5
93E
  8
BEM1
 62
     3
 10
224.761522
 20
278.530097
 30
0.0
 40
3.5
  1
2.70 [0.106"]
 41
0.7
 51
15.0
  0
LINE
  5
93F
  8
BEM1
 10
247.713726
 20
276.780097
 30
0.0
 11
223.28283
 21
276.780097
 31
0.0
  0
LINE
  5
940
  8
035
 10
241.28283
 20
264.68498
 30
0.0
 11
241.28283
 21
248.225862
 31
0.0
  0
LINE
  5
941
  8
BEM1
 10
223.28283
 20
253.598485
 30
0.0
 11
223.28283
 21
277.83669
 31
0.0
  0
LINE
  5
942
  8
BEM1
 10
223.28283
 20
253.598485
 30
0.0
 11
223.28283
 21
277.83669
 31
0.0
  0
LINE
  5
943
  8
BEM1
 10
231.38283
 20
244.674036
 30
0.0
 11
231.38283
 21
277.836689
 31
0.0
  0
LINE
  5
944
  8
035
 10
240.08283
 20
247.884981
 30
0.0
 11
223.28283
 21
247.884981
 31
0.0
  0
LINE
  5
945
  8
05
 10
229.88283
 20
243.878838
 30
0.0
 11
223.28283
 21
243.878838
 31
0.0
  0
LINE
  5
946
  8
035
 10
232.28283
 20
244.625862
 30
0.0
 11
240.08283
 21
244.625862
 31
0.0
  0
LINE
  5
947
  8
035
 10
232.28283
 20
247.025862
 30
0.0
 11
240.08283
 21
247.025862
 31
0.0
  0
LINE
  5
948
  8
035
 10
230.927564
 20
243.878838
 30
0.0
 11
229.88283
 21
243.878838
 31
0.0
  0
ARC
  5
949
  8
05
 10
229.88283
 20
242.378838
 30
0.0
 40
1.5
 50
0.0
 51
90.0
  0
POLYLINE
  5
94A
  8
035
 66
     1
 10
0.0
 20
0.0
 30
0.0
  0
VERTEX
  5
C1E
  8
035
 10
231.38283
 20
244.253768
 30
0.0
 42
-0.180652
  0
VERTEX
  5
C1F
  8
035
 10
231.329062
 20
244.109806
 30
0.0
 42
-0.103035
  0
VERTEX
  5
C20
  8
035
 10
231.119226
 20
243.950106
 30
0.0
 42
-0.044637
  0
VERTEX
  5
C21
  8
035
 10
230.927564
 20
243.878838
 30
0.0
 42
-0.048821
  0
SEQEND
  5
C22
  8
035
  0
LINE
  5
94B
  8
035
 10
231.38283
 20
246.881578
 30
0.0
 11
231.38283
 21
242.378838
 31
0.0
  0
POLYLINE
  5
94C
  8
035
 66
     1
 10
0.0
 20
0.0
 30
0.0
  0
VERTEX
  5
C23
  8
035
 10
231.38283
 20
246.881578
 30
0.0
 42
-0.309752
  0
VERTEX
  5
C24
  8
035
 10
231.408682
 20
246.919305
 30
0.0
 42
-0.052628
  0
VERTEX
  5
C25
  8
035
 10
231.646434
 20
246.983602
 30
0.0
 42
-0.023168
  0
VERTEX
  5
C26
  8
035
 10
231.91102
 20
247.01353
 30
0.0
 42
-0.016578
  0
VERTEX
  5
C27
  8
035
 10
232.28283
 20
247.025862
 30
0.0
 42
-0.016578
  0
SEQEND
  5
C28
  8
035
  0
POLYLINE
  5
94D
  8
035
 66
     1
 10
0.0
 20
0.0
 30
0.0
  0
VERTEX
  5
C29
  8
035
 10
231.38283
 20
244.481578
 30
0.0
 42
-0.309752
  0
VERTEX
  5
C2A
  8
035
 10
231.408682
 20
244.519305
 30
0.0
 42
-0.052628
  0
VERTEX
  5
C2B
  8
035
 10
231.646434
 20
244.583602
 30
0.0
 42
-0.023168
  0
VERTEX
  5
C2C
  8
035
 10
231.91102
 20
244.61353
 30
0.0
 42
-0.016578
  0
VERTEX
  5
C2D
  8
035
 10
232.28283
 20
244.625862
 30
0.0
 42
-0.016578
  0
SEQEND
  5
C2E
  8
035
  0
LINE
  5
94E
  8
035
 10
231.38283
 20
244.481578
 30
0.0
 11
231.38283
 21
242.378838
 31
0.0
  0
POLYLINE
  5
94F
  8
035
 66
     1
 10
0.0
 20
0.0
 30
0.0
  0
VERTEX
  5
C2F
  8
035
 10
231.38283
 20
244.481578
 30
0.0
 42
-0.309752
  0
VERTEX
  5
C30
  8
035
 10
231.408682
 20
244.519305
 30
0.0
 42
-0.052628
  0
VERTEX
  5
C31
  8
035
 10
231.646434
 20
244.583602
 30
0.0
 42
-0.023168
  0
VERTEX
  5
C32
  8
035
 10
231.91102
 20
244.61353
 30
0.0
 42
-0.016578
  0
VERTEX
  5
C33
  8
035
 10
232.28283
 20
244.625862
 30
0.0
 42
-0.016578
  0
SEQEND
  5
C34
  8
035
  0
ARC
  5
950
  8
035
 10
240.08283
 20
248.225862
 30
0.0
 40
1.2
 50
270.0
 51
0.0
  0
ARC
  5
951
  8
035
 10
240.08283
 20
249.084981
 30
0.0
 40
1.2
 50
270.0
 51
0.0
  0
LINE
  5
952
  8
BEM1
 10
227.88283
 20
269.280097
 30
0.0
 11
224.38283
 21
269.280097
 31
0.0
  0
SOLID
  5
953
  8
BEM1
 10
219.78283
 20
276.196763
 30
0.0
 11
219.78283
 21
277.36343
 31
0.0
 12
223.28283
 22
276.780097
 32
0.0
 13
223.28283
 23
276.780097
 33
0.0
  0
SOLID
  5
954
  8
BEM1
 10
227.88283
 20
269.86343
 30
0.0
 11
227.88283
 21
268.696763
 31
0.0
 12
231.38283
 22
269.280097
 32
0.0
 13
231.38283
 23
269.280097
 33
0.0
  0
LINE
  5
955
  8
BEM1
 10
231.38283
 20
266.102186
 30
0.0
 11
231.38283
 21
265.08498
 31
0.0
  0
LINE
  5
956
  8
BEM1
 10
241.28283
 20
266.04298
 30
0.0
 11
241.28283
 21
270.049441
 31
0.0
  0
SOLID
  5
957
  8
BEM1
 10
234.88283
 20
276.196763
 30
0.0
 11
234.88283
 21
277.36343
 31
0.0
 12
231.38283
 22
276.780097
 32
0.0
 13
231.38283
 23
276.780097
 33
0.0
  0
LINE
  5
958
  8
035
 10
243.68283
 20
264.68498
 30
0.0
 11
243.68283
 21
248.225862
 31
0.0
  0
LINE
  5
959
  8
BEM1
 10
248.28283
 20
269.280097
 30
0.0
 11
255.939712
 21
269.280097
 31
0.0
  0
LINE
  5
95A
  8
05
 10
323.660804
 20
243.290194
 30
0.0
 11
326.00511
 21
241.323087
 31
0.0
  0
LINE
  5
95B
  8
05
 10
324.062853
 20
244.910946
 30
0.0
 11
326.056523
 21
243.238058
 31
0.0
  0
LINE
  5
95C
  8
05
 10
323.656352
 20
242.119063
 30
0.0
 11
323.660804
 21
243.290194
 31
0.0
  0
ARC
  5
95D
  8
05
 10
323.67718
 20
244.451319
 30
0.0
 40
0.6
 50
50.0
 51
127.810648
  0
ARC
  5
95E
  8
035
 10
337.221681
 20
254.395347
 30
0.0
 40
5.923756
 50
180.128292
 51
223.352759
  0
ARC
  5
95F
  8
05
 10
329.936236
 20
246.691952
 30
0.0
 40
0.6
 50
117.528839
 51
208.5
  0
ARC
  5
960
  8
05
 10
330.95004
 20
244.513729
 30
0.0
 40
2.25
 50
130.07829
 51
286.92171
  0
ARC
  5
961
  8
05
 10
346.29794
 20
215.3
 30
0.0
 40
34.5
 50
120.563955
 51
125.923725
  0
LINE
  5
962
  8
05
 10
329.408946
 20
246.405657
 30
0.0
 11
329.501414
 21
246.235351
 31
0.0
  0
LINE
  5
963
  8
035
 10
339.097827
 20
247.504943
 30
0.0
 11
339.097827
 21
247.089924
 31
0.0
  0
LINE
  5
964
  8
05
 10
334.702632
 20
243.29355
 30
0.0
 11
337.29794
 21
243.29355
 31
0.0
  0
LINE
  5
965
  8
035
 10
335.606971
 20
246.087945
 30
0.0
 11
336.391629
 21
243.819837
 31
0.0
  0
LINE
  5
966
  8
035
 10
334.14794
 20
245.543958
 30
0.0
 11
335.039683
 21
243.315776
 31
0.0
  0
LINE
  5
967
  8
05
 10
334.702632
 20
243.29355
 30
0.0
 11
333.669387
 21
245.788025
 31
0.0
  0
ARC
  5
968
  8
05
 10
337.29794
 20
242.69355
 30
0.0
 40
0.6
 50
0.0
 51
90.0
  0
LINE
  5
969
  8
05
 10
337.29794
 20
251.702422
 30
0.0
 11
337.29794
 21
250.15685
 31
0.0
  0
ARC
  5
96A
  8
035
 10
337.29794
 20
256.935592
 30
0.0
 40
6.0
 50
113.621418
 51
180.0
  0
LINE
  5
96B
  8
035
 10
331.29794
 20
256.935592
 30
0.0
 11
331.29794
 21
254.382083
 31
0.0
  0
SOLID
  5
96C
  8
BEM1
 10
312.299455
 20
268.696763
 30
0.0
 11
312.299455
 21
269.86343
 31
0.0
 12
308.799455
 22
269.280097
 32
0.0
 13
308.799455
 23
269.280097
 33
0.0
  0
LINE
  5
96D
  8
025
 10
347.6397
 20
244.327588
 30
0.0
 11
347.6397
 21
238.502668
 31
0.0
  0
LINE
  5
96E
  8
025
 10
344.95618
 20
244.327588
 30
0.0
 11
344.95618
 21
238.502668
 31
0.0
  0
LINE
  5
96F
  8
BEM1
 10
396.304563
 20
249.298485
 30
0.0
 11
396.304563
 21
181.301515
 31
0.0
  0
LINE
  5
970
  8
035
 10
350.79794
 20
244.037062
 30
0.0
 11
350.79794
 21
231.596385
 31
0.0
  0
LINE
  5
971
  8
035
 10
341.79794
 20
244.037062
 30
0.0
 11
341.79794
 21
231.596385
 31
0.0
  0
ARC
  5
972
  8
05
 10
346.29794
 20
215.3
 30
0.0
 40
34.5
 50
27.724292
 51
59.436045
  0
LINE
  5
973
  8
MITTE
 10
375.996425
 20
251.898485
 30
0.0
 11
375.996425
 21
238.098485
 31
0.0
  0
ARC
  5
974
  8
05
 10
375.996425
 20
244.998485
 30
0.0
 40
7.8
 50
256.355622
 51
193.644378
  0
LINE
  5
975
  8
05
 10
360.990944
 20
242.361147
 30
0.0
 11
360.038658
 21
240.607255
 31
0.0
  0
LINE
  5
976
  8
MITTE
 10
346.29794
 20
255.787695
 30
0.0
 11
346.29794
 21
166.211477
 31
0.0
  0
ARC
  5
977
  8
05
 10
346.29794
 20
215.3
 30
0.0
 40
33.0
 50
29.705082
 51
58.376804
  0
LINE
  5
978
  8
05
 10
354.69794
 20
242.69355
 30
0.0
 11
354.69794
 21
225.499999
 31
0.0
  0
ARC
  5
979
  8
05
 10
346.29794
 20
215.3
 30
0.0
 40
35.098485
 50
300.157611
 51
326.543354
  0
LINE
  5
97A
  8
035
 10
359.19794
 20
224.0
 30
0.0
 11
359.19794
 21
167.301515
 31
0.0
  0
LINE
  5
97B
  8
035
 10
357.69794
 20
224.0
 30
0.0
 11
357.69794
 21
167.301515
 31
0.0
  0
LINE
  5
97C
  8
035
 10
345.54794
 20
212.15
 30
0.0
 11
345.54794
 21
167.301515
 31
0.0
  0
LINE
  5
97D
  8
035
 10
347.04794
 20
212.15
 30
0.0
 11
347.04794
 21
167.301515
 31
0.0
  0
ARC
  5
97E
  8
05
 10
346.29794
 20
215.3
 30
0.0
 40
35.998485
 50
299.052423
 51
327.484848
  0
ARC
  5
97F
  8
05
 10
346.29794
 20
215.300004
 30
0.0
 40
37.498485
 50
295.039639
 51
328.934278
  0
ARC
  5
980
  8
05
 10
391.137748
 20
170.460192
 30
0.0
 40
30.413065
 50
123.057839
 51
149.24583
  0
ARC
  5
981
  8
05
 10
346.29794
 20
215.3
 30
0.0
 40
33.0
 50
314.842734
 51
324.903199
  0
LINE
  5
982
  8
05
 10
347.19794
 20
194.75
 30
0.0
 11
347.19794
 21
197.640525
 31
0.0
  0
LINE
  5
983
  8
05
 10
345.39794
 20
194.75
 30
0.0
 11
345.39794
 21
197.640525
 31
0.0
  0
LINE
  5
984
  8
MITTE
 10
358.44794
 20
224.0
 30
0.0
 11
358.44794
 21
166.365899
 31
0.0
  0
LINE
  5
985
  8
05
 10
359.94794
 20
191.901515
 30
0.0
 11
359.94794
 21
201.65
 31
0.0
  0
LINE
  5
986
  8
05
 10
348.39794
 20
194.75
 30
0.0
 11
348.39794
 21
198.475063
 31
0.0
  0
LINE
  5
987
  8
05
 10
344.19794
 20
194.75
 30
0.0
 11
344.19794
 21
198.475063
 31
0.0
  0
ARC
  5
988
  8
05
 10
349.59794
 20
195.35
 30
0.0
 40
0.6
 50
270.0
 51
0.0
  0
ARC
  5
989
  8
05
 10
342.99794
 20
195.35
 30
0.0
 40
0.6
 50
180.0
 51
270.0
  0
LINE
  5
98A
  8
BEM1
 10
397.212364
 20
177.801515
 30
0.0
 11
363.087949
 21
177.801515
 31
0.0
  0
LINE
  5
98B
  8
MITTE
 10
357.72794
 20
177.801515
 30
0.0
 11
357.72794
 21
170.68409
 31
0.0
  0
LINE
  5
98C
  8
035
 10
347.04794
 20
167.301515
 30
0.0
 11
345.54794
 21
167.301515
 31
0.0
  0
LINE
  5
98D
  8
035
 10
359.19794
 20
167.301515
 30
0.0
 11
357.69794
 21
167.301515
 31
0.0
  0
LINE
  5
98E
  8
05
 10
347.04794
 20
177.801515
 30
0.0
 11
357.69794
 21
177.801515
 31
0.0
  0
LINE
  5
98F
  8
05
 10
357.69794
 20
173.301515
 30
0.0
 11
356.07794
 21
173.301515
 31
0.0
  0
LINE
  5
990
  8
05
 10
357.69794
 20
173.901515
 30
0.0
 11
355.47794
 21
173.901515
 31
0.0
  0
LINE
  5
991
  8
05
 10
357.69794
 20
191.901515
 30
0.0
 11
355.74794
 21
191.901515
 31
0.0
  0
LINE
  5
992
  8
05
 10
355.14794
 20
179.301515
 30
0.0
 11
357.69794
 21
179.301515
 31
0.0
  0
LINE
  5
993
  8
05
 10
355.14794
 20
191.301515
 30
0.0
 11
355.14794
 21
179.301515
 31
0.0
  0
LINE
  5
994
  8
05
 10
347.04794
 20
183.801515
 30
0.0
 11
347.04794
 21
177.801515
 31
0.0
  0
LINE
  5
995
  8
05
 10
345.54794
 20
183.801515
 30
0.0
 11
345.54794
 21
177.801515
 31
0.0
  0
LINE
  5
996
  8
05
 10
356.34794
 20
179.301515
 30
0.0
 11
356.34794
 21
191.901515
 31
0.0
  0
LINE
  5
997
  8
05
 10
344.19794
 20
179.301515
 30
0.0
 11
344.19794
 21
183.801515
 31
0.0
  0
LINE
  5
998
  8
05
 10
348.39794
 20
179.301515
 30
0.0
 11
348.39794
 21
183.801515
 31
0.0
  0
LINE
  5
999
  8
05
 10
342.99794
 20
183.801515
 30
0.0
 11
342.99794
 21
179.301515
 31
0.0
  0
LINE
  5
99A
  8
05
 10
349.59794
 20
183.801515
 30
0.0
 11
349.59794
 21
179.301515
 31
0.0
  0
LINE
  5
99B
  8
05
 10
347.04794
 20
179.301515
 30
0.0
 11
349.59794
 21
179.301515
 31
0.0
  0
LINE
  5
99C
  8
05
 10
342.99794
 20
179.301515
 30
0.0
 11
345.54794
 21
179.301515
 31
0.0
  0
LINE
  5
99D
  8
05
 10
355.47794
 20
177.801515
 30
0.0
 11
355.47794
 21
173.901515
 31
0.0
  0
LINE
  5
99E
  8
05
 10
356.07794
 20
173.301515
 30
0.0
 11
355.47794
 21
173.901515
 31
0.0
  0
LINE
  5
99F
  8
05
 10
347.04794
 20
183.801515
 30
0.0
 11
355.14794
 21
183.801515
 31
0.0
  0
LINE
  5
9A0
  8
05
 10
347.04794
 20
194.75
 30
0.0
 11
349.59794
 21
194.75
 31
0.0
  0
LINE
  5
9A1
  8
05
 10
344.79794
 20
183.801515
 30
0.0
 11
344.79794
 21
189.65
 31
0.0
  0
LINE
  5
9A2
  8
05
 10
347.79794
 20
183.801515
 30
0.0
 11
347.79794
 21
189.65
 31
0.0
  0
LINE
  5
9A3
  8
05
 10
344.79794
 20
189.05
 30
0.0
 11
345.54794
 21
189.05
 31
0.0
  0
LINE
  5
9A4
  8
05
 10
347.04794
 20
189.05
 30
0.0
 11
347.79794
 21
189.05
 31
0.0
  0
LINE
  5
9A5
  8
05
 10
342.99794
 20
194.75
 30
0.0
 11
345.54794
 21
194.75
 31
0.0
  0
LINE
  5
9A6
  8
05
 10
344.79794
 20
189.65
 30
0.0
 11
345.54794
 21
189.65
 31
0.0
  0
LINE
  5
9A7
  8
05
 10
347.04794
 20
189.65
 30
0.0
 11
347.79794
 21
189.65
 31
0.0
  0
ARC
  5
9A8
  8
05
 10
355.74794
 20
191.301515
 30
0.0
 40
0.6
 50
90.0
 51
180.0
  0
LINE
  5
9A9
  8
05
 10
363.193887
 20
182.294941
 30
0.0
 11
361.82294
 21
183.665888
 31
0.0
  0
LINE
  5
9AA
  8
05
 10
359.19794
 20
185.601515
 30
0.0
 11
359.19794
 21
179.301515
 31
0.0
  0
LINE
  5
9AB
  8
05
 10
357.69794
 20
191.901515
 30
0.0
 11
357.69794
 21
177.801515
 31
0.0
  0
LINE
  5
9AC
  8
05
 10
361.82294
 20
191.901515
 30
0.0
 11
361.82294
 21
177.801515
 31
0.0
  0
LINE
  5
9AD
  8
05
 10
360.39794
 20
185.601515
 30
0.0
 11
360.39794
 21
179.301515
 31
0.0
  0
LINE
  5
9AE
  8
05
 10
359.97794
 20
177.801515
 30
0.0
 11
359.97794
 21
173.901515
 31
0.0
  0
LINE
  5
9AF
  8
05
 10
359.37794
 20
173.301515
 30
0.0
 11
359.19794
 21
173.301515
 31
0.0
  0
LINE
  5
9B0
  8
05
 10
359.97794
 20
173.901515
 30
0.0
 11
359.19794
 21
173.901515
 31
0.0
  0
LINE
  5
9B1
  8
05
 10
359.97794
 20
173.901515
 30
0.0
 11
359.37794
 21
173.301515
 31
0.0
  0
LINE
  5
9B2
  8
05
 10
359.19794
 20
179.301515
 30
0.0
 11
361.82294
 21
179.301515
 31
0.0
  0
LINE
  5
9B3
  8
05
 10
359.19794
 20
177.801515
 30
0.0
 11
361.82294
 21
177.801515
 31
0.0
  0
ARC
  5
9B4
  8
05
 10
362.42294
 20
180.782198
 30
0.0
 40
0.6
 50
115.039639
 51
180.0
  0
ARC
  5
9B5
  8
05
 10
363.618151
 20
182.719205
 30
0.0
 40
0.6
 50
225.0
 51
297.995466
  0
ARC
  5
9B6
  8
05
 10
346.29794
 20
215.3
 30
0.0
 40
33.0
 50
298.063806
 51
314.842734
  0
LINE
  5
9B7
  8
05
 10
369.568327
 20
191.901515
 30
0.0
 11
359.19794
 21
191.901515
 31
0.0
  0
LINE
  5
9B8
  8
05
 10
360.39794
 20
185.601515
 30
0.0
 11
359.19794
 21
185.601515
 31
0.0
  0
LINE
  5
9B9
  8
05
 10
363.93073
 20
184.95221
 30
0.0
 11
363.779151
 21
183.830997
 31
0.0
  0
LINE
  5
9BA
  8
05
 10
363.779151
 20
183.830997
 30
0.0
 11
361.82294
 21
185.787209
 31
0.0
  0
LINE
  5
9BB
  8
05
 10
363.93073
 20
184.95221
 30
0.0
 11
362.392215
 21
186.490725
 31
0.0
  0
ARC
  5
9BC
  8
05
 10
362.423589
 20
187.54615
 30
0.0
 40
3.0
 50
300.157611
 51
329.24583
  0
LINE
  5
9BD
  8
05
 10
363.93073
 20
184.95221
 30
0.0
 11
362.392215
 21
186.490725
 31
0.0
  0
LINE
  5
9BE
  8
05
 10
361.82294
 20
191.301515
 30
0.0
 11
359.19794
 21
191.301515
 31
0.0
  0
LINE
  5
9BF
  8
05
 10
359.94794
 20
194.301515
 30
0.0
 11
359.19794
 21
194.301515
 31
0.0
  0
LINE
  5
9C0
  8
05
 10
359.19794
 20
194.301515
 30
0.0
 11
359.19794
 21
191.301515
 31
0.0
  0
SOLID
  5
9C1
  8
BEM1
 10
396.887897
 20
181.301515
 30
0.0
 11
395.72123
 21
181.301515
 31
0.0
 12
396.304563
 22
177.801515
 32
0.0
 13
396.304563
 23
177.801515
 33
0.0
  0
ARC
  5
9C2
  8
05
 10
374.014908
 20
236.835545
 30
0.0
 40
0.6
 50
76.355622
 51
217.846511
  0
LINE
  5
9C3
  8
05
 10
373.334166
 20
195.95
 30
0.0
 11
381.54794
 21
195.95
 31
0.0
  0
ARC
  5
9C4
  8
05
 10
358.44794
 20
215.3
 30
0.0
 40
3.75
 50
281.536959
 51
78.463041
  0
ARC
  5
9C5
  8
05
 10
358.44794
 20
215.3
 30
0.0
 40
5.4
 50
14.477512
 51
75.522488
  0
ARC
  5
9C6
  8
05
 10
358.44794
 20
215.3
 30
0.0
 40
5.4
 50
104.477512
 51
165.522488
  0
ARC
  5
9C7
  8
05
 10
369.99794
 20
218.0
 30
0.0
 40
0.6
 50
0.0
 51
90.0
  0
ARC
  5
9C8
  8
05
 10
346.29794
 20
220.4
 30
0.0
 40
3.75
 50
179.999981
 51
0.0
  0
ARC
  5
9C9
  8
05
 10
358.44794
 20
215.3
 30
0.0
 40
3.75
 50
101.536959
 51
258.463041
  0
LINE
  5
9CA
  8
05
 10
344.79794
 20
221.9
 30
0.0
 11
344.79794
 21
216.963068
 31
0.0
  0
LINE
  5
9CB
  8
05
 10
347.79794
 20
221.9
 30
0.0
 11
347.79794
 21
216.963068
 31
0.0
  0
LINE
  5
9CC
  8
05
 10
355.59794
 20
206.6
 30
0.0
 11
357.69794
 21
206.6
 31
0.0
  0
ARC
  5
9CD
  8
05
 10
346.29794
 20
203.45
 30
0.0
 40
3.75
 50
281.536959
 51
78.463041
  0
ARC
  5
9CE
  8
05
 10
346.29794
 20
203.45
 30
0.0
 40
5.4
 50
14.477512
 51
75.522488
  0
ARC
  5
9CF
  8
05
 10
355.59794
 20
206.0
 30
0.0
 40
0.6
 50
90.0
 51
180.0
  0
ARC
  5
9D0
  8
05
 10
346.29794
 20
203.45
 30
0.0
 40
3.75
 50
101.536959
 51
258.463041
  0
ARC
  5
9D1
  8
05
 10
346.29794
 20
203.45
 30
0.0
 40
5.4
 50
284.477512
 51
345.522488
  0
ARC
  5
9D2
  8
05
 10
344.79794
 20
197.640525
 30
0.0
 40
0.6
 50
0.0
 51
75.522488
  0
ARC
  5
9D3
  8
05
 10
341.79794
 20
195.655771
 30
0.0
 40
0.6
 50
0.0
 51
60.0
  0
LINE
  5
9D4
  8
05
 10
342.39794
 20
195.35
 30
0.0
 11
342.39794
 21
195.655771
 31
0.0
  0
ARC
  5
9D5
  8
05
 10
347.79794
 20
197.640525
 30
0.0
 40
0.6
 50
104.477512
 51
180.0
  0
LINE
  5
9D6
  8
05
 10
354.99794
 20
206.0
 30
0.0
 11
354.99794
 21
200.15
 31
0.0
  0
ARC
  5
9D7
  8
05
 10
346.29794
 20
203.45
 30
0.0
 40
8.4
 50
300.0
 51
330.0
  0
ARC
  5
9D8
  8
05
 10
354.092168
 20
198.95
 30
0.0
 40
0.6
 50
90.0
 51
150.0
  0
LINE
  5
9D9
  8
05
 10
350.19794
 20
195.35
 30
0.0
 11
350.19794
 21
195.655771
 31
0.0
  0
ARC
  5
9DA
  8
05
 10
350.79794
 20
195.655771
 30
0.0
 40
0.6
 50
120.0
 51
180.0
  0
LINE
  5
9DB
  8
05
 10
354.092168
 20
199.55
 30
0.0
 11
354.39794
 21
199.55
 31
0.0
  0
ARC
  5
9DC
  8
05
 10
354.39794
 20
200.15
 30
0.0
 40
0.6
 50
270.0
 51
360.0
  0
LINE
  5
9DD
  8
05
 10
354.99794
 20
202.55
 30
0.0
 11
352.107415
 21
202.55
 31
0.0
  0
LINE
  5
9DE
  8
05
 10
354.99794
 20
204.35
 30
0.0
 11
352.107415
 21
204.35
 31
0.0
  0
LINE
  5
9DF
  8
05
 10
354.99794
 20
201.35
 30
0.0
 11
351.272877
 21
201.35
 31
0.0
  0
LINE
  5
9E0
  8
05
 10
354.99794
 20
205.55
 30
0.0
 11
351.272877
 21
205.55
 31
0.0
  0
ARC
  5
9E1
  8
05
 10
352.107415
 20
201.95
 30
0.0
 40
0.6
 50
90.0
 51
165.522488
  0
ARC
  5
9E2
  8
05
 10
352.107415
 20
204.95
 30
0.0
 40
0.6
 50
194.477512
 51
270.0
  0
ARC
  5
9E3
  8
05
 10
344.79794
 20
209.259475
 30
0.0
 40
0.6
 50
284.477512
 51
0.0
  0
LINE
  5
9E4
  8
05
 10
344.19794
 20
212.15
 30
0.0
 11
348.39794
 21
212.15
 31
0.0
  0
LINE
  5
9E5
  8
05
 10
344.19794
 20
212.15
 30
0.0
 11
344.19794
 21
208.424937
 31
0.0
  0
LINE
  5
9E6
  8
05
 10
345.39794
 20
212.15
 30
0.0
 11
345.39794
 21
209.259475
 31
0.0
  0
LINE
  5
9E7
  8
05
 10
347.19794
 20
212.15
 30
0.0
 11
347.19794
 21
209.259475
 31
0.0
  0
ARC
  5
9E8
  8
05
 10
347.79794
 20
209.259475
 30
0.0
 40
0.6
 50
180.0
 51
255.522488
  0
LINE
  5
9E9
  8
05
 10
348.39794
 20
212.15
 30
0.0
 11
348.39794
 21
208.424937
 31
0.0
  0
LINE
  5
9EA
  8
05
 10
342.84794
 20
217.4
 30
0.0
 11
342.84794
 21
213.2
 31
0.0
  0
LINE
  5
9EB
  8
05
 10
346.29794
 20
215.3
 30
0.0
 11
346.29794
 21
216.65
 31
0.0
  0
ARC
  5
9EC
  8
05
 10
358.44794
 20
215.3
 30
0.0
 40
5.4
 50
194.477512
 51
255.522488
  0
LINE
  5
9ED
  8
05
 10
357.54794
 20
206.6
 30
0.0
 11
357.54794
 21
209.490525
 31
0.0
  0
ARC
  5
9EE
  8
05
 10
356.94794
 20
209.490525
 30
0.0
 40
0.6
 50
0.0
 51
75.522488
  0
LINE
  5
9EF
  8
05
 10
356.34794
 20
206.6
 30
0.0
 11
356.34794
 21
210.325063
 31
0.0
  0
LINE
  5
9F0
  8
05
 10
349.74794
 20
214.4
 30
0.0
 11
352.638465
 21
214.4
 31
0.0
  0
LINE
  5
9F1
  8
05
 10
349.74794
 20
216.2
 30
0.0
 11
352.638465
 21
216.2
 31
0.0
  0
ARC
  5
9F2
  8
05
 10
352.638465
 20
213.8
 30
0.0
 40
0.6
 50
14.477512
 51
90.0
  0
ARC
  5
9F3
  8
05
 10
352.638465
 20
216.8
 30
0.0
 40
0.6
 50
270.0
 51
345.522488
  0
LINE
  5
9F4
  8
05
 10
349.74794
 20
213.2
 30
0.0
 11
353.473003
 21
213.2
 31
0.0
  0
LINE
  5
9F5
  8
05
 10
349.74794
 20
217.4
 30
0.0
 11
353.473003
 21
217.4
 31
0.0
  0
LINE
  5
9F6
  8
05
 10
349.74794
 20
217.4
 30
0.0
 11
349.74794
 21
213.2
 31
0.0
  0
LINE
  5
9F7
  8
05
 10
364.29794
 20
204.05
 30
0.0
 11
364.29794
 21
206.6
 31
0.0
  0
ARC
  5
9F8
  8
05
 10
362.370949
 20
207.2
 30
0.0
 40
0.6
 50
115.841933
 51
270.0
  0
ARC
  5
9F9
  8
05
 10
369.69794
 20
206.0
 30
0.0
 40
0.6
 50
360.0
 51
90.0
  0
LINE
  5
9FA
  8
05
 10
373.29794
 20
202.25
 30
0.0
 11
360.54794
 21
202.25
 31
0.0
  0
LINE
  5
9FB
  8
05
 10
370.29794
 20
204.95
 30
0.0
 11
364.29794
 21
204.95
 31
0.0
  0
LINE
  5
9FC
  8
05
 10
370.29794
 20
204.05
 30
0.0
 11
364.29794
 21
204.05
 31
0.0
  0
ARC
  5
9FD
  8
05
 10
360.54794
 20
201.65
 30
0.0
 40
0.6
 50
90.0
 51
180.0
  0
LINE
  5
9FE
  8
05
 10
373.29794
 20
202.25
 30
0.0
 11
373.29794
 21
196.326334
 31
0.0
  0
ARC
  5
9FF
  8
05
 10
373.334166
 20
195.35
 30
0.0
 40
0.6
 50
90.0
 51
143.576426
  0
LINE
  5
A00
  8
05
 10
370.29794
 20
206.0
 30
0.0
 11
370.29794
 21
202.25
 31
0.0
  0
LINE
  5
A01
  8
05
 10
359.19794
 20
206.6
 30
0.0
 11
369.69794
 21
206.6
 31
0.0
  0
LINE
  5
A02
  8
05
 10
367.14794
 20
214.4
 30
0.0
 11
364.257415
 21
214.4
 31
0.0
  0
LINE
  5
A03
  8
05
 10
367.14794
 20
216.2
 30
0.0
 11
364.257415
 21
216.2
 31
0.0
  0
ARC
  5
A04
  8
05
 10
358.44794
 20
215.3
 30
0.0
 40
8.4
 50
295.841933
 51
334.320711
  0
LINE
  5
A05
  8
05
 10
370.59794
 20
213.2
 30
0.0
 11
363.422877
 21
213.2
 31
0.0
  0
LINE
  5
A06
  8
05
 10
370.59794
 20
217.4
 30
0.0
 11
363.422877
 21
217.4
 31
0.0
  0
ARC
  5
A07
  8
05
 10
358.44794
 20
215.3
 30
0.0
 40
5.4
 50
284.477512
 51
345.522488
  0
LINE
  5
A08
  8
05
 10
359.34794
 20
206.6
 30
0.0
 11
359.34794
 21
209.490525
 31
0.0
  0
ARC
  5
A09
  8
05
 10
359.94794
 20
209.490525
 30
0.0
 40
0.6
 50
104.477512
 51
180.0
  0
LINE
  5
A0A
  8
05
 10
360.54794
 20
206.6
 30
0.0
 11
360.54794
 21
210.325063
 31
0.0
  0
ARC
  5
A0B
  8
05
 10
364.257415
 20
213.8
 30
0.0
 40
0.6
 50
90.0
 51
165.522488
  0
ARC
  5
A0C
  8
05
 10
364.257415
 20
216.8
 30
0.0
 40
0.6
 50
194.477512
 51
270.0
  0
ARC
  5
A0D
  8
05
 10
372.24794
 20
212.6
 30
0.0
 40
0.6
 50
270.0
 51
0.0
  0
ARC
  5
A0E
  8
05
 10
369.99794
 20
212.6
 30
0.0
 40
0.6
 50
270.0
 51
0.0
  0
LINE
  5
A0F
  8
05
 10
366.559043
 20
212.0
 30
0.0
 11
372.24794
 21
212.0
 31
0.0
  0
ARC
  5
A10
  8
05
 10
366.559043
 20
211.4
 30
0.0
 40
0.6
 50
90.0
 51
154.320711
  0
LINE
  5
A11
  8
05
 10
370.59794
 20
213.8
 30
0.0
 11
367.14794
 21
213.8
 31
0.0
  0
LINE
  5
A12
  8
05
 10
372.24794
 20
216.8
 30
0.0
 11
367.14794
 21
216.8
 31
0.0
  0
LINE
  5
A13
  8
05
 10
367.14794
 20
216.8
 30
0.0
 11
367.14794
 21
213.8
 31
0.0
  0
ARC
  5
A14
  8
05
 10
372.24794
 20
216.2
 30
0.0
 40
0.6
 50
0.0
 51
90.0
  0
LINE
  5
A15
  8
05
 10
370.59794
 20
216.8
 30
0.0
 11
370.59794
 21
218.0
 31
0.0
  0
LINE
  5
A16
  8
05
 10
372.84794
 20
216.2
 30
0.0
 11
372.84794
 21
212.6
 31
0.0
  0
LINE
  5
A17
  8
05
 10
370.59794
 20
212.6
 30
0.0
 11
370.59794
 21
213.8
 31
0.0
  0
ARC
  5
A18
  8
05
 10
358.29794
 20
226.85
 30
0.0
 40
0.6
 50
180.0
 51
270.0
  0
ARC
  5
A19
  8
05
 10
358.29794
 20
239.69355
 30
0.0
 40
0.6
 50
90.0
 51
180.0
  0
LINE
  5
A1A
  8
05
 10
357.69794
 20
228.35
 30
0.0
 11
354.69794
 21
228.35
 31
0.0
  0
LINE
  5
A1B
  8
05
 10
356.34794
 20
224.0
 30
0.0
 11
360.54794
 21
224.0
 31
0.0
  0
ARC
  5
A1C
  8
05
 10
358.29794
 20
231.364309
 30
0.0
 40
0.6
 50
180.0
 51
270.0
  0
ARC
  5
A1D
  8
05
 10
341.64794
 20
230.0
 30
0.0
 40
1.5
 50
338.173769
 51
90.0
  0
ARC
  5
A1E
  8
035
 10
341.699289
 20
230.31241
 30
0.0
 40
1.598652
 50
273.537889
 51
86.462111
  0
ARC
  5
A1F
  8
035
 10
350.89659
 20
230.31241
 30
0.0
 40
1.598652
 50
93.537889
 51
266.462111
  0
ARC
  5
A20
  8
05
 10
341.64794
 20
230.0
 30
0.0
 40
0.306
 50
270.0
 51
90.0
  0
ARC
  5
A21
  8
05
 10
350.94794
 20
230.0
 30
0.0
 40
0.306
 50
90.0
 51
270.0
  0
ARC
  5
A22
  8
05
 10
350.94794
 20
230.0
 30
0.0
 40
1.5
 50
90.0
 51
201.826231
  0
LINE
  5
A23
  8
035
 10
341.79794
 20
228.716805
 30
0.0
 11
341.79794
 21
223.1
 31
0.0
  0
LINE
  5
A24
  8
05
 10
342.54794
 20
221.9
 30
0.0
 11
342.54794
 21
220.400001
 31
0.0
  0
ARC
  5
A25
  8
05
 10
341.64794
 20
230.0
 30
0.0
 40
1.5
 50
270.0
 51
275.73917
  0
LINE
  5
A26
  8
035
 10
350.79794
 20
228.716805
 30
0.0
 11
350.79794
 21
223.1
 31
0.0
  0
LINE
  5
A27
  8
05
 10
357.54794
 20
224.0
 30
0.0
 11
357.54794
 21
221.109475
 31
0.0
  0
LINE
  5
A28
  8
05
 10
351.54794
 20
229.694
 30
0.0
 11
351.54794
 21
223.1
 31
0.0
  0
LINE
  5
A29
  8
05
 10
356.34794
 20
224.0
 30
0.0
 11
356.34794
 21
220.274937
 31
0.0
  0
LINE
  5
A2A
  8
035
 10
352.74794
 20
221.9
 30
0.0
 11
352.74794
 21
223.1
 31
0.0
  0
LINE
  5
A2B
  8
05
 10
350.04794
 20
221.9
 30
0.0
 11
352.62794
 21
221.9
 31
0.0
  0
LINE
  5
A2C
  8
05
 10
352.108325
 20
223.1
 30
0.0
 11
351.54794
 21
223.423538
 31
0.0
  0
LINE
  5
A2D
  8
05
 10
350.04794
 20
221.9
 30
0.0
 11
350.04794
 21
220.4
 31
0.0
  0
ARC
  5
A2E
  8
05
 10
356.94794
 20
221.109475
 30
0.0
 40
0.6
 50
284.477512
 51
0.0
  0
LINE
  5
A2F
  8
05
 10
351.54794
 20
224.9
 30
0.0
 11
354.09794
 21
224.9
 31
0.0
  0
ARC
  5
A30
  8
05
 10
350.94794
 20
230.0
 30
0.0
 40
1.5
 50
264.26083
 51
270.0
  0
LINE
  5
A31
  8
05
 10
351.54794
 20
229.694
 30
0.0
 11
350.94794
 21
229.694
 31
0.0
  0
LINE
  5
A32
  8
05
 10
350.94794
 20
228.5
 30
0.0
 11
351.54794
 21
228.5
 31
0.0
  0
ARC
  5
A33
  8
05
 10
354.09794
 20
225.5
 30
0.0
 40
0.6
 50
270.0
 51
0.0
  0
LINE
  5
A34
  8
035
 10
350.79794
 20
235.356778
 30
0.0
 11
348.103098
 21
235.356778
 31
0.0
  0
ARC
  5
A35
  8
035
 10
350.896034
 20
230.001304
 30
0.0
 40
1.598095
 50
93.51914
 51
174.414759
  0
LINE
  5
A36
  8
025
 10
344.95618
 20
238.468207
 30
0.0
 11
344.95618
 21
235.337018
 31
0.0
  0
LINE
  5
A37
  8
025
 10
347.6397
 20
238.468207
 30
0.0
 11
347.6397
 21
235.337018
 31
0.0
  0
ARC
  5
A38
  8
035
 10
346.29794
 20
235.472204
 30
0.0
 40
1.34176
 50
201.619577
 51
338.380423
  0
ARC
  5
A39
  8
035
 10
344.492781
 20
234.756778
 30
0.0
 40
0.6
 50
21.619577
 51
90.0
  0
LINE
  5
A3A
  8
035
 10
344.492781
 20
235.356778
 30
0.0
 11
341.79794
 21
235.356778
 31
0.0
  0
ARC
  5
A3B
  8
035
 10
341.699846
 20
230.001304
 30
0.0
 40
1.598095
 50
5.585241
 51
86.48086
  0
LINE
  5
A3C
  8
05
 10
341.312299
 20
233.6
 30
0.0
 11
341.79794
 21
233.6
 31
0.0
  0
ARC
  5
A3D
  8
035
 10
348.103098
 20
234.756778
 30
0.0
 40
0.6
 50
90.0
 51
158.380423
  0
POLYLINE
  5
A3E
  8
035
 66
     1
 10
0.0
 20
0.0
 30
0.0
  0
VERTEX
  5
C35
  8
035
 10
347.635905
 20
235.246214
 30
0.0
 42
0.020887
  0
VERTEX
  5
C36
  8
035
 10
347.6397
 20
235.337018
 30
0.0
 42
0.108334
  0
SEQEND
  5
C37
  8
035
  0
LINE
  5
A3F
  8
05
 10
341.79794
 20
238.158846
 30
0.0
 11
341.646327
 21
238.421446
 31
0.0
  0
LINE
  5
A40
  8
05
 10
350.94794
 20
231.5
 30
0.0
 11
354.69794
 21
231.5
 31
0.0
  0
ARC
  5
A41
  8
05
 10
346.29794
 20
215.3
 30
0.0
 40
21.0
 50
66.421822
 51
71.113912
  0
LINE
  5
A42
  8
05
 10
351.54794
 20
230.306
 30
0.0
 11
350.94794
 21
230.306
 31
0.0
  0
LINE
  5
A43
  8
05
 10
351.54794
 20
231.5
 30
0.0
 11
351.54794
 21
230.306
 31
0.0
  0
LINE
  5
A44
  8
05
 10
351.28358
 20
233.6
 30
0.0
 11
350.79794
 21
233.6
 31
0.0
  0
LINE
  5
A45
  8
05
 10
351.803196
 20
233.9
 30
0.0
 11
352.381554
 21
234.901745
 31
0.0
  0
ARC
  5
A46
  8
05
 10
352.901169
 20
234.601745
 30
0.0
 40
0.6
 50
71.113912
 51
150.0
  0
ARC
  5
A47
  8
05
 10
351.28358
 20
234.2
 30
0.0
 40
0.6
 50
270.0
 51
330.0
  0
ARC
  5
A48
  8
05
 10
346.29794
 20
215.3
 30
0.0
 40
24.0
 50
69.512685
 51
77.232658
  0
LINE
  5
A49
  8
05
 10
350.79794
 20
238.158846
 30
0.0
 11
350.949552
 21
238.421446
 31
0.0
  0
ARC
  5
A4A
  8
05
 10
351.469167
 20
238.121446
 30
0.0
 40
0.6
 50
77.232658
 51
150.0
  0
LINE
  5
A4B
  8
05
 10
364.29794
 20
224.15
 30
0.0
 11
364.29794
 21
230.75
 31
0.0
  0
LINE
  5
A4C
  8
05
 10
357.69794
 20
239.69355
 30
0.0
 11
357.69794
 21
226.85
 31
0.0
  0
LINE
  5
A4D
  8
05
 10
370.29794
 20
224.75
 30
0.0
 11
370.29794
 21
230.15
 31
0.0
  0
LINE
  5
A4E
  8
05
 10
370.29794
 20
228.35
 30
0.0
 11
364.29794
 21
228.35
 31
0.0
  0
LINE
  5
A4F
  8
05
 10
370.29794
 20
226.55
 30
0.0
 11
364.29794
 21
226.55
 31
0.0
  0
LINE
  5
A50
  8
05
 10
370.29794
 20
228.95
 30
0.0
 11
364.29794
 21
228.95
 31
0.0
  0
LINE
  5
A51
  8
05
 10
370.29794
 20
225.95
 30
0.0
 11
364.29794
 21
225.95
 31
0.0
  0
ARC
  5
A52
  8
05
 10
358.44794
 20
215.3
 30
0.0
 40
8.4
 50
25.679289
 51
63.789731
  0
LINE
  5
A53
  8
05
 10
369.69794
 20
224.15
 30
0.0
 11
362.42294
 21
224.15
 31
0.0
  0
LINE
  5
A54
  8
05
 10
359.34794
 20
224.0
 30
0.0
 11
359.34794
 21
221.109475
 31
0.0
  0
LINE
  5
A55
  8
05
 10
361.82294
 20
225.65
 30
0.0
 11
361.82294
 21
223.374613
 31
0.0
  0
LINE
  5
A56
  8
05
 10
360.54794
 20
224.0
 30
0.0
 11
360.54794
 21
220.274937
 31
0.0
  0
ARC
  5
A57
  8
05
 10
362.42294
 20
223.55
 30
0.0
 40
0.6
 50
90.0
 51
180.0
  0
ARC
  5
A58
  8
05
 10
362.42294
 20
223.374613
 30
0.0
 40
0.6
 50
180.0
 51
243.789731
  0
ARC
  5
A59
  8
05
 10
359.94794
 20
221.109475
 30
0.0
 40
0.6
 50
180.0
 51
255.522488
  0
ARC
  5
A5A
  8
05
 10
361.22294
 20
225.65
 30
0.0
 40
0.6
 50
360.0
 51
90.0
  0
LINE
  5
A5B
  8
05
 10
361.222941
 20
226.25
 30
0.0
 11
358.29794
 21
226.25
 31
0.0
  0
LINE
  5
A5C
  8
05
 10
366.559043
 20
218.6
 30
0.0
 11
369.99794
 21
218.6
 31
0.0
  0
ARC
  5
A5D
  8
05
 10
366.559043
 20
219.2
 30
0.0
 40
0.6
 50
205.679289
 51
270.0
  0
ARC
  5
A5E
  8
05
 10
369.69794
 20
224.75
 30
0.0
 40
0.6
 50
270.0
 51
0.0
  0
LINE
  5
A5F
  8
05
 10
369.69794
 20
230.75
 30
0.0
 11
358.29794
 21
230.75
 31
0.0
  0
LINE
  5
A60
  8
05
 10
358.29794
 20
240.29355
 30
0.0
 11
359.511368
 21
240.29355
 31
0.0
  0
ARC
  5
A61
  8
05
 10
359.511368
 20
240.89355
 30
0.0
 40
0.6
 50
270.0
 51
331.5
  0
ARC
  5
A62
  8
05
 10
369.69794
 20
230.15
 30
0.0
 40
0.6
 50
0.0
 51
90.0
  0
TEXT
  5
A63
  8
BEM1
 62
     3
 10
394.554563
 20
201.332629
 30
0.0
 40
3.5
  1
25.00 [0.984"]
 50
90.0
 41
0.7
 51
15.0
  0
ARC
  5
A64
  8
05
 10
346.29794
 20
215.3
 30
0.0
 40
33.0
 50
330.300272
 51
21.74866
  0
LINE
  5
A65
  8
05
 10
379.29794
 20
198.95
 30
0.0
 11
379.29794
 21
230.442199
 31
0.0
  0
LINE
  5
A66
  8
05
 10
381.54794
 20
195.95
 30
0.0
 11
382.29794
 21
196.7
 31
0.0
  0
LINE
  5
A67
  8
05
 10
374.962857
 20
198.95
 30
0.0
 11
382.29794
 21
198.95
 31
0.0
  0
LINE
  5
A68
  8
05
 10
376.866943
 20
198.95
 30
0.0
 11
376.866943
 21
202.868747
 31
0.0
  0
LINE
  5
A69
  8
05
 10
377.766943
 20
198.95
 30
0.0
 11
377.766943
 21
205.365119
 31
0.0
  0
LINE
  5
A6A
  8
05
 10
375.362939
 20
198.95
 30
0.0
 11
375.107214
 21
199.205725
 31
0.0
  0
LINE
  5
A6B
  8
05
 10
379.29794
 20
198.95
 30
0.0
 11
379.29794
 21
195.95
 31
0.0
  0
LINE
  5
A6C
  8
05
 10
381.54794
 20
198.95
 30
0.0
 11
381.54794
 21
195.95
 31
0.0
  0
LINE
  5
A6D
  8
05
 10
378.046956
 20
206.3
 30
0.0
 11
379.29794
 21
206.3
 31
0.0
  0
LINE
  5
A6E
  8
05
 10
376.342532
 20
201.65
 30
0.0
 11
374.79794
 21
201.65
 31
0.0
  0
LINE
  5
A6F
  8
05
 10
376.607963
 20
202.25
 30
0.0
 11
374.79794
 21
202.25
 31
0.0
  0
LINE
  5
A70
  8
05
 10
377.321117
 20
204.05
 30
0.0
 11
374.79794
 21
204.05
 31
0.0
  0
LINE
  5
A71
  8
05
 10
374.79794
 20
201.65
 30
0.0
 11
374.79794
 21
204.65
 31
0.0
  0
LINE
  5
A72
  8
05
 10
377.532176
 20
204.65
 30
0.0
 11
374.79794
 21
204.65
 31
0.0
  0
LINE
  5
A73
  8
05
 10
382.29794
 20
198.95
 30
0.0
 11
382.29794
 21
196.7
 31
0.0
  0
LINE
  5
A74
  8
05
 10
379.29794
 20
228.35
 30
0.0
 11
379.29794
 21
231.35
 31
0.0
  0
LINE
  5
A75
  8
05
 10
378.046956
 20
224.3
 30
0.0
 11
379.29794
 21
224.3
 31
0.0
  0
LINE
  5
A76
  8
05
 10
379.29794
 20
228.95
 30
0.0
 11
374.79794
 21
228.95
 31
0.0
  0
LINE
  5
A77
  8
05
 10
374.79794
 20
228.35
 30
0.0
 11
379.29794
 21
228.35
 31
0.0
  0
ARC
  5
A78
  8
05
 10
377.506232
 20
227.75
 30
0.0
 40
0.6
 50
90.0
 51
201.74866
  0
LINE
  5
A79
  8
05
 10
377.532176
 20
225.95
 30
0.0
 11
374.79794
 21
225.95
 31
0.0
  0
LINE
  5
A7A
  8
05
 10
374.79794
 20
228.95
 30
0.0
 11
374.79794
 21
225.95
 31
0.0
  0
LINE
  5
A7B
  8
05
 10
377.321117
 20
226.55
 30
0.0
 11
374.79794
 21
226.55
 31
0.0
  0
ARC
  5
A7C
  8
05
 10
346.29794
 20
215.3
 30
0.0
 40
34.5
 50
16.957426
 51
22.225998
  0
ARC
  5
A7D
  8
05
 10
397.29794
 20
230.442199
 30
0.0
 40
18.0
 50
145.653444
 51
180.0
  0
LINE
  5
A7E
  8
05
 10
375.482482
 20
231.35
 30
0.0
 11
379.29794
 21
231.35
 31
0.0
  0
ARC
  5
A7F
  8
05
 10
375.482482
 20
231.95
 30
0.0
 40
0.6
 50
209.705082
 51
270.0
  0
LINE
  5
A80
  8
MITTE
 10
369.996425
 20
244.998485
 30
0.0
 11
381.996425
 21
244.998485
 31
0.0
  0
CIRCLE
  5
A81
  8
05
 10
375.996425
 20
244.998485
 30
0.0
 40
3.3
  0
ARC
  5
A82
  8
035
 10
346.29794
 20
234.68498
 30
0.0
 40
30.0
 50
68.297234
 51
90.0
  0
LINE
  5
A83
  8
035
 10
358.44794
 20
245.543958
 30
0.0
 11
357.556197
 21
243.315776
 31
0.0
  0
ARC
  5
A84
  8
035
 10
355.29794
 20
256.935592
 30
0.0
 40
6.0
 50
0.0
 51
69.576402
  0
ARC
  5
A85
  8
05
 10
346.29794
 20
215.3
 30
0.0
 40
37.498485
 50
71.323952
 51
90.0
  0
LINE
  5
A86
  8
05
 10
355.29794
 20
243.29355
 30
0.0
 11
357.893248
 21
243.29355
 31
0.0
  0
LINE
  5
A87
  8
035
 10
349.29794
 20
244.7361
 30
0.0
 11
350.79794
 21
243.437062
 31
0.0
  0
LINE
  5
A88
  8
035
 10
349.29794
 20
245.3361
 30
0.0
 11
350.79794
 21
244.037062
 31
0.0
  0
POLYLINE
  5
A89
  8
035
 66
     1
 10
0.0
 20
0.0
 30
0.0
  0
VERTEX
  5
C38
  8
035
 10
345.853392
 20
244.863468
 30
0.0
 42
0.013725
  0
VERTEX
  5
C39
  8
035
 10
345.804643
 20
244.923922
 30
0.0
 42
0.103502
  0
VERTEX
  5
C3A
  8
035
 10
345.40547
 20
245.232736
 30
0.0
 42
0.113531
  0
VERTEX
  5
C3B
  8
035
 10
344.956115
 20
245.3361
 30
0.0
 42
0.113531
  0
SEQEND
  5
C3C
  8
035
  0
POLYLINE
  5
A8A
  8
035
 66
     1
 10
0.0
 20
0.0
 30
0.0
  0
VERTEX
  5
C3D
  8
035
 10
344.956179
 20
244.7361
 30
0.0
 42
-0.113531
  0
VERTEX
  5
C3E
  8
035
 10
345.180857
 20
244.684418
 30
0.0
 42
-0.103502
  0
VERTEX
  5
C3F
  8
035
 10
345.380444
 20
244.530011
 30
0.0
 42
-0.010008
  0
VERTEX
  5
C40
  8
035
 10
345.398382
 20
244.508101
 30
0.0
 42
-0.085087
  0
SEQEND
  5
C41
  8
035
  0
LINE
  5
A8B
  8
035
 10
344.95618
 20
244.7361
 30
0.0
 11
343.29794
 21
244.7361
 31
0.0
  0
LINE
  5
A8C
  8
035
 10
343.29794
 20
244.7361
 30
0.0
 11
341.79794
 21
243.437062
 31
0.0
  0
LINE
  5
A8D
  8
035
 10
343.29794
 20
245.3361
 30
0.0
 11
341.79794
 21
244.037062
 31
0.0
  0
LINE
  5
A8E
  8
035
 10
343.29794
 20
244.7361
 30
0.0
 11
343.29794
 21
245.3361
 31
0.0
  0
LINE
  5
A8F
  8
035
 10
344.956116
 20
245.3361
 30
0.0
 11
343.29794
 21
245.3361
 31
0.0
  0
LINE
  5
A90
  8
035
 10
349.29794
 20
244.7361
 30
0.0
 11
347.6397
 21
244.7361
 31
0.0
  0
LINE
  5
A91
  8
035
 10
349.29794
 20
244.7361
 30
0.0
 11
349.29794
 21
245.3361
 31
0.0
  0
POLYLINE
  5
A92
  8
035
 66
     1
 10
0.0
 20
0.0
 30
0.0
  0
VERTEX
  5
C42
  8
035
 10
346.742488
 20
244.863468
 30
0.0
 42
-0.011355
  0
VERTEX
  5
C43
  8
035
 10
346.722204
 20
244.838557
 30
0.0
 42
-0.103502
  0
VERTEX
  5
C44
  8
035
 10
346.522617
 20
244.684149
 30
0.0
 42
-0.113531
  0
VERTEX
  5
C45
  8
035
 10
346.29794
 20
244.632467
 30
0.0
 42
-0.113531
  0
VERTEX
  5
C46
  8
035
 10
346.073262
 20
244.684149
 30
0.0
 42
-0.103502
  0
VERTEX
  5
C47
  8
035
 10
345.873676
 20
244.838557
 30
0.0
 42
-0.014515
  0
VERTEX
  5
C48
  8
035
 10
345.847949
 20
244.870563
 30
0.0
 42
-0.085087
  0
SEQEND
  5
C49
  8
035
  0
POLYLINE
  5
A93
  8
035
 66
     1
 10
0.0
 20
0.0
 30
0.0
  0
VERTEX
  5
C4A
  8
035
 10
346.742488
 20
244.863468
 30
0.0
 42
-0.013725
  0
VERTEX
  5
C4B
  8
035
 10
346.791236
 20
244.923922
 30
0.0
 42
-0.103502
  0
VERTEX
  5
C4C
  8
035
 10
347.190409
 20
245.232736
 30
0.0
 42
-0.113531
  0
VERTEX
  5
C4D
  8
035
 10
347.639765
 20
245.3361
 30
0.0
 42
-0.113531
  0
SEQEND
  5
C4E
  8
035
  0
LINE
  5
A94
  8
035
 10
347.639765
 20
245.3361
 30
0.0
 11
349.29794
 21
245.3361
 31
0.0
  0
POLYLINE
  5
A95
  8
035
 66
     1
 10
0.0
 20
0.0
 30
0.0
  0
VERTEX
  5
C4F
  8
035
 10
347.6397
 20
244.7361
 30
0.0
 42
0.113531
  0
VERTEX
  5
C50
  8
035
 10
347.415022
 20
244.684418
 30
0.0
 42
0.103502
  0
VERTEX
  5
C51
  8
035
 10
347.215436
 20
244.530011
 30
0.0
 42
0.010008
  0
VERTEX
  5
C52
  8
035
 10
347.197498
 20
244.508101
 30
0.0
 42
0.085087
  0
SEQEND
  5
C53
  8
035
  0
POLYLINE
  5
A96
  8
035
 66
     1
 10
0.0
 20
0.0
 30
0.0
  0
VERTEX
  5
C54
  8
035
 10
346.29794
 20
244.032467
 30
0.0
 42
0.113531
  0
VERTEX
  5
C55
  8
035
 10
346.747295
 20
244.135831
 30
0.0
 42
0.103502
  0
VERTEX
  5
C56
  8
035
 10
347.146468
 20
244.444646
 30
0.0
 42
0.014391
  0
VERTEX
  5
C57
  8
035
 10
347.197498
 20
244.508101
 30
0.0
 42
0.085087
  0
SEQEND
  5
C58
  8
035
  0
POLYLINE
  5
A97
  8
035
 66
     1
 10
0.0
 20
0.0
 30
0.0
  0
VERTEX
  5
C59
  8
035
 10
346.29794
 20
244.032467
 30
0.0
 42
-0.113531
  0
VERTEX
  5
C5A
  8
035
 10
345.848584
 20
244.135831
 30
0.0
 42
-0.103502
  0
VERTEX
  5
C5B
  8
035
 10
345.449412
 20
244.444646
 30
0.0
 42
-0.014391
  0
VERTEX
  5
C5C
  8
035
 10
345.398382
 20
244.508101
 30
0.0
 42
-0.085087
  0
SEQEND
  5
C5D
  8
035
  0
LINE
  5
A98
  8
035
 10
344.04794
 20
247.808187
 30
0.0
 11
344.04794
 21
248.223206
 31
0.0
  0
LINE
  5
A99
  8
035
 10
348.54794
 20
247.808187
 30
0.0
 11
348.54794
 21
248.223206
 31
0.0
  0
LINE
  5
A9A
  8
035
 10
353.498053
 20
247.504943
 30
0.0
 11
353.498053
 21
247.089924
 31
0.0
  0
LINE
  5
A9B
  8
035
 10
356.988909
 20
246.087945
 30
0.0
 11
356.20425
 21
243.819837
 31
0.0
  0
ARC
  5
A9C
  8
05
 10
355.29794
 20
242.69355
 30
0.0
 40
0.6
 50
90.0
 51
180.0
  0
LINE
  5
A9D
  8
05
 10
355.29794
 20
251.702422
 30
0.0
 11
355.29794
 21
250.15685
 31
0.0
  0
ARC
  5
A9E
  8
035
 10
355.374198
 20
254.395347
 30
0.0
 40
5.923756
 50
317.616327
 51
359.871708
  0
ARC
  5
A9F
  8
05
 10
364.069498
 20
267.876169
 30
0.0
 40
18.0
 50
251.323951
 51
297.534586
  0
ARC
  5
AA0
  8
05
 10
362.659643
 20
246.691952
 30
0.0
 40
0.6
 50
331.5
 51
62.471161
  0
ARC
  5
AA1
  8
05
 10
361.645839
 20
244.513729
 30
0.0
 40
2.25
 50
253.07829
 51
49.92171
  0
LINE
  5
AA2
  8
05
 10
357.893248
 20
243.29355
 30
0.0
 11
358.926493
 21
245.788025
 31
0.0
  0
LINE
  5
AA3
  8
05
 10
363.186934
 20
246.405657
 30
0.0
 11
363.094465
 21
246.235351
 31
0.0
  0
ARC
  5
AA4
  8
05
 10
367.833485
 20
243.016968
 30
0.0
 40
0.6
 50
232.153489
 51
13.644378
  0
LINE
  5
AA5
  8
035
 10
361.29794
 20
256.935592
 30
0.0
 11
361.29794
 21
254.382083
 31
0.0
  0
LINE
  5
AA6
  8
BEM1
 10
383.796425
 20
247.256526
 30
0.0
 11
383.796425
 21
270.491441
 31
0.0
  0
LINE
  5
AA7
  8
BEM1
 10
397.739548
 20
252.798485
 30
0.0
 11
385.128711
 21
252.798485
 31
0.0
  0
LINE
  5
AA8
  8
BEM1
 10
382.606628
 20
252.798485
 30
0.0
 11
379.215226
 21
252.798485
 31
0.0
  0
SOLID
  5
AA9
  8
BEM1
 10
396.887897
 20
249.298485
 30
0.0
 11
395.72123
 21
249.298485
 31
0.0
 12
396.304563
 22
252.798485
 32
0.0
 13
396.304563
 23
252.798485
 33
0.0
  0
SOLID
  5
AAA
  8
BEM1
 10
380.296425
 20
268.696763
 30
0.0
 11
380.296425
 21
269.86343
 31
0.0
 12
383.796425
 22
269.280097
 32
0.0
 13
383.796425
 23
269.280097
 33
0.0
  0
ENDSEC
  0
EOF
