999
DXF file: nc3fx-hd-b.dxf
999
Pro/ENGINEER 2001040 by Parametric Technology Corporation
0
SECTION
2
HEADER
9
$ACADVER
1
AC1012
9
$EXTMAX
10
210.0000000000
20
297.0000000000
9
$EXTMIN
10
0.0000000000
20
0.0000000000
9
$LIMMIN
10
0.0000000000
20
0.0000000000
9
$LIMMAX
10
210.0000000000
20
297.0000000000
9
$VIEWCTR
10
105.0000000000
20
148.5000000000
9
$VIEWSIZE
40
297.0000000000
9
$CLAYER
8
0
9
$LTSCALE
40
19.3600000000
9
$CELTYPE
6
BYLAYER
9
$DIMSCALE
40
1
9
$DIMASZ
40
3.5000000000
9
$DIMEXO
40
2.2000000000
9
$DIMDLI
40
13.3760000000
9
$DIMEXE
40
6.3360000000
9
$DIMCEN
40
3.1680000000
9
$DIMTXT
40
3.9776785714
9
$DIMLFAC
40
1.0000000000
0
ENDSEC
0
SECTION
2
CLASSES
0
ENDSEC
0
SECTION
2
TABLES
0
TABLE
2
VPORT
5
1F4
100
AcDbSymbolTable
70
2
0
VPORT
5
1F5
100
AcDbSymbolTableRecord
100
AcDbViewportTableRecord
2
*ACTIVE
70
0
10
0.0
20
0.0
11
1.0
21
1.0
12
105.0000000000
22
148.5000000000
13
0.0
23
0.0
14
1.0
24
1.0
15
0.0
25
0.0
16
0.0
26
0.0
36
1.0
17
0.0
27
0.0
37
0.0
40
297.0000000000
41
0.7070707071
42
50.0
43
0.0
44
0.0
50
0.0
51
0.0
71
0
72
100
73
1
74
1
75
0
76
0
77
0
78
0
0
ENDTAB
0
TABLE
2
LTYPE
5
1F6
100
AcDbSymbolTable
70
6
0
LTYPE
5
1F7
100
AcDbSymbolTableRecord
100
AcDbLinetypeTableRecord
2
BYBLOCK
70
0
3

72
65
73
0
40
0.0
0
LTYPE
5
1F8
100
AcDbSymbolTableRecord
100
AcDbLinetypeTableRecord
2
BYLAYER
70
0
3

72
65
73
0
40
0.0
0
LTYPE
5
1F9
100
AcDbSymbolTableRecord
100
AcDbLinetypeTableRecord
2
CONTINUOUS
70
64
3
Solid line
72
65
73
0
40
0
0
LTYPE
5
1FA
100
AcDbSymbolTableRecord
100
AcDbLinetypeTableRecord
2
CENTER
70
64
3
____ _ ____ _ ____ _ ____ _ ____ _ ____ _ ____
72
65
73
4
40
0.6
49
0.375
74
0
49
-0.075
74
0
49
0.075
74
0
49
-0.075
74
0
0
LTYPE
5
1FB
100
AcDbSymbolTableRecord
100
AcDbLinetypeTableRecord
2
HIDDEN
70
64
3
- - - - - - - - - - - - - - - - - - - -
72
65
73
2
40
0.2
49
0.1
74
0
49
-0.1
74
0
0
LTYPE
5
1FC
100
AcDbSymbolTableRecord
100
AcDbLinetypeTableRecord
2
PHANTOM
70
64
3
_____ _ _ _____ _ _ _____ _ _ _____
72
65
73
6
40
0.8
49
0.45
74
0
49
-0.05
74
0
49
0.1
74
0
49
-0.05
74
0
49
0.1
74
0
49
-0.05
74
0
0
LTYPE
5
1FD
100
AcDbSymbolTableRecord
100
AcDbLinetypeTableRecord
2
DOT
70
64
3
. . . . . . . . . . . . . . . . . . . .
72
65
73
2
40
0.2
49
0.1
74
0
49
-0.1
74
0
0
LTYPE
5
1FE
100
AcDbSymbolTableRecord
100
AcDbLinetypeTableRecord
2
DASHED
70
64
3
- - - - - - - - - - - - - - - - - - - -
72
65
73
2
40
0.2
49
0.1
74
0
49
-0.1
74
0
0
ENDTAB
0
TABLE
2
LAYER
5
1FF
100
AcDbSymbolTable
70
36
0
LAYER
5
200
100
AcDbSymbolTableRecord
100
AcDbLayerTableRecord
2
0
70
0
62
7
6
CONTINUOUS
0
LAYER
5
201
100
AcDbSymbolTableRecord
100
AcDbLayerTableRecord
2
DEFAULT_1
70
0
62
7
6
CENTER
0
LAYER
5
202
100
AcDbSymbolTableRecord
100
AcDbLayerTableRecord
2
DEFAULT_2
70
0
62
8
6
HIDDEN
0
LAYER
5
203
100
AcDbSymbolTableRecord
100
AcDbLayerTableRecord
2
DEFAULT_3
70
0
62
7
6
PHANTOM
0
LAYER
5
204
100
AcDbSymbolTableRecord
100
AcDbLayerTableRecord
2
0
70
0
62
7
6
CONTINUOUS
0
LAYER
5
205
100
AcDbSymbolTableRecord
100
AcDbLayerTableRecord
2
025
70
0
62
7
6
CONTINUOUS
0
LAYER
5
206
100
AcDbSymbolTableRecord
100
AcDbLayerTableRecord
2
035
70
0
62
7
6
CONTINUOUS
0
LAYER
5
207
100
AcDbSymbolTableRecord
100
AcDbLayerTableRecord
2
05
70
0
62
7
6
CONTINUOUS
0
LAYER
5
208
100
AcDbSymbolTableRecord
100
AcDbLayerTableRecord
2
07
70
0
62
7
6
CONTINUOUS
0
LAYER
5
209
100
AcDbSymbolTableRecord
100
AcDbLayerTableRecord
2
DEFAULT_1
70
0
62
7
6
CONTINUOUS
0
LAYER
5
20A
100
AcDbSymbolTableRecord
100
AcDbLayerTableRecord
2
DEFPOINTS
70
0
62
7
6
CONTINUOUS
0
LAYER
5
20B
100
AcDbSymbolTableRecord
100
AcDbLayerTableRecord
2
KONTAKTE
70
0
62
7
6
CONTINUOUS
0
LAYER
5
20C
100
AcDbSymbolTableRecord
100
AcDbLayerTableRecord
2
MITTE
70
0
62
7
6
CONTINUOUS
0
LAYER
5
20D
100
AcDbSymbolTableRecord
100
AcDbLayerTableRecord
2
RAHMEN
70
0
62
7
6
CONTINUOUS
0
LAYER
5
20E
100
AcDbSymbolTableRecord
100
AcDbLayerTableRecord
2
SCHRAFFIERT
70
0
62
7
6
CONTINUOUS
0
ENDTAB
0
TABLE
2
STYLE
5
20F
100
AcDbSymbolTable
70
1
0
STYLE
5
210
100
AcDbSymbolTableRecord
100
AcDbTextStyleTableRecord
2
STANDARD
70
0
40
0.0
41
0.80
50
0.0
71
0
42
0.2
3
txt
4

0
ENDTAB
0
TABLE
2
VIEW
5
211
100
AcDbSymbolTable
70
0
0
ENDTAB
0
TABLE
2
UCS
5
212
100
AcDbSymbolTable
70
0
0
ENDTAB
0
TABLE
2
APPID
5
213
100
AcDbSymbolTable
70
1
0
APPID
5
214
100
AcDbSymbolTableRecord
100
AcDbRegAppTableRecord
2
ACAD
70
0
0
ENDTAB
0
TABLE
2
DIMSTYLE
5
215
100
AcDbSymbolTable
0
DIMSTYLE
105
216
100
AcDbSymbolTableRecord
100
AcDbDimStyleTableRecord
2
STANDARD
70
0
3

4

5

6

7

40
1.0
41
0.18
42
0.0625
43
0.38
44
0.18
45
0.0
46
0.0
47
0.0
48
0.0
140
0.18
141
0.09
142
0.0
143
25.4
144
1.0
145
0.0
146
1.0
147
0.09
71
0
72
0
73
1
74
1
75
0
76
0
77
0
78
0
170
0
171
2
172
0
173
0
174
0
175
0
176
0
177
0
178
0
270
2
271
4
272
4
273
2
274
2
340
210
275
0
280
0
281
0
282
0
283
1
284
0
285
0
286
0
287
3
288
0
0
ENDTAB
0
TABLE
2
BLOCK_RECORD
5
217
100
AcDbSymbolTable
70
0
0
BLOCK_RECORD
5
218
100
AcDbSymbolTableRecord
100
AcDbBlockTableRecord
2
*MODEL_SPACE
0
BLOCK_RECORD
5
219
100
AcDbSymbolTableRecord
100
AcDbBlockTableRecord
2
*PAPER_SPACE
0
ENDTAB
0
ENDSEC
0
SECTION
2
BLOCKS
0
BLOCK
5
21A
100
AcDbEntity
8
0
100
AcDbBlockBegin
2
*MODEL_SPACE
70
0
10
0.0000000000
20
0.0000000000
3
*MODEL_SPACE
1

3
*MODEL_SPACE
1

0
ENDBLK
5
21B
100
AcDbEntity
8
0
100
AcDbBlockEnd
0
BLOCK
5
21C
100
AcDbEntity
8
0
100
AcDbBlockBegin
2
*PAPER_SPACE
70
0
10
0.0000000000
20
0.0000000000
3
*PAPER_SPACE
1

3
*PAPER_SPACE
1

0
ENDBLK
5
21D
100
AcDbEntity
8
0
100
AcDbBlockEnd
0
ENDSEC
0
SECTION
2
ENTITIES
0
LINE
5
21E
100
AcDbEntity
8
0
100
AcDbLine
62
7
6
CONTINUOUS
10
0.0000000000
20
0.0000000000
11
210.0000000000
21
0.0000000000
0
LINE
5
21F
100
AcDbEntity
8
0
100
AcDbLine
62
7
6
CONTINUOUS
10
210.0000000000
20
0.0000000000
11
210.0000000000
21
297.0000000000
0
LINE
5
220
100
AcDbEntity
8
0
100
AcDbLine
62
7
6
CONTINUOUS
10
0.0000000000
20
297.0000000000
11
210.0000000000
21
297.0000000000
0
LINE
5
221
100
AcDbEntity
8
0
100
AcDbLine
62
7
6
CONTINUOUS
10
0.0000000000
20
0.0000000000
11
0.0000000000
21
297.0000000000
0
LINE
5
222
100
AcDbEntity
8
025
100
AcDbLine
62
7
6
CONTINUOUS
10
69.7677030000
20
147.6872600000
11
69.7677030000
21
144.4781500000
0
LINE
5
223
100
AcDbEntity
8
025
100
AcDbLine
62
7
6
CONTINUOUS
10
69.8857050000
20
224.2220800000
11
69.8857050000
21
222.8917130000
0
LINE
5
224
100
AcDbEntity
8
025
100
AcDbLine
62
7
6
CONTINUOUS
10
99.3588350000
20
225.9539190000
11
99.3734570000
21
226.1375670000
0
LINE
5
225
100
AcDbEntity
8
025
100
AcDbLine
62
7
6
CONTINUOUS
10
124.7602640000
20
225.8043630000
11
124.8328600000
21
225.3651410000
0
LINE
5
226
100
AcDbEntity
8
025
100
AcDbLine
62
7
6
CONTINUOUS
10
125.2657210000
20
222.3686130000
11
125.3370460000
21
221.7859920000
0
LINE
5
227
100
AcDbEntity
8
025
100
AcDbLine
62
7
6
CONTINUOUS
10
125.3370460000
20
221.7859920000
11
125.4080520000
21
221.1680110000
0
LINE
5
228
100
AcDbEntity
8
025
100
AcDbLine
62
7
6
CONTINUOUS
10
125.4080520000
20
221.1680110000
11
125.4780550000
21
220.5129040000
0
LINE
5
229
100
AcDbEntity
8
025
100
AcDbLine
62
7
6
CONTINUOUS
10
125.4780550000
20
220.5129040000
11
125.5466730000
21
219.8143790000
0
LINE
5
22A
100
AcDbEntity
8
025
100
AcDbLine
62
7
6
CONTINUOUS
10
125.5466730000
20
219.8143790000
11
125.6119630000
21
219.0809240000
0
LINE
5
22B
100
AcDbEntity
8
025
100
AcDbLine
62
7
6
CONTINUOUS
10
125.6119630000
20
219.0809240000
11
125.6727340000
21
218.3141460000
0
LINE
5
22C
100
AcDbEntity
8
025
100
AcDbLine
62
7
6
CONTINUOUS
10
125.6727340000
20
218.3141460000
11
125.7269700000
21
217.5285810000
0
LINE
5
22D
100
AcDbEntity
8
025
100
AcDbLine
62
7
6
CONTINUOUS
10
125.7269700000
20
217.5285810000
11
125.7731890000
21
216.7397900000
0
LINE
5
22E
100
AcDbEntity
8
025
100
AcDbLine
62
7
6
CONTINUOUS
10
125.7731890000
20
216.7397900000
11
125.8112710000
21
215.9465720000
0
LINE
5
22F
100
AcDbEntity
8
025
100
AcDbLine
62
7
6
CONTINUOUS
10
125.8112710000
20
215.9465720000
11
125.8408050000
21
215.1531260000
0
LINE
5
230
100
AcDbEntity
8
025
100
AcDbLine
62
7
6
CONTINUOUS
10
125.8408050000
20
215.1531260000
11
125.8616200000
21
214.3588660000
0
LINE
5
231
100
AcDbEntity
8
025
100
AcDbLine
62
7
6
CONTINUOUS
10
125.8616200000
20
214.3588660000
11
125.8736580000
21
213.5646820000
0
LINE
5
232
100
AcDbEntity
8
025
100
AcDbLine
62
7
6
CONTINUOUS
10
125.8736580000
20
213.5646820000
11
125.8771820000
21
212.7704160000
0
LINE
5
233
100
AcDbEntity
8
025
100
AcDbLine
62
7
6
CONTINUOUS
10
125.1942050000
20
222.9209620000
11
125.2657210000
21
222.3686130000
0
LINE
5
234
100
AcDbEntity
8
025
100
AcDbLine
62
7
6
CONTINUOUS
10
99.3434920000
20
225.7752400000
11
99.3588350000
21
225.9539190000
0
LINE
5
235
100
AcDbEntity
8
025
100
AcDbLine
62
7
6
CONTINUOUS
10
98.7015250000
20
220.8361740000
11
98.8302770000
21
221.6820470000
0
LINE
5
236
100
AcDbEntity
8
025
100
AcDbLine
62
7
6
CONTINUOUS
10
98.8302770000
20
221.6820470000
11
98.9464440000
21
222.4719710000
0
LINE
5
237
100
AcDbEntity
8
025
100
AcDbLine
62
7
6
CONTINUOUS
10
98.9464440000
20
222.4719710000
11
99.0507060000
21
223.2182900000
0
LINE
5
238
100
AcDbEntity
8
025
100
AcDbLine
62
7
6
CONTINUOUS
10
99.0507060000
20
223.2182900000
11
99.1421810000
21
223.9190350000
0
LINE
5
239
100
AcDbEntity
8
025
100
AcDbLine
62
7
6
CONTINUOUS
10
99.1421810000
20
223.9190350000
11
99.2211560000
21
224.5775140000
0
LINE
5
23A
100
AcDbEntity
8
025
100
AcDbLine
62
7
6
CONTINUOUS
10
99.2211560000
20
224.5775140000
11
99.2773250000
21
225.0966000000
0
LINE
5
23B
100
AcDbEntity
8
025
100
AcDbLine
62
7
6
CONTINUOUS
10
112.2414150000
20
228.8691800000
11
119.1581120000
21
227.6866460000
0
LINE
5
23C
100
AcDbEntity
8
025
100
AcDbLine
62
7
6
CONTINUOUS
10
104.0659070000
20
230.2736550000
11
112.2414150000
21
228.8691800000
0
LINE
5
23D
100
AcDbEntity
8
025
100
AcDbLine
62
7
6
CONTINUOUS
10
99.3874050000
20
226.3268790000
11
99.3954040000
21
226.4254170000
0
LINE
5
23E
100
AcDbEntity
8
025
100
AcDbLine
62
7
6
CONTINUOUS
10
99.3954040000
20
226.4254170000
11
99.4054080000
21
226.5234940000
0
LINE
5
23F
100
AcDbEntity
8
025
100
AcDbLine
62
7
6
CONTINUOUS
10
99.4054080000
20
226.5234940000
11
99.4174070000
21
226.6210580000
0
LINE
5
240
100
AcDbEntity
8
025
100
AcDbLine
62
7
6
CONTINUOUS
10
99.4174070000
20
226.6210580000
11
99.4313970000
21
226.7181150000
0
LINE
5
241
100
AcDbEntity
8
025
100
AcDbLine
62
7
6
CONTINUOUS
10
99.4313970000
20
226.7181150000
11
99.4473780000
21
226.8146780000
0
LINE
5
242
100
AcDbEntity
8
025
100
AcDbLine
62
7
6
CONTINUOUS
10
99.4473780000
20
226.8146780000
11
99.4653440000
21
226.9106840000
0
LINE
5
243
100
AcDbEntity
8
025
100
AcDbLine
62
7
6
CONTINUOUS
10
99.4653440000
20
226.9106840000
11
99.4852890000
21
227.0060830000
0
LINE
5
244
100
AcDbEntity
8
025
100
AcDbLine
62
7
6
CONTINUOUS
10
99.4852890000
20
227.0060830000
11
99.5072100000
21
227.1008440000
0
LINE
5
245
100
AcDbEntity
8
025
100
AcDbLine
62
7
6
CONTINUOUS
10
99.5072100000
20
227.1008440000
11
99.5311010000
21
227.1949340000
0
LINE
5
246
100
AcDbEntity
8
025
100
AcDbLine
62
7
6
CONTINUOUS
10
99.5311010000
20
227.1949340000
11
99.5569540000
21
227.2883120000
0
LINE
5
247
100
AcDbEntity
8
025
100
AcDbLine
62
7
6
CONTINUOUS
10
99.5569540000
20
227.2883120000
11
99.5847570000
21
227.3809370000
0
LINE
5
248
100
AcDbEntity
8
025
100
AcDbLine
62
7
6
CONTINUOUS
10
99.5847570000
20
227.3809370000
11
99.6144970000
21
227.4727700000
0
LINE
5
249
100
AcDbEntity
8
025
100
AcDbLine
62
7
6
CONTINUOUS
10
99.6144970000
20
227.4727700000
11
99.6461570000
21
227.5637630000
0
LINE
5
24A
100
AcDbEntity
8
025
100
AcDbLine
62
7
6
CONTINUOUS
10
99.6461570000
20
227.5637630000
11
99.6797270000
21
227.6538980000
0
LINE
5
24B
100
AcDbEntity
8
025
100
AcDbLine
62
7
6
CONTINUOUS
10
99.6797270000
20
227.6538980000
11
99.7151960000
21
227.7431530000
0
LINE
5
24C
100
AcDbEntity
8
025
100
AcDbLine
62
7
6
CONTINUOUS
10
99.7151960000
20
227.7431530000
11
99.7525490000
21
227.8314910000
0
LINE
5
24D
100
AcDbEntity
8
025
100
AcDbLine
62
7
6
CONTINUOUS
10
99.7525490000
20
227.8314910000
11
99.7917730000
21
227.9188790000
0
LINE
5
24E
100
AcDbEntity
8
025
100
AcDbLine
62
7
6
CONTINUOUS
10
99.7917730000
20
227.9188790000
11
99.8328480000
21
228.0052740000
0
LINE
5
24F
100
AcDbEntity
8
025
100
AcDbLine
62
7
6
CONTINUOUS
10
99.8328480000
20
228.0052740000
11
99.8757510000
21
228.0906290000
0
LINE
5
250
100
AcDbEntity
8
025
100
AcDbLine
62
7
6
CONTINUOUS
10
99.8757510000
20
228.0906290000
11
99.9204760000
21
228.1749280000
0
LINE
5
251
100
AcDbEntity
8
025
100
AcDbLine
62
7
6
CONTINUOUS
10
99.9204760000
20
228.1749280000
11
99.9670110000
21
228.2581480000
0
LINE
5
252
100
AcDbEntity
8
025
100
AcDbLine
62
7
6
CONTINUOUS
10
99.9670110000
20
228.2581480000
11
100.0153430000
21
228.3402550000
0
LINE
5
253
100
AcDbEntity
8
025
100
AcDbLine
62
7
6
CONTINUOUS
10
100.0153430000
20
228.3402550000
11
100.0654610000
21
228.4212250000
0
LINE
5
254
100
AcDbEntity
8
025
100
AcDbLine
62
7
6
CONTINUOUS
10
100.0654610000
20
228.4212250000
11
100.1173350000
21
228.5010000000
0
LINE
5
255
100
AcDbEntity
8
025
100
AcDbLine
62
7
6
CONTINUOUS
10
100.1173350000
20
228.5010000000
11
100.1709280000
21
228.5795240000
0
LINE
5
256
100
AcDbEntity
8
025
100
AcDbLine
62
7
6
CONTINUOUS
10
100.1709280000
20
228.5795240000
11
100.2262270000
21
228.6567720000
0
LINE
5
257
100
AcDbEntity
8
025
100
AcDbLine
62
7
6
CONTINUOUS
10
100.2262270000
20
228.6567720000
11
100.2832150000
21
228.7327220000
0
LINE
5
258
100
AcDbEntity
8
025
100
AcDbLine
62
7
6
CONTINUOUS
10
100.2832150000
20
228.7327220000
11
100.3418520000
21
228.8073210000
0
LINE
5
259
100
AcDbEntity
8
025
100
AcDbLine
62
7
6
CONTINUOUS
10
100.3418520000
20
228.8073210000
11
100.4020970000
21
228.8805150000
0
LINE
5
25A
100
AcDbEntity
8
025
100
AcDbLine
62
7
6
CONTINUOUS
10
100.4020970000
20
228.8805150000
11
100.4639310000
21
228.9522860000
0
LINE
5
25B
100
AcDbEntity
8
025
100
AcDbLine
62
7
6
CONTINUOUS
10
100.4639310000
20
228.9522860000
11
100.5273270000
21
229.0226040000
0
LINE
5
25C
100
AcDbEntity
8
025
100
AcDbLine
62
7
6
CONTINUOUS
10
100.5273270000
20
229.0226040000
11
100.5922710000
21
229.0914470000
0
LINE
5
25D
100
AcDbEntity
8
025
100
AcDbLine
62
7
6
CONTINUOUS
10
100.5922710000
20
229.0914470000
11
100.6587470000
21
229.1587990000
0
LINE
5
25E
100
AcDbEntity
8
025
100
AcDbLine
62
7
6
CONTINUOUS
10
100.6587470000
20
229.1587990000
11
100.7267260000
21
229.2246190000
0
LINE
5
25F
100
AcDbEntity
8
025
100
AcDbLine
62
7
6
CONTINUOUS
10
100.7267260000
20
229.2246190000
11
100.7961860000
21
229.2888740000
0
LINE
5
260
100
AcDbEntity
8
025
100
AcDbLine
62
7
6
CONTINUOUS
10
100.7961860000
20
229.2888740000
11
100.8670990000
21
229.3515250000
0
LINE
5
261
100
AcDbEntity
8
025
100
AcDbLine
62
7
6
CONTINUOUS
10
100.8670990000
20
229.3515250000
11
100.9394320000
21
229.4125310000
0
LINE
5
262
100
AcDbEntity
8
025
100
AcDbLine
62
7
6
CONTINUOUS
10
100.9394320000
20
229.4125310000
11
101.0131810000
21
229.4718730000
0
LINE
5
263
100
AcDbEntity
8
025
100
AcDbLine
62
7
6
CONTINUOUS
10
101.0131810000
20
229.4718730000
11
101.0883460000
21
229.5295350000
0
LINE
5
264
100
AcDbEntity
8
025
100
AcDbLine
62
7
6
CONTINUOUS
10
101.0883460000
20
229.5295350000
11
101.1648680000
21
229.5854580000
0
LINE
5
265
100
AcDbEntity
8
025
100
AcDbLine
62
7
6
CONTINUOUS
10
101.1648680000
20
229.5854580000
11
101.2426970000
21
229.6395940000
0
LINE
5
266
100
AcDbEntity
8
025
100
AcDbLine
62
7
6
CONTINUOUS
10
101.2426970000
20
229.6395940000
11
101.3217970000
21
229.6919110000
0
LINE
5
267
100
AcDbEntity
8
025
100
AcDbLine
62
7
6
CONTINUOUS
10
101.3217970000
20
229.6919110000
11
101.4021260000
21
229.7423720000
0
LINE
5
268
100
AcDbEntity
8
025
100
AcDbLine
62
7
6
CONTINUOUS
10
101.4021260000
20
229.7423720000
11
101.4836480000
21
229.7909480000
0
LINE
5
269
100
AcDbEntity
8
025
100
AcDbLine
62
7
6
CONTINUOUS
10
101.4836480000
20
229.7909480000
11
101.5663380000
21
229.8376150000
0
LINE
5
26A
100
AcDbEntity
8
025
100
AcDbLine
62
7
6
CONTINUOUS
10
101.5663380000
20
229.8376150000
11
101.6501290000
21
229.8823290000
0
LINE
5
26B
100
AcDbEntity
8
025
100
AcDbLine
62
7
6
CONTINUOUS
10
101.6501290000
20
229.8823290000
11
101.7349460000
21
229.9250440000
0
LINE
5
26C
100
AcDbEntity
8
025
100
AcDbLine
62
7
6
CONTINUOUS
10
101.7349460000
20
229.9250440000
11
101.8207870000
21
229.9657500000
0
LINE
5
26D
100
AcDbEntity
8
025
100
AcDbLine
62
7
6
CONTINUOUS
10
101.8207870000
20
229.9657500000
11
101.9076400000
21
230.0044310000
0
LINE
5
26E
100
AcDbEntity
8
025
100
AcDbLine
62
7
6
CONTINUOUS
10
101.9076400000
20
230.0044310000
11
101.9954560000
21
230.0410510000
0
LINE
5
26F
100
AcDbEntity
8
025
100
AcDbLine
62
7
6
CONTINUOUS
10
101.9954560000
20
230.0410510000
11
102.0841950000
21
230.0755790000
0
LINE
5
270
100
AcDbEntity
8
025
100
AcDbLine
62
7
6
CONTINUOUS
10
102.0841950000
20
230.0755790000
11
102.1738060000
21
230.1079840000
0
LINE
5
271
100
AcDbEntity
8
025
100
AcDbLine
62
7
6
CONTINUOUS
10
102.1738060000
20
230.1079840000
11
102.2642300000
21
230.1382310000
0
LINE
5
272
100
AcDbEntity
8
025
100
AcDbLine
62
7
6
CONTINUOUS
10
102.2642300000
20
230.1382310000
11
102.3554310000
21
230.1662950000
0
LINE
5
273
100
AcDbEntity
8
025
100
AcDbLine
62
7
6
CONTINUOUS
10
102.3554310000
20
230.1662950000
11
102.4473630000
21
230.1921510000
0
LINE
5
274
100
AcDbEntity
8
025
100
AcDbLine
62
7
6
CONTINUOUS
10
102.4473630000
20
230.1921510000
11
102.5399810000
21
230.2157730000
0
LINE
5
275
100
AcDbEntity
8
025
100
AcDbLine
62
7
6
CONTINUOUS
10
102.5399810000
20
230.2157730000
11
102.6332530000
21
230.2371380000
0
LINE
5
276
100
AcDbEntity
8
025
100
AcDbLine
62
7
6
CONTINUOUS
10
102.6332530000
20
230.2371380000
11
102.7270940000
21
230.2562190000
0
LINE
5
277
100
AcDbEntity
8
025
100
AcDbLine
62
7
6
CONTINUOUS
10
102.7270940000
20
230.2562190000
11
102.8214210000
21
230.2729870000
0
LINE
5
278
100
AcDbEntity
8
025
100
AcDbLine
62
7
6
CONTINUOUS
10
102.8214210000
20
230.2729870000
11
102.9161950000
21
230.2874300000
0
LINE
5
279
100
AcDbEntity
8
025
100
AcDbLine
62
7
6
CONTINUOUS
10
102.9161950000
20
230.2874300000
11
103.0113810000
21
230.2995310000
0
LINE
5
27A
100
AcDbEntity
8
025
100
AcDbLine
62
7
6
CONTINUOUS
10
103.0113810000
20
230.2995310000
11
103.1068920000
21
230.3092680000
0
LINE
5
27B
100
AcDbEntity
8
025
100
AcDbLine
62
7
6
CONTINUOUS
10
103.1068920000
20
230.3092680000
11
103.2026400000
21
230.3166260000
0
LINE
5
27C
100
AcDbEntity
8
025
100
AcDbLine
62
7
6
CONTINUOUS
10
103.2026400000
20
230.3166260000
11
103.2985840000
21
230.3215900000
0
LINE
5
27D
100
AcDbEntity
8
025
100
AcDbLine
62
7
6
CONTINUOUS
10
103.2985840000
20
230.3215900000
11
103.3946590000
21
230.3241470000
0
LINE
5
27E
100
AcDbEntity
8
025
100
AcDbLine
62
7
6
CONTINUOUS
10
103.3946590000
20
230.3241470000
11
103.4908500000
21
230.3242830000
0
LINE
5
27F
100
AcDbEntity
8
025
100
AcDbLine
62
7
6
CONTINUOUS
10
103.4908500000
20
230.3242830000
11
103.5871850000
21
230.3219790000
0
LINE
5
280
100
AcDbEntity
8
025
100
AcDbLine
62
7
6
CONTINUOUS
10
103.5871850000
20
230.3219790000
11
103.6834560000
21
230.3172240000
0
LINE
5
281
100
AcDbEntity
8
025
100
AcDbLine
62
7
6
CONTINUOUS
10
103.6834560000
20
230.3172240000
11
103.7794470000
21
230.3100220000
0
LINE
5
282
100
AcDbEntity
8
025
100
AcDbLine
62
7
6
CONTINUOUS
10
103.7794470000
20
230.3100220000
11
103.8752020000
21
230.3003650000
0
LINE
5
283
100
AcDbEntity
8
025
100
AcDbLine
62
7
6
CONTINUOUS
10
103.8752020000
20
230.3003650000
11
103.9707230000
21
230.2882410000
0
LINE
5
284
100
AcDbEntity
8
025
100
AcDbLine
62
7
6
CONTINUOUS
10
103.9707230000
20
230.2882410000
11
104.0659070000
21
230.2736560000
0
LINE
5
285
100
AcDbEntity
8
025
100
AcDbLine
62
7
6
CONTINUOUS
10
99.3734570000
20
226.1375670000
11
99.3874050000
21
226.3268790000
0
LINE
5
286
100
AcDbEntity
8
025
100
AcDbLine
62
7
6
CONTINUOUS
10
106.8979790000
20
191.8097990000
11
106.8979790000
21
190.4146020000
0
LINE
5
287
100
AcDbEntity
8
025
100
AcDbLine
62
7
6
CONTINUOUS
10
105.6606720000
20
190.8914890000
11
105.8747570000
21
191.0409140000
0
LINE
5
288
100
AcDbEntity
8
025
100
AcDbLine
62
7
6
CONTINUOUS
10
105.8747570000
20
191.0409140000
11
106.0856650000
21
191.1918000000
0
LINE
5
289
100
AcDbEntity
8
025
100
AcDbLine
62
7
6
CONTINUOUS
10
106.0856650000
20
191.1918000000
11
106.2933690000
21
191.3441540000
0
LINE
5
28A
100
AcDbEntity
8
025
100
AcDbLine
62
7
6
CONTINUOUS
10
106.2933690000
20
191.3441540000
11
106.4979510000
21
191.4979500000
0
LINE
5
28B
100
AcDbEntity
8
025
100
AcDbLine
62
7
6
CONTINUOUS
10
106.4979510000
20
191.4979500000
11
106.6994970000
21
191.6531620000
0
LINE
5
28C
100
AcDbEntity
8
025
100
AcDbLine
62
7
6
CONTINUOUS
10
106.6994970000
20
191.6531620000
11
106.8979790000
21
191.8097990000
0
LINE
5
28D
100
AcDbEntity
8
025
100
AcDbLine
62
7
6
CONTINUOUS
10
105.6606720000
20
190.3860050000
11
105.8746610000
21
190.5305400000
0
LINE
5
28E
100
AcDbEntity
8
025
100
AcDbLine
62
7
6
CONTINUOUS
10
105.8746610000
20
190.5305400000
11
106.0855530000
21
190.6764250000
0
LINE
5
28F
100
AcDbEntity
8
025
100
AcDbLine
62
7
6
CONTINUOUS
10
106.0855530000
20
190.6764250000
11
106.2933560000
21
190.8236970000
0
LINE
5
290
100
AcDbEntity
8
025
100
AcDbLine
62
7
6
CONTINUOUS
10
106.2933560000
20
190.8236970000
11
106.4980420000
21
190.9722470000
0
LINE
5
291
100
AcDbEntity
8
025
100
AcDbLine
62
7
6
CONTINUOUS
10
106.4980420000
20
190.9722470000
11
106.6995790000
21
191.1219690000
0
LINE
5
292
100
AcDbEntity
8
025
100
AcDbLine
62
7
6
CONTINUOUS
10
106.6995790000
20
191.1219690000
11
106.8979790000
21
191.2728970000
0
LINE
5
293
100
AcDbEntity
8
025
100
AcDbLine
62
7
6
CONTINUOUS
10
104.2779790000
20
190.7832890000
11
104.2779790000
21
192.4877660000
0
LINE
5
294
100
AcDbEntity
8
025
100
AcDbLine
62
7
6
CONTINUOUS
10
104.2779790000
20
191.9250710000
11
104.4949900000
21
191.6580790000
0
LINE
5
295
100
AcDbEntity
8
025
100
AcDbLine
62
7
6
CONTINUOUS
10
104.4949900000
20
191.6580790000
11
104.7174210000
21
191.3951350000
0
LINE
5
296
100
AcDbEntity
8
025
100
AcDbLine
62
7
6
CONTINUOUS
10
104.7174210000
20
191.3951350000
11
104.9453110000
21
191.1361040000
0
LINE
5
297
100
AcDbEntity
8
025
100
AcDbLine
62
7
6
CONTINUOUS
10
104.9453110000
20
191.1361040000
11
105.1785380000
21
190.8813910000
0
LINE
5
298
100
AcDbEntity
8
025
100
AcDbLine
62
7
6
CONTINUOUS
10
105.1785380000
20
190.8813910000
11
105.4169780000
21
190.6314030000
0
LINE
5
299
100
AcDbEntity
8
025
100
AcDbLine
62
7
6
CONTINUOUS
10
105.4169780000
20
190.6314030000
11
105.6606720000
21
190.3860050000
0
LINE
5
29A
100
AcDbEntity
8
025
100
AcDbLine
62
7
6
CONTINUOUS
10
104.2779790000
20
192.4877660000
11
104.4950120000
21
192.2099250000
0
LINE
5
29B
100
AcDbEntity
8
025
100
AcDbLine
62
7
6
CONTINUOUS
10
104.4950120000
20
192.2099250000
11
104.7174130000
21
191.9367050000
0
LINE
5
29C
100
AcDbEntity
8
025
100
AcDbLine
62
7
6
CONTINUOUS
10
104.7174130000
20
191.9367050000
11
104.9451830000
21
191.6680160000
0
LINE
5
29D
100
AcDbEntity
8
025
100
AcDbLine
62
7
6
CONTINUOUS
10
104.9451830000
20
191.6680160000
11
105.1783170000
21
191.4041290000
0
LINE
5
29E
100
AcDbEntity
8
025
100
AcDbLine
62
7
6
CONTINUOUS
10
105.1783170000
20
191.4041290000
11
105.4168130000
21
191.1453170000
0
LINE
5
29F
100
AcDbEntity
8
025
100
AcDbLine
62
7
6
CONTINUOUS
10
105.4168130000
20
191.1453170000
11
105.6606720000
21
190.8914890000
0
LINE
5
2A0
100
AcDbEntity
8
025
100
AcDbLine
62
7
6
CONTINUOUS
10
105.5689580000
20
186.4780630000
11
106.8979790000
21
186.4362460000
0
LINE
5
2A1
100
AcDbEntity
8
025
100
AcDbLine
62
7
6
CONTINUOUS
10
105.3774670000
20
186.3232640000
11
106.0899320000
21
186.3272920000
0
LINE
5
2A2
100
AcDbEntity
8
025
100
AcDbLine
62
7
6
CONTINUOUS
10
105.5694830000
20
186.3710160000
11
104.9059790000
21
186.3844600000
0
LINE
5
2A3
100
AcDbEntity
8
025
100
AcDbLine
62
7
6
CONTINUOUS
10
105.5851850000
20
186.7482610000
11
104.2779790000
21
186.8256290000
0
LINE
5
2A4
100
AcDbEntity
8
025
100
AcDbLine
62
7
6
CONTINUOUS
10
106.0176410000
20
188.1002590000
11
105.1442270000
21
188.2088530000
0
LINE
5
2A5
100
AcDbEntity
8
025
100
AcDbLine
62
7
6
CONTINUOUS
10
105.1430960000
20
188.7606310000
11
106.0163350000
21
188.6340030000
0
LINE
5
2A6
100
AcDbEntity
8
025
100
AcDbLine
62
7
6
CONTINUOUS
10
106.0156840000
20
188.9947410000
11
105.1422890000
21
189.1331100000
0
LINE
5
2A7
100
AcDbEntity
8
025
100
AcDbLine
62
7
6
CONTINUOUS
10
105.1994130000
20
188.2019330000
11
105.2806910000
21
188.1707250000
0
LINE
5
2A8
100
AcDbEntity
8
025
100
AcDbLine
62
7
6
CONTINUOUS
10
105.2806910000
20
188.1707250000
11
105.3598060000
21
188.1330420000
0
LINE
5
2A9
100
AcDbEntity
8
025
100
AcDbLine
62
7
6
CONTINUOUS
10
105.3598060000
20
188.1330420000
11
105.4325590000
21
188.0911730000
0
LINE
5
2AA
100
AcDbEntity
8
025
100
AcDbLine
62
7
6
CONTINUOUS
10
105.4325590000
20
188.0911730000
11
105.5012200000
21
188.0459380000
0
LINE
5
2AB
100
AcDbEntity
8
025
100
AcDbLine
62
7
6
CONTINUOUS
10
105.5012200000
20
188.0459380000
11
105.5661230000
21
187.9982300000
0
LINE
5
2AC
100
AcDbEntity
8
025
100
AcDbLine
62
7
6
CONTINUOUS
10
105.5661230000
20
187.9982300000
11
105.6322320000
21
187.9486990000
0
LINE
5
2AD
100
AcDbEntity
8
025
100
AcDbLine
62
7
6
CONTINUOUS
10
105.6322320000
20
187.9486990000
11
105.7052590000
21
187.8982790000
0
LINE
5
2AE
100
AcDbEntity
8
025
100
AcDbLine
62
7
6
CONTINUOUS
10
105.7052590000
20
187.8982790000
11
105.7833000000
21
187.8468390000
0
LINE
5
2AF
100
AcDbEntity
8
025
100
AcDbLine
62
7
6
CONTINUOUS
10
104.2862840000
20
187.6840470000
11
104.3107720000
21
187.7148370000
0
LINE
5
2B0
100
AcDbEntity
8
025
100
AcDbLine
62
7
6
CONTINUOUS
10
104.3107720000
20
187.7148370000
11
104.3482680000
21
187.7444080000
0
LINE
5
2B1
100
AcDbEntity
8
025
100
AcDbLine
62
7
6
CONTINUOUS
10
104.3482680000
20
187.7444080000
11
104.3980730000
21
187.7718730000
0
LINE
5
2B2
100
AcDbEntity
8
025
100
AcDbLine
62
7
6
CONTINUOUS
10
104.3980730000
20
187.7718730000
11
104.4606410000
21
187.7959380000
0
LINE
5
2B3
100
AcDbEntity
8
025
100
AcDbLine
62
7
6
CONTINUOUS
10
104.4606410000
20
187.7959380000
11
104.5380350000
21
187.8152870000
0
LINE
5
2B4
100
AcDbEntity
8
025
100
AcDbLine
62
7
6
CONTINUOUS
10
104.5380350000
20
187.8152870000
11
104.6247320000
21
187.8289630000
0
LINE
5
2B5
100
AcDbEntity
8
025
100
AcDbLine
62
7
6
CONTINUOUS
10
104.6247320000
20
187.8289630000
11
104.7160650000
21
187.8353670000
0
LINE
5
2B6
100
AcDbEntity
8
025
100
AcDbLine
62
7
6
CONTINUOUS
10
104.7160650000
20
187.8353670000
11
104.8115310000
21
187.8352070000
0
LINE
5
2B7
100
AcDbEntity
8
025
100
AcDbLine
62
7
6
CONTINUOUS
10
104.8115310000
20
187.8352070000
11
104.9101510000
21
187.8287690000
0
LINE
5
2B8
100
AcDbEntity
8
025
100
AcDbLine
62
7
6
CONTINUOUS
10
104.9101510000
20
187.8287690000
11
105.0086730000
21
187.8159750000
0
LINE
5
2B9
100
AcDbEntity
8
025
100
AcDbLine
62
7
6
CONTINUOUS
10
105.0086730000
20
187.8159750000
11
105.1037280000
21
187.7968910000
0
LINE
5
2BA
100
AcDbEntity
8
025
100
AcDbLine
62
7
6
CONTINUOUS
10
105.1037280000
20
187.7968910000
11
105.1946820000
21
187.7716110000
0
LINE
5
2BB
100
AcDbEntity
8
025
100
AcDbLine
62
7
6
CONTINUOUS
10
105.1946820000
20
187.7716110000
11
105.2796150000
21
187.7398730000
0
LINE
5
2BC
100
AcDbEntity
8
025
100
AcDbLine
62
7
6
CONTINUOUS
10
105.2796150000
20
187.7398730000
11
105.3590120000
21
187.7030410000
0
LINE
5
2BD
100
AcDbEntity
8
025
100
AcDbLine
62
7
6
CONTINUOUS
10
105.3590120000
20
187.7030410000
11
105.4319380000
21
187.6621150000
0
LINE
5
2BE
100
AcDbEntity
8
025
100
AcDbLine
62
7
6
CONTINUOUS
10
105.4319380000
20
187.6621150000
11
105.5007290000
21
187.6178820000
0
LINE
5
2BF
100
AcDbEntity
8
025
100
AcDbLine
62
7
6
CONTINUOUS
10
105.5007290000
20
187.6178820000
11
105.5657520000
21
187.5712060000
0
LINE
5
2C0
100
AcDbEntity
8
025
100
AcDbLine
62
7
6
CONTINUOUS
10
105.5657520000
20
187.5712060000
11
105.6319760000
21
187.5227280000
0
LINE
5
2C1
100
AcDbEntity
8
025
100
AcDbLine
62
7
6
CONTINUOUS
10
105.6319760000
20
187.5227280000
11
105.7051280000
21
187.4733640000
0
LINE
5
2C2
100
AcDbEntity
8
025
100
AcDbLine
62
7
6
CONTINUOUS
10
105.7051280000
20
187.4733640000
11
105.7833000000
21
187.4229870000
0
LINE
5
2C3
100
AcDbEntity
8
025
100
AcDbLine
62
7
6
CONTINUOUS
10
104.2779790000
20
189.9936980000
11
104.4456150000
21
189.9617270000
0
LINE
5
2C4
100
AcDbEntity
8
025
100
AcDbLine
62
7
6
CONTINUOUS
10
104.4456150000
20
189.9617270000
11
105.2902690000
21
189.8034150000
0
LINE
5
2C5
100
AcDbEntity
8
025
100
AcDbLine
62
7
6
CONTINUOUS
10
104.2779790000
20
190.4866540000
11
104.6375810000
21
190.4161970000
0
LINE
5
2C6
100
AcDbEntity
8
025
100
AcDbLine
62
7
6
CONTINUOUS
10
105.2902690000
20
189.8034150000
11
105.1158360000
21
189.9605670000
0
LINE
5
2C7
100
AcDbEntity
8
025
100
AcDbLine
62
7
6
CONTINUOUS
10
105.1158360000
20
189.9605670000
11
104.9436710000
21
190.1202280000
0
LINE
5
2C8
100
AcDbEntity
8
025
100
AcDbLine
62
7
6
CONTINUOUS
10
104.9436710000
20
190.1202280000
11
104.7737540000
21
190.2824400000
0
LINE
5
2C9
100
AcDbEntity
8
025
100
AcDbLine
62
7
6
CONTINUOUS
10
104.7737540000
20
190.2824400000
11
104.6061420000
21
190.4470770000
0
LINE
5
2CA
100
AcDbEntity
8
025
100
AcDbLine
62
7
6
CONTINUOUS
10
104.6061420000
20
190.4470770000
11
104.4408900000
21
190.6140130000
0
LINE
5
2CB
100
AcDbEntity
8
025
100
AcDbLine
62
7
6
CONTINUOUS
10
104.4408900000
20
190.6140130000
11
104.2779790000
21
190.7832890000
0
LINE
5
2CC
100
AcDbEntity
8
025
100
AcDbLine
62
7
6
CONTINUOUS
10
104.2779790000
20
186.6875110000
11
104.9059790000
21
186.6554330000
0
LINE
5
2CD
100
AcDbEntity
8
025
100
AcDbLine
62
7
6
CONTINUOUS
10
104.6979790000
20
187.0754830000
11
105.3259790000
21
187.0283740000
0
LINE
5
2CE
100
AcDbEntity
8
025
100
AcDbLine
62
7
6
CONTINUOUS
10
105.1442270000
20
188.2088530000
11
104.2779790000
21
188.3202100000
0
LINE
5
2CF
100
AcDbEntity
8
025
100
AcDbLine
62
7
6
CONTINUOUS
10
104.2779790000
20
188.8900940000
11
105.1430960000
21
188.7606310000
0
LINE
5
2D0
100
AcDbEntity
8
025
100
AcDbLine
62
7
6
CONTINUOUS
10
105.1422890000
20
189.1331100000
11
104.2779790000
21
189.2742990000
0
LINE
5
2D1
100
AcDbEntity
8
025
100
AcDbLine
62
7
6
CONTINUOUS
10
105.3259790000
20
187.2617860000
11
105.3174370000
21
187.2857530000
0
LINE
5
2D2
100
AcDbEntity
8
025
100
AcDbLine
62
7
6
CONTINUOUS
10
105.3174370000
20
187.2857530000
11
105.3055780000
21
187.3086440000
0
LINE
5
2D3
100
AcDbEntity
8
025
100
AcDbLine
62
7
6
CONTINUOUS
10
105.3055780000
20
187.3086440000
11
105.2912780000
21
187.3305830000
0
LINE
5
2D4
100
AcDbEntity
8
025
100
AcDbLine
62
7
6
CONTINUOUS
10
105.2912780000
20
187.3305830000
11
105.2719030000
21
187.3510150000
0
LINE
5
2D5
100
AcDbEntity
8
025
100
AcDbLine
62
7
6
CONTINUOUS
10
105.2719030000
20
187.3510150000
11
105.2447960000
21
187.3695490000
0
LINE
5
2D6
100
AcDbEntity
8
025
100
AcDbLine
62
7
6
CONTINUOUS
10
105.2447960000
20
187.3695490000
11
105.2109010000
21
187.3857640000
0
LINE
5
2D7
100
AcDbEntity
8
025
100
AcDbLine
62
7
6
CONTINUOUS
10
105.2109010000
20
187.3857640000
11
105.1687400000
21
187.3988700000
0
LINE
5
2D8
100
AcDbEntity
8
025
100
AcDbLine
62
7
6
CONTINUOUS
10
105.1687400000
20
187.3988700000
11
105.1229250000
21
187.4095600000
0
LINE
5
2D9
100
AcDbEntity
8
025
100
AcDbLine
62
7
6
CONTINUOUS
10
105.1229250000
20
187.4095600000
11
105.0777540000
21
187.4182170000
0
LINE
5
2DA
100
AcDbEntity
8
025
100
AcDbLine
62
7
6
CONTINUOUS
10
105.0777540000
20
187.4182170000
11
105.0326910000
21
187.4250700000
0
LINE
5
2DB
100
AcDbEntity
8
025
100
AcDbLine
62
7
6
CONTINUOUS
10
105.0326910000
20
187.4250700000
11
104.9885340000
21
187.4306300000
0
LINE
5
2DC
100
AcDbEntity
8
025
100
AcDbLine
62
7
6
CONTINUOUS
10
104.9885340000
20
187.4306300000
11
104.9455740000
21
187.4344950000
0
LINE
5
2DD
100
AcDbEntity
8
025
100
AcDbLine
62
7
6
CONTINUOUS
10
104.9455740000
20
187.4344950000
11
104.9042860000
21
187.4363900000
0
LINE
5
2DE
100
AcDbEntity
8
025
100
AcDbLine
62
7
6
CONTINUOUS
10
104.9042860000
20
187.4363900000
11
104.8649140000
21
187.4364700000
0
LINE
5
2DF
100
AcDbEntity
8
025
100
AcDbLine
62
7
6
CONTINUOUS
10
104.8649140000
20
187.4364700000
11
104.8277240000
21
187.4347560000
0
LINE
5
2E0
100
AcDbEntity
8
025
100
AcDbLine
62
7
6
CONTINUOUS
10
104.8277240000
20
187.4347560000
11
104.7931190000
21
187.4314090000
0
LINE
5
2E1
100
AcDbEntity
8
025
100
AcDbLine
62
7
6
CONTINUOUS
10
104.7931190000
20
187.4314090000
11
104.7608380000
21
187.4265250000
0
LINE
5
2E2
100
AcDbEntity
8
025
100
AcDbLine
62
7
6
CONTINUOUS
10
104.7608380000
20
187.4265250000
11
104.7331370000
21
187.4203390000
0
LINE
5
2E3
100
AcDbEntity
8
025
100
AcDbLine
62
7
6
CONTINUOUS
10
104.7331370000
20
187.4203390000
11
104.7124550000
21
187.4131420000
0
LINE
5
2E4
100
AcDbEntity
8
025
100
AcDbLine
62
7
6
CONTINUOUS
10
104.7124550000
20
187.4131420000
11
104.6979790000
21
187.4048530000
0
LINE
5
2E5
100
AcDbEntity
8
025
100
AcDbLine
62
7
6
CONTINUOUS
10
104.2779790000
20
187.6225680000
11
104.2747790000
21
187.6437390000
0
LINE
5
2E6
100
AcDbEntity
8
025
100
AcDbLine
62
7
6
CONTINUOUS
10
104.2743950000
20
188.0727430000
11
104.2743950000
21
187.6437390000
0
LINE
5
2E7
100
AcDbEntity
8
025
100
AcDbLine
62
7
6
CONTINUOUS
10
104.2779790000
20
186.3211120000
11
104.2779790000
21
187.6225680000
0
LINE
5
2E8
100
AcDbEntity
8
025
100
AcDbLine
62
7
6
CONTINUOUS
10
104.6979790000
20
187.4048530000
11
104.6979790000
21
187.0754830000
0
LINE
5
2E9
100
AcDbEntity
8
025
100
AcDbLine
62
7
6
CONTINUOUS
10
104.9059790000
20
186.7877180000
11
104.9059790000
21
186.5013700000
0
LINE
5
2EA
100
AcDbEntity
8
025
100
AcDbLine
62
7
6
CONTINUOUS
10
104.9059790000
20
186.3844600000
11
104.9059790000
21
186.3270260000
0
LINE
5
2EB
100
AcDbEntity
8
025
100
AcDbLine
62
7
6
CONTINUOUS
10
105.3259790000
20
187.0283740000
11
105.3259790000
21
187.2617860000
0
LINE
5
2EC
100
AcDbEntity
8
025
100
AcDbLine
62
7
6
CONTINUOUS
10
104.2747990000
20
188.0727430000
11
104.2754580000
21
188.0827930000
0
LINE
5
2ED
100
AcDbEntity
8
025
100
AcDbLine
62
7
6
CONTINUOUS
10
104.2754580000
20
188.0827930000
11
104.2864080000
21
188.1142270000
0
LINE
5
2EE
100
AcDbEntity
8
025
100
AcDbLine
62
7
6
CONTINUOUS
10
104.2864080000
20
188.1142270000
11
104.3110250000
21
188.1458050000
0
LINE
5
2EF
100
AcDbEntity
8
025
100
AcDbLine
62
7
6
CONTINUOUS
10
104.3110250000
20
188.1458050000
11
104.3487200000
21
188.1761180000
0
LINE
5
2F0
100
AcDbEntity
8
025
100
AcDbLine
62
7
6
CONTINUOUS
10
104.2747790000
20
187.6437390000
11
104.2754210000
21
187.6534350000
0
LINE
5
2F1
100
AcDbEntity
8
025
100
AcDbLine
62
7
6
CONTINUOUS
10
104.2754210000
20
187.6534350000
11
104.2862840000
21
187.6840470000
0
LINE
5
2F2
100
AcDbEntity
8
025
100
AcDbLine
62
7
6
CONTINUOUS
10
104.3487200000
20
188.1761180000
11
104.3988490000
21
188.2042960000
0
LINE
5
2F3
100
AcDbEntity
8
025
100
AcDbLine
62
7
6
CONTINUOUS
10
104.3988490000
20
188.2042960000
11
104.4617740000
21
188.2289610000
0
LINE
5
2F4
100
AcDbEntity
8
025
100
AcDbLine
62
7
6
CONTINUOUS
10
104.4617740000
20
188.2289610000
11
104.5395000000
21
188.2487060000
0
LINE
5
2F5
100
AcDbEntity
8
025
100
AcDbLine
62
7
6
CONTINUOUS
10
104.5395000000
20
188.2487060000
11
104.6264600000
21
188.2626020000
0
LINE
5
2F6
100
AcDbEntity
8
025
100
AcDbLine
62
7
6
CONTINUOUS
10
104.6264600000
20
188.2626020000
11
104.6886440000
21
188.2669810000
0
LINE
5
2F7
100
AcDbEntity
8
025
100
AcDbLine
62
7
6
CONTINUOUS
10
104.2779790000
20
188.3202100000
11
104.2779790000
21
190.4866540000
0
LINE
5
2F8
100
AcDbEntity
8
025
100
AcDbLine
62
7
6
CONTINUOUS
10
104.9059790000
20
186.5013700000
11
105.5689580000
21
186.4780630000
0
LINE
5
2F9
100
AcDbEntity
8
025
100
AcDbLine
62
7
6
CONTINUOUS
10
106.1529270000
20
189.6464160000
11
106.8979790000
21
189.5145410000
0
LINE
5
2FA
100
AcDbEntity
8
025
100
AcDbLine
62
7
6
CONTINUOUS
10
105.7833000000
20
189.7131140000
11
106.1529270000
21
189.6464160000
0
LINE
5
2FB
100
AcDbEntity
8
025
100
AcDbLine
62
7
6
CONTINUOUS
10
106.3914090000
20
190.0850030000
11
106.8979790000
21
189.9930630000
0
LINE
5
2FC
100
AcDbEntity
8
025
100
AcDbLine
62
7
6
CONTINUOUS
10
105.6606720000
20
190.8914890000
11
105.6606720000
21
190.3860050000
0
LINE
5
2FD
100
AcDbEntity
8
025
100
AcDbLine
62
7
6
CONTINUOUS
10
106.8979790000
20
190.4146020000
11
106.7173920000
21
190.2948280000
0
LINE
5
2FE
100
AcDbEntity
8
025
100
AcDbLine
62
7
6
CONTINUOUS
10
106.7173920000
20
190.2948280000
11
106.5347140000
21
190.1761740000
0
LINE
5
2FF
100
AcDbEntity
8
025
100
AcDbLine
62
7
6
CONTINUOUS
10
106.5347140000
20
190.1761740000
11
106.3499350000
21
190.0586170000
0
LINE
5
300
100
AcDbEntity
8
025
100
AcDbLine
62
7
6
CONTINUOUS
10
106.3499350000
20
190.0586170000
11
106.1630900000
21
189.9422240000
0
LINE
5
301
100
AcDbEntity
8
025
100
AcDbLine
62
7
6
CONTINUOUS
10
106.1630900000
20
189.9422240000
11
105.9742160000
21
189.8270640000
0
LINE
5
302
100
AcDbEntity
8
025
100
AcDbLine
62
7
6
CONTINUOUS
10
105.9742160000
20
189.8270640000
11
105.7833000000
21
189.7131140000
0
LINE
5
303
100
AcDbEntity
8
025
100
AcDbLine
62
7
6
CONTINUOUS
10
106.8979790000
20
187.2825400000
11
106.7135290000
21
187.2312290000
0
LINE
5
304
100
AcDbEntity
8
025
100
AcDbLine
62
7
6
CONTINUOUS
10
106.7135290000
20
187.2312290000
11
106.5285350000
21
187.1812730000
0
LINE
5
305
100
AcDbEntity
8
025
100
AcDbLine
62
7
6
CONTINUOUS
10
106.5285350000
20
187.1812730000
11
106.3429840000
21
187.1326690000
0
LINE
5
306
100
AcDbEntity
8
025
100
AcDbLine
62
7
6
CONTINUOUS
10
106.3429840000
20
187.1326690000
11
106.1569120000
21
187.0854280000
0
LINE
5
307
100
AcDbEntity
8
025
100
AcDbLine
62
7
6
CONTINUOUS
10
106.1569120000
20
187.0854280000
11
105.9703550000
21
187.0395630000
0
LINE
5
308
100
AcDbEntity
8
025
100
AcDbLine
62
7
6
CONTINUOUS
10
105.9703550000
20
187.0395630000
11
105.7833000000
21
186.9950710000
0
LINE
5
309
100
AcDbEntity
8
025
100
AcDbLine
62
7
6
CONTINUOUS
10
106.8979790000
20
186.6772530000
11
105.5851850000
21
186.7482610000
0
LINE
5
30A
100
AcDbEntity
8
025
100
AcDbLine
62
7
6
CONTINUOUS
10
105.7833000000
20
186.9950710000
11
106.8979790000
21
186.9174180000
0
LINE
5
30B
100
AcDbEntity
8
025
100
AcDbLine
62
7
6
CONTINUOUS
10
106.8979790000
20
187.9944860000
11
106.0176410000
21
188.1002590000
0
LINE
5
30C
100
AcDbEntity
8
025
100
AcDbLine
62
7
6
CONTINUOUS
10
106.0163350000
20
188.6340030000
11
106.8979790000
21
188.5102040000
0
LINE
5
30D
100
AcDbEntity
8
025
100
AcDbLine
62
7
6
CONTINUOUS
10
106.8979790000
20
188.8592620000
11
106.0156840000
21
188.9947410000
0
LINE
5
30E
100
AcDbEntity
8
025
100
AcDbLine
62
7
6
CONTINUOUS
10
105.7833000000
20
187.8468390000
11
105.7833000000
21
187.4229870000
0
LINE
5
30F
100
AcDbEntity
8
025
100
AcDbLine
62
7
6
CONTINUOUS
10
105.9270320000
20
186.3644510000
11
105.9270320000
21
186.3259850000
0
LINE
5
310
100
AcDbEntity
8
025
100
AcDbLine
62
7
6
CONTINUOUS
10
105.7833000000
20
187.8468390000
11
105.9710660000
21
187.9060420000
0
LINE
5
311
100
AcDbEntity
8
025
100
AcDbLine
62
7
6
CONTINUOUS
10
105.9710660000
20
187.9060420000
11
106.1580490000
21
187.9666450000
0
LINE
5
312
100
AcDbEntity
8
025
100
AcDbLine
62
7
6
CONTINUOUS
10
106.1580490000
20
187.9666450000
11
106.3442630000
21
188.0286550000
0
LINE
5
313
100
AcDbEntity
8
025
100
AcDbLine
62
7
6
CONTINUOUS
10
106.3442630000
20
188.0286550000
11
106.4134030000
21
188.0522960000
0
LINE
5
314
100
AcDbEntity
8
025
100
AcDbLine
62
7
6
CONTINUOUS
10
105.7833000000
20
187.4229870000
11
105.9709580000
21
187.4808180000
0
LINE
5
315
100
AcDbEntity
8
025
100
AcDbLine
62
7
6
CONTINUOUS
10
105.9709580000
20
187.4808180000
11
106.1578770000
21
187.5400190000
0
LINE
5
316
100
AcDbEntity
8
025
100
AcDbLine
62
7
6
CONTINUOUS
10
106.1578770000
20
187.5400190000
11
106.3440680000
21
187.6005960000
0
LINE
5
317
100
AcDbEntity
8
025
100
AcDbLine
62
7
6
CONTINUOUS
10
106.3440680000
20
187.6005960000
11
106.5294980000
21
187.6625320000
0
LINE
5
318
100
AcDbEntity
8
025
100
AcDbLine
62
7
6
CONTINUOUS
10
106.5294980000
20
187.6625320000
11
106.7141310000
21
187.7258080000
0
LINE
5
319
100
AcDbEntity
8
025
100
AcDbLine
62
7
6
CONTINUOUS
10
106.7141310000
20
187.7258080000
11
106.8979790000
21
187.7904310000
0
LINE
5
31A
100
AcDbEntity
8
025
100
AcDbLine
62
7
6
CONTINUOUS
10
106.8979790000
20
189.9930630000
11
106.8979790000
21
186.3489200000
0
LINE
5
31B
100
AcDbEntity
8
025
100
AcDbLine
62
7
6
CONTINUOUS
10
167.1278620000
20
223.9517960000
11
167.5755270000
21
225.2602900000
0
LINE
5
31C
100
AcDbEntity
8
025
100
AcDbLine
62
7
6
CONTINUOUS
10
165.5160200000
20
219.3244400000
11
166.1619660000
21
221.1679790000
0
LINE
5
31D
100
AcDbEntity
8
025
100
AcDbLine
62
7
6
CONTINUOUS
10
166.4372440000
20
221.9613600000
11
167.1278620000
21
223.9517960000
0
LINE
5
31E
100
AcDbEntity
8
025
100
AcDbLine
62
7
6
CONTINUOUS
10
169.9765240000
20
228.1127250000
11
169.7308170000
21
228.0980350000
0
LINE
5
31F
100
AcDbEntity
8
025
100
AcDbLine
62
7
6
CONTINUOUS
10
169.7308170000
20
228.0980350000
11
169.4888380000
21
228.0537460000
0
LINE
5
320
100
AcDbEntity
8
025
100
AcDbLine
62
7
6
CONTINUOUS
10
169.4888380000
20
228.0537460000
11
169.2542470000
21
227.9804970000
0
LINE
5
321
100
AcDbEntity
8
025
100
AcDbLine
62
7
6
CONTINUOUS
10
169.2542470000
20
227.9804970000
11
169.0305980000
21
227.8794180000
0
LINE
5
322
100
AcDbEntity
8
025
100
AcDbLine
62
7
6
CONTINUOUS
10
169.0305980000
20
227.8794180000
11
168.8212770000
21
227.7520330000
0
LINE
5
323
100
AcDbEntity
8
025
100
AcDbLine
62
7
6
CONTINUOUS
10
168.8212770000
20
227.7520330000
11
168.6294590000
21
227.6002700000
0
LINE
5
324
100
AcDbEntity
8
025
100
AcDbLine
62
7
6
CONTINUOUS
10
168.6294590000
20
227.6002700000
11
168.4580530000
21
227.4264350000
0
LINE
5
325
100
AcDbEntity
8
025
100
AcDbLine
62
7
6
CONTINUOUS
10
168.4580530000
20
227.4264350000
11
168.3096550000
21
227.2331530000
0
LINE
5
326
100
AcDbEntity
8
025
100
AcDbLine
62
7
6
CONTINUOUS
10
168.3096550000
20
227.2331530000
11
168.1865040000
21
227.0233680000
0
LINE
5
327
100
AcDbEntity
8
025
100
AcDbLine
62
7
6
CONTINUOUS
10
168.1865040000
20
227.0233680000
11
168.0904720000
21
226.8002410000
0
LINE
5
328
100
AcDbEntity
8
025
100
AcDbLine
62
7
6
CONTINUOUS
10
168.1374760000
20
229.7500410000
11
168.1304820000
21
229.2684450000
0
LINE
5
329
100
AcDbEntity
8
025
100
AcDbLine
62
7
6
CONTINUOUS
10
168.1183450000
20
228.4326970000
11
168.0904720000
21
226.8002410000
0
LINE
5
32A
100
AcDbEntity
8
025
100
AcDbLine
62
7
6
CONTINUOUS
10
168.0905090000
20
226.8003860000
11
168.0883700000
21
226.7894080000
0
LINE
5
32B
100
AcDbEntity
8
025
100
AcDbLine
62
7
6
CONTINUOUS
10
168.0883700000
20
226.7894080000
11
168.0858320000
21
226.7772990000
0
LINE
5
32C
100
AcDbEntity
8
025
100
AcDbLine
62
7
6
CONTINUOUS
10
168.0858320000
20
226.7772990000
11
168.0829460000
21
226.7641600000
0
LINE
5
32D
100
AcDbEntity
8
025
100
AcDbLine
62
7
6
CONTINUOUS
10
168.0829460000
20
226.7641600000
11
168.0795380000
21
226.7496720000
0
LINE
5
32E
100
AcDbEntity
8
025
100
AcDbLine
62
7
6
CONTINUOUS
10
168.0795380000
20
226.7496720000
11
168.0754920000
21
226.7336040000
0
LINE
5
32F
100
AcDbEntity
8
025
100
AcDbLine
62
7
6
CONTINUOUS
10
168.0754920000
20
226.7336040000
11
168.0706840000
21
226.7157810000
0
LINE
5
330
100
AcDbEntity
8
025
100
AcDbLine
62
7
6
CONTINUOUS
10
168.0706840000
20
226.7157810000
11
168.0650140000
21
226.6959720000
0
LINE
5
331
100
AcDbEntity
8
025
100
AcDbLine
62
7
6
CONTINUOUS
10
168.0650140000
20
226.6959720000
11
168.0583580000
21
226.6740010000
0
LINE
5
332
100
AcDbEntity
8
025
100
AcDbLine
62
7
6
CONTINUOUS
10
168.0583580000
20
226.6740010000
11
168.0505560000
21
226.6495510000
0
LINE
5
333
100
AcDbEntity
8
025
100
AcDbLine
62
7
6
CONTINUOUS
10
168.0505560000
20
226.6495510000
11
168.0416590000
21
226.6227370000
0
LINE
5
334
100
AcDbEntity
8
025
100
AcDbLine
62
7
6
CONTINUOUS
10
172.5627730000
20
226.1431860000
11
172.5501930000
21
226.3637030000
0
LINE
5
335
100
AcDbEntity
8
025
100
AcDbLine
62
7
6
CONTINUOUS
10
172.5501930000
20
226.3637030000
11
172.5126250000
21
226.5814500000
0
LINE
5
336
100
AcDbEntity
8
025
100
AcDbLine
62
7
6
CONTINUOUS
10
172.5126250000
20
226.5814500000
11
172.4505350000
21
226.7936860000
0
LINE
5
337
100
AcDbEntity
8
025
100
AcDbLine
62
7
6
CONTINUOUS
10
172.4505350000
20
226.7936860000
11
172.3647060000
21
226.9977280000
0
LINE
5
338
100
AcDbEntity
8
025
100
AcDbLine
62
7
6
CONTINUOUS
10
172.3647060000
20
226.9977280000
11
172.2562160000
21
227.1910390000
0
LINE
5
339
100
AcDbEntity
8
025
100
AcDbLine
62
7
6
CONTINUOUS
10
172.2562160000
20
227.1910390000
11
172.1264310000
21
227.3711680000
0
LINE
5
33A
100
AcDbEntity
8
025
100
AcDbLine
62
7
6
CONTINUOUS
10
172.1264310000
20
227.3711680000
11
171.9769810000
21
227.5358520000
0
LINE
5
33B
100
AcDbEntity
8
025
100
AcDbLine
62
7
6
CONTINUOUS
10
171.9769810000
20
227.5358520000
11
171.8097520000
21
227.6830330000
0
LINE
5
33C
100
AcDbEntity
8
025
100
AcDbLine
62
7
6
CONTINUOUS
10
171.8097520000
20
227.6830330000
11
171.6268320000
21
227.8108380000
0
LINE
5
33D
100
AcDbEntity
8
025
100
AcDbLine
62
7
6
CONTINUOUS
10
171.6268320000
20
227.8108380000
11
171.4305400000
21
227.9176740000
0
LINE
5
33E
100
AcDbEntity
8
025
100
AcDbLine
62
7
6
CONTINUOUS
10
171.4305400000
20
227.9176740000
11
171.2233290000
21
228.0021920000
0
LINE
5
33F
100
AcDbEntity
8
025
100
AcDbLine
62
7
6
CONTINUOUS
10
171.2233290000
20
228.0021920000
11
171.0078160000
21
228.0633460000
0
LINE
5
340
100
AcDbEntity
8
025
100
AcDbLine
62
7
6
CONTINUOUS
10
171.0078160000
20
228.0633460000
11
170.7866970000
21
228.1003410000
0
LINE
5
341
100
AcDbEntity
8
025
100
AcDbLine
62
7
6
CONTINUOUS
10
170.7866970000
20
228.1003410000
11
170.5627730000
21
228.1127250000
0
LINE
5
342
100
AcDbEntity
8
025
100
AcDbLine
62
7
6
CONTINUOUS
10
170.5627730000
20
228.1127250000
11
169.9765170000
21
228.1127250000
0
LINE
5
343
100
AcDbEntity
8
025
100
AcDbLine
62
7
6
CONTINUOUS
10
178.1260760000
20
226.6521040000
11
178.1260760000
21
228.5602570000
0
LINE
5
344
100
AcDbEntity
8
025
100
AcDbLine
62
7
6
CONTINUOUS
10
195.9976800000
20
223.9517960000
11
195.3991620000
21
225.7012180000
0
LINE
5
345
100
AcDbEntity
8
025
100
AcDbLine
62
7
6
CONTINUOUS
10
197.6095210000
20
219.3244400000
11
196.9635750000
21
221.1679790000
0
LINE
5
346
100
AcDbEntity
8
025
100
AcDbLine
62
7
6
CONTINUOUS
10
196.7885100000
20
221.6725360000
11
195.9976800000
21
223.9517960000
0
LINE
5
347
100
AcDbEntity
8
025
100
AcDbLine
62
7
6
CONTINUOUS
10
184.9994650000
20
226.6521040000
11
184.9994650000
21
228.5602570000
0
LINE
5
348
100
AcDbEntity
8
025
100
AcDbLine
62
7
6
CONTINUOUS
10
193.1490170000
20
228.1127250000
11
193.3947240000
21
228.0980350000
0
LINE
5
349
100
AcDbEntity
8
025
100
AcDbLine
62
7
6
CONTINUOUS
10
193.3947240000
20
228.0980350000
11
193.6367040000
21
228.0537460000
0
LINE
5
34A
100
AcDbEntity
8
025
100
AcDbLine
62
7
6
CONTINUOUS
10
193.6367040000
20
228.0537460000
11
193.8712940000
21
227.9804970000
0
LINE
5
34B
100
AcDbEntity
8
025
100
AcDbLine
62
7
6
CONTINUOUS
10
193.8712940000
20
227.9804970000
11
194.0949440000
21
227.8794180000
0
LINE
5
34C
100
AcDbEntity
8
025
100
AcDbLine
62
7
6
CONTINUOUS
10
194.0949440000
20
227.8794180000
11
194.3042650000
21
227.7520330000
0
LINE
5
34D
100
AcDbEntity
8
025
100
AcDbLine
62
7
6
CONTINUOUS
10
194.3042650000
20
227.7520330000
11
194.4960820000
21
227.6002700000
0
LINE
5
34E
100
AcDbEntity
8
025
100
AcDbLine
62
7
6
CONTINUOUS
10
194.4960820000
20
227.6002700000
11
194.6674880000
21
227.4264350000
0
LINE
5
34F
100
AcDbEntity
8
025
100
AcDbLine
62
7
6
CONTINUOUS
10
194.6674880000
20
227.4264350000
11
194.8158860000
21
227.2331530000
0
LINE
5
350
100
AcDbEntity
8
025
100
AcDbLine
62
7
6
CONTINUOUS
10
194.8158860000
20
227.2331530000
11
194.9390370000
21
227.0233680000
0
LINE
5
351
100
AcDbEntity
8
025
100
AcDbLine
62
7
6
CONTINUOUS
10
194.9390370000
20
227.0233680000
11
195.0350690000
21
226.8002410000
0
LINE
5
352
100
AcDbEntity
8
025
100
AcDbLine
62
7
6
CONTINUOUS
10
190.5627680000
20
226.1431860000
11
190.5753480000
21
226.3637030000
0
LINE
5
353
100
AcDbEntity
8
025
100
AcDbLine
62
7
6
CONTINUOUS
10
190.5753480000
20
226.3637030000
11
190.6129160000
21
226.5814500000
0
LINE
5
354
100
AcDbEntity
8
025
100
AcDbLine
62
7
6
CONTINUOUS
10
190.6129160000
20
226.5814500000
11
190.6750060000
21
226.7936860000
0
LINE
5
355
100
AcDbEntity
8
025
100
AcDbLine
62
7
6
CONTINUOUS
10
190.6750060000
20
226.7936860000
11
190.7608360000
21
226.9977280000
0
LINE
5
356
100
AcDbEntity
8
025
100
AcDbLine
62
7
6
CONTINUOUS
10
190.7608360000
20
226.9977280000
11
190.8693250000
21
227.1910390000
0
LINE
5
357
100
AcDbEntity
8
025
100
AcDbLine
62
7
6
CONTINUOUS
10
190.8693250000
20
227.1910390000
11
190.9991100000
21
227.3711680000
0
LINE
5
358
100
AcDbEntity
8
025
100
AcDbLine
62
7
6
CONTINUOUS
10
190.9991100000
20
227.3711680000
11
191.1485600000
21
227.5358520000
0
LINE
5
359
100
AcDbEntity
8
025
100
AcDbLine
62
7
6
CONTINUOUS
10
191.1485600000
20
227.5358520000
11
191.3157890000
21
227.6830330000
0
LINE
5
35A
100
AcDbEntity
8
025
100
AcDbLine
62
7
6
CONTINUOUS
10
191.3157890000
20
227.6830330000
11
191.4987100000
21
227.8108380000
0
LINE
5
35B
100
AcDbEntity
8
025
100
AcDbLine
62
7
6
CONTINUOUS
10
191.4987100000
20
227.8108380000
11
191.6950010000
21
227.9176740000
0
LINE
5
35C
100
AcDbEntity
8
025
100
AcDbLine
62
7
6
CONTINUOUS
10
191.6950010000
20
227.9176740000
11
191.9022120000
21
228.0021920000
0
LINE
5
35D
100
AcDbEntity
8
025
100
AcDbLine
62
7
6
CONTINUOUS
10
191.9022120000
20
228.0021920000
11
192.1177250000
21
228.0633460000
0
LINE
5
35E
100
AcDbEntity
8
025
100
AcDbLine
62
7
6
CONTINUOUS
10
192.1177250000
20
228.0633460000
11
192.3388440000
21
228.1003410000
0
LINE
5
35F
100
AcDbEntity
8
025
100
AcDbLine
62
7
6
CONTINUOUS
10
192.3388440000
20
228.1003410000
11
192.5627690000
21
228.1127250000
0
LINE
5
360
100
AcDbEntity
8
025
100
AcDbLine
62
7
6
CONTINUOUS
10
192.5627690000
20
228.1127250000
11
193.1490250000
21
228.1127250000
0
LINE
5
361
100
AcDbEntity
8
025
100
AcDbLine
62
7
6
CONTINUOUS
10
194.9927110000
20
229.4301420000
11
195.0028190000
21
228.7340920000
0
LINE
5
362
100
AcDbEntity
8
025
100
AcDbLine
62
7
6
CONTINUOUS
10
195.0071960000
20
228.4326970000
11
195.0350690000
21
226.8002410000
0
LINE
5
363
100
AcDbEntity
8
025
100
AcDbLine
62
7
6
CONTINUOUS
10
125.7591810000
20
147.7839780000
11
125.7583360000
21
148.9157630000
0
LINE
5
364
100
AcDbEntity
8
025
100
AcDbLine
62
7
6
CONTINUOUS
10
107.2514280000
20
124.6615230000
11
106.9366600000
21
124.6772800000
0
LINE
5
365
100
AcDbEntity
8
025
100
AcDbLine
62
7
6
CONTINUOUS
10
106.9366600000
20
124.6772800000
11
106.6336140000
21
124.7203050000
0
LINE
5
366
100
AcDbEntity
8
025
100
AcDbLine
62
7
6
CONTINUOUS
10
106.6336140000
20
124.7203050000
11
106.3415060000
21
124.7913860000
0
LINE
5
367
100
AcDbEntity
8
025
100
AcDbLine
62
7
6
CONTINUOUS
10
106.3415060000
20
124.7913860000
11
106.0626860000
21
124.8883700000
0
LINE
5
368
100
AcDbEntity
8
025
100
AcDbLine
62
7
6
CONTINUOUS
10
106.0626860000
20
124.8883700000
11
105.7988130000
21
125.0097730000
0
LINE
5
369
100
AcDbEntity
8
025
100
AcDbLine
62
7
6
CONTINUOUS
10
105.7988130000
20
125.0097730000
11
105.5511680000
21
125.1544640000
0
LINE
5
36A
100
AcDbEntity
8
025
100
AcDbLine
62
7
6
CONTINUOUS
10
105.5511680000
20
125.1544640000
11
105.3210530000
21
125.3212710000
0
LINE
5
36B
100
AcDbEntity
8
025
100
AcDbLine
62
7
6
CONTINUOUS
10
105.3210530000
20
125.3212710000
11
105.1100650000
21
125.5088560000
0
LINE
5
36C
100
AcDbEntity
8
025
100
AcDbLine
62
7
6
CONTINUOUS
10
105.1100650000
20
125.5088560000
11
104.9194490000
21
125.7166400000
0
LINE
5
36D
100
AcDbEntity
8
025
100
AcDbLine
62
7
6
CONTINUOUS
10
104.9194490000
20
125.7166400000
11
104.7515640000
21
125.9411270000
0
LINE
5
36E
100
AcDbEntity
8
025
100
AcDbLine
62
7
6
CONTINUOUS
10
104.7515640000
20
125.9411270000
11
104.6090160000
21
126.1799350000
0
LINE
5
36F
100
AcDbEntity
8
025
100
AcDbLine
62
7
6
CONTINUOUS
10
104.6090160000
20
126.1799350000
11
104.4923010000
21
126.4289780000
0
LINE
5
370
100
AcDbEntity
8
025
100
AcDbLine
62
7
6
CONTINUOUS
10
104.4923010000
20
126.4289780000
11
104.4031740000
21
126.6846370000
0
LINE
5
371
100
AcDbEntity
8
025
100
AcDbLine
62
7
6
CONTINUOUS
10
104.4031740000
20
126.6846370000
11
104.3404680000
21
126.9429060000
0
LINE
5
372
100
AcDbEntity
8
025
100
AcDbLine
62
7
6
CONTINUOUS
10
104.3404680000
20
126.9429060000
11
104.3035280000
21
127.1978780000
0
LINE
5
373
100
AcDbEntity
8
025
100
AcDbLine
62
7
6
CONTINUOUS
10
104.3035280000
20
127.1978780000
11
104.2925740000
21
127.4514510000
0
LINE
5
374
100
AcDbEntity
8
025
100
AcDbLine
62
7
6
CONTINUOUS
10
103.9479020000
20
115.9999290000
11
114.6737950000
21
115.9731980000
0
LINE
5
375
100
AcDbEntity
8
025
100
AcDbLine
62
7
6
CONTINUOUS
10
125.4209980000
20
122.3267110000
11
97.9652490000
21
122.3267110000
0
LINE
5
376
100
AcDbEntity
8
025
100
AcDbLine
62
7
6
CONTINUOUS
10
122.9644230000
20
125.2560920000
11
112.6873750000
21
124.7616320000
0
LINE
5
377
100
AcDbEntity
8
025
100
AcDbLine
62
7
6
CONTINUOUS
10
99.2254900000
20
114.5575550000
11
99.1700760000
21
114.3973420000
0
LINE
5
378
100
AcDbEntity
8
025
100
AcDbLine
62
7
6
CONTINUOUS
10
99.1700760000
20
114.3973420000
11
99.1030530000
21
114.2259680000
0
LINE
5
379
100
AcDbEntity
8
025
100
AcDbLine
62
7
6
CONTINUOUS
10
99.1030530000
20
114.2259680000
11
99.0240730000
21
114.0437190000
0
LINE
5
37A
100
AcDbEntity
8
025
100
AcDbLine
62
7
6
CONTINUOUS
10
99.0240730000
20
114.0437190000
11
98.9327560000
21
113.8501170000
0
LINE
5
37B
100
AcDbEntity
8
025
100
AcDbLine
62
7
6
CONTINUOUS
10
98.9327560000
20
113.8501170000
11
98.8289710000
21
113.6445730000
0
LINE
5
37C
100
AcDbEntity
8
025
100
AcDbLine
62
7
6
CONTINUOUS
10
98.8289710000
20
113.6445730000
11
98.7136230000
21
113.4277100000
0
LINE
5
37D
100
AcDbEntity
8
025
100
AcDbLine
62
7
6
CONTINUOUS
10
98.7136230000
20
113.4277100000
11
98.5863870000
21
113.1968740000
0
LINE
5
37E
100
AcDbEntity
8
025
100
AcDbLine
62
7
6
CONTINUOUS
10
98.5863870000
20
113.1968740000
11
98.3227680000
21
112.7269850000
0
LINE
5
37F
100
AcDbEntity
8
025
100
AcDbLine
62
7
6
CONTINUOUS
10
98.3227680000
20
112.7269850000
11
98.1976810000
21
112.4995900000
0
LINE
5
380
100
AcDbEntity
8
025
100
AcDbLine
62
7
6
CONTINUOUS
10
98.1976810000
20
112.4995900000
11
98.0850550000
21
112.2871930000
0
LINE
5
381
100
AcDbEntity
8
025
100
AcDbLine
62
7
6
CONTINUOUS
10
98.0850550000
20
112.2871930000
11
97.9845650000
21
112.0874250000
0
LINE
5
382
100
AcDbEntity
8
025
100
AcDbLine
62
7
6
CONTINUOUS
10
97.9845650000
20
112.0874250000
11
97.9250700000
21
111.9608220000
0
LINE
5
383
100
AcDbEntity
8
025
100
AcDbLine
62
7
6
CONTINUOUS
10
97.5608150000
20
110.5946180000
11
97.5614570000
21
109.9191320000
0
LINE
5
384
100
AcDbEntity
8
025
100
AcDbLine
62
7
6
CONTINUOUS
10
103.9479020000
20
115.9999290000
11
103.8527020000
21
115.9996340000
0
LINE
5
385
100
AcDbEntity
8
025
100
AcDbLine
62
7
6
CONTINUOUS
10
103.8527020000
20
115.9996340000
11
103.7571760000
21
115.9986250000
0
LINE
5
386
100
AcDbEntity
8
025
100
AcDbLine
62
7
6
CONTINUOUS
10
103.7571760000
20
115.9986250000
11
103.6614330000
21
115.9969070000
0
LINE
5
387
100
AcDbEntity
8
025
100
AcDbLine
62
7
6
CONTINUOUS
10
103.6614330000
20
115.9969070000
11
103.5654570000
21
115.9944860000
0
LINE
5
388
100
AcDbEntity
8
025
100
AcDbLine
62
7
6
CONTINUOUS
10
103.5654570000
20
115.9944860000
11
103.4691880000
21
115.9913620000
0
LINE
5
389
100
AcDbEntity
8
025
100
AcDbLine
62
7
6
CONTINUOUS
10
103.4691880000
20
115.9913620000
11
103.3728510000
21
115.9875470000
0
LINE
5
38A
100
AcDbEntity
8
025
100
AcDbLine
62
7
6
CONTINUOUS
10
103.3728510000
20
115.9875470000
11
103.2766590000
21
115.9830550000
0
LINE
5
38B
100
AcDbEntity
8
025
100
AcDbLine
62
7
6
CONTINUOUS
10
103.2766590000
20
115.9830550000
11
103.1805820000
21
115.9778920000
0
LINE
5
38C
100
AcDbEntity
8
025
100
AcDbLine
62
7
6
CONTINUOUS
10
103.1805820000
20
115.9778920000
11
103.0846390000
21
115.9720640000
0
LINE
5
38D
100
AcDbEntity
8
025
100
AcDbLine
62
7
6
CONTINUOUS
10
103.0846390000
20
115.9720640000
11
102.9888930000
21
115.9655790000
0
LINE
5
38E
100
AcDbEntity
8
025
100
AcDbLine
62
7
6
CONTINUOUS
10
102.9888930000
20
115.9655790000
11
102.8933810000
21
115.9584450000
0
LINE
5
38F
100
AcDbEntity
8
025
100
AcDbLine
62
7
6
CONTINUOUS
10
102.8933810000
20
115.9584450000
11
102.7981940000
21
115.9506710000
0
LINE
5
390
100
AcDbEntity
8
025
100
AcDbLine
62
7
6
CONTINUOUS
10
102.7981940000
20
115.9506710000
11
102.7034190000
21
115.9422700000
0
LINE
5
391
100
AcDbEntity
8
025
100
AcDbLine
62
7
6
CONTINUOUS
10
102.7034190000
20
115.9422700000
11
102.6090930000
21
115.9332480000
0
LINE
5
392
100
AcDbEntity
8
025
100
AcDbLine
62
7
6
CONTINUOUS
10
102.6090930000
20
115.9332480000
11
102.5152520000
21
115.9236130000
0
LINE
5
393
100
AcDbEntity
8
025
100
AcDbLine
62
7
6
CONTINUOUS
10
102.5152520000
20
115.9236130000
11
102.4219810000
21
115.9133780000
0
LINE
5
394
100
AcDbEntity
8
025
100
AcDbLine
62
7
6
CONTINUOUS
10
102.4219810000
20
115.9133780000
11
102.3293610000
21
115.9025550000
0
LINE
5
395
100
AcDbEntity
8
025
100
AcDbLine
62
7
6
CONTINUOUS
10
102.3293610000
20
115.9025550000
11
102.2374280000
21
115.8911530000
0
LINE
5
396
100
AcDbEntity
8
025
100
AcDbLine
62
7
6
CONTINUOUS
10
102.2374280000
20
115.8911530000
11
102.1462290000
21
115.8791830000
0
LINE
5
397
100
AcDbEntity
8
025
100
AcDbLine
62
7
6
CONTINUOUS
10
102.1462290000
20
115.8791830000
11
102.0558060000
21
115.8666550000
0
LINE
5
398
100
AcDbEntity
8
025
100
AcDbLine
62
7
6
CONTINUOUS
10
102.0558060000
20
115.8666550000
11
101.9661970000
21
115.8535790000
0
LINE
5
399
100
AcDbEntity
8
025
100
AcDbLine
62
7
6
CONTINUOUS
10
101.9661970000
20
115.8535790000
11
101.8774570000
21
115.8399670000
0
LINE
5
39A
100
AcDbEntity
8
025
100
AcDbLine
62
7
6
CONTINUOUS
10
101.8774570000
20
115.8399670000
11
101.7896420000
21
115.8258320000
0
LINE
5
39B
100
AcDbEntity
8
025
100
AcDbLine
62
7
6
CONTINUOUS
10
101.7896420000
20
115.8258320000
11
101.7027890000
21
115.8111850000
0
LINE
5
39C
100
AcDbEntity
8
025
100
AcDbLine
62
7
6
CONTINUOUS
10
101.7027890000
20
115.8111850000
11
101.6169470000
21
115.7960380000
0
LINE
5
39D
100
AcDbEntity
8
025
100
AcDbLine
62
7
6
CONTINUOUS
10
101.6169470000
20
115.7960380000
11
101.6168650000
21
115.7960230000
0
LINE
5
39E
100
AcDbEntity
8
025
100
AcDbLine
62
7
6
CONTINUOUS
10
99.2694030000
20
114.7099280000
11
99.2625140000
21
114.6836050000
0
LINE
5
39F
100
AcDbEntity
8
025
100
AcDbLine
62
7
6
CONTINUOUS
10
99.2625140000
20
114.6836050000
11
99.2554560000
21
114.6576640000
0
LINE
5
3A0
100
AcDbEntity
8
025
100
AcDbLine
62
7
6
CONTINUOUS
10
99.2554560000
20
114.6576640000
11
99.2482320000
21
114.6321180000
0
LINE
5
3A1
100
AcDbEntity
8
025
100
AcDbLine
62
7
6
CONTINUOUS
10
99.2482320000
20
114.6321180000
11
99.2408320000
21
114.6069320000
0
LINE
5
3A2
100
AcDbEntity
8
025
100
AcDbLine
62
7
6
CONTINUOUS
10
99.2408320000
20
114.6069320000
11
99.2332500000
21
114.5820740000
0
LINE
5
3A3
100
AcDbEntity
8
025
100
AcDbLine
62
7
6
CONTINUOUS
10
99.2332500000
20
114.5820740000
11
99.2254900000
21
114.5575550000
0
LINE
5
3A4
100
AcDbEntity
8
025
100
AcDbLine
62
7
6
CONTINUOUS
10
112.6873750000
20
124.7616320000
11
111.9320900000
21
124.7291840000
0
LINE
5
3A5
100
AcDbEntity
8
025
100
AcDbLine
62
7
6
CONTINUOUS
10
111.9320900000
20
124.7291840000
11
111.1852610000
21
124.7033140000
0
LINE
5
3A6
100
AcDbEntity
8
025
100
AcDbLine
62
7
6
CONTINUOUS
10
111.1852610000
20
124.7033140000
11
110.4454600000
21
124.6842650000
0
LINE
5
3A7
100
AcDbEntity
8
025
100
AcDbLine
62
7
6
CONTINUOUS
10
110.4454600000
20
124.6842650000
11
109.7169720000
21
124.6712850000
0
LINE
5
3A8
100
AcDbEntity
8
025
100
AcDbLine
62
7
6
CONTINUOUS
10
109.7169720000
20
124.6712850000
11
109.0040810000
21
124.6636210000
0
LINE
5
3A9
100
AcDbEntity
8
025
100
AcDbLine
62
7
6
CONTINUOUS
10
109.0040810000
20
124.6636210000
11
107.2514280000
21
124.6615230000
0
LINE
5
3AA
100
AcDbEntity
8
025
100
AcDbLine
62
7
6
CONTINUOUS
10
125.7591810000
20
111.0512630000
11
125.7556570000
21
111.3333450000
0
LINE
5
3AB
100
AcDbEntity
8
025
100
AcDbLine
62
7
6
CONTINUOUS
10
125.7556570000
20
111.3333450000
11
125.7512330000
21
111.4369640000
0
LINE
5
3AC
100
AcDbEntity
8
025
100
AcDbLine
62
7
6
CONTINUOUS
10
125.7583360000
20
109.9194780000
11
125.7591810000
21
111.0512630000
0
LINE
5
3AD
100
AcDbEntity
8
025
100
AcDbLine
62
7
6
CONTINUOUS
10
114.6737950000
20
115.9731980000
11
124.2653490000
21
115.9453240000
0
LINE
5
3AE
100
AcDbEntity
8
025
100
AcDbLine
62
7
6
CONTINUOUS
10
126.1599770000
20
117.5436420000
11
126.1459030000
21
117.3492840000
0
LINE
5
3AF
100
AcDbEntity
8
025
100
AcDbLine
62
7
6
CONTINUOUS
10
126.1459030000
20
117.3492840000
11
126.1428180000
21
117.3350640000
0
LINE
5
3B0
100
AcDbEntity
8
025
100
AcDbLine
62
7
6
CONTINUOUS
10
124.2649440000
20
115.9453550000
11
124.2952120000
21
115.9432190000
0
LINE
5
3B1
100
AcDbEntity
8
025
100
AcDbLine
62
7
6
CONTINUOUS
10
124.2952120000
20
115.9432190000
11
124.3253390000
21
115.9406790000
0
LINE
5
3B2
100
AcDbEntity
8
025
100
AcDbLine
62
7
6
CONTINUOUS
10
124.3253390000
20
115.9406790000
11
124.3556910000
21
115.9377940000
0
LINE
5
3B3
100
AcDbEntity
8
025
100
AcDbLine
62
7
6
CONTINUOUS
10
124.3556910000
20
115.9377940000
11
124.3851670000
21
115.9343870000
0
LINE
5
3B4
100
AcDbEntity
8
025
100
AcDbLine
62
7
6
CONTINUOUS
10
124.3851670000
20
115.9343870000
11
124.4130570000
21
115.9303380000
0
LINE
5
3B5
100
AcDbEntity
8
025
100
AcDbLine
62
7
6
CONTINUOUS
10
124.4130570000
20
115.9303380000
11
124.4385510000
21
115.9255350000
0
LINE
5
3B6
100
AcDbEntity
8
025
100
AcDbLine
62
7
6
CONTINUOUS
10
124.4385510000
20
115.9255350000
11
124.4608630000
21
115.9198640000
0
LINE
5
3B7
100
AcDbEntity
8
025
100
AcDbLine
62
7
6
CONTINUOUS
10
124.4608630000
20
115.9198640000
11
124.4792080000
21
115.9132110000
0
LINE
5
3B8
100
AcDbEntity
8
025
100
AcDbLine
62
7
6
CONTINUOUS
10
124.4792080000
20
115.9132110000
11
124.4924070000
21
115.9054060000
0
LINE
5
3B9
100
AcDbEntity
8
025
100
AcDbLine
62
7
6
CONTINUOUS
10
124.4924070000
20
115.9054060000
11
124.5008540000
21
115.8965060000
0
LINE
5
3BA
100
AcDbEntity
8
025
100
AcDbLine
62
7
6
CONTINUOUS
10
125.7599780000
20
125.4671320000
11
125.1635910000
21
125.4118560000
0
LINE
5
3BB
100
AcDbEntity
8
025
100
AcDbLine
62
7
6
CONTINUOUS
10
125.1635910000
20
125.4118560000
11
124.5858270000
21
125.3633570000
0
LINE
5
3BC
100
AcDbEntity
8
025
100
AcDbLine
62
7
6
CONTINUOUS
10
124.5858270000
20
125.3633570000
11
124.0266600000
21
125.3220150000
0
LINE
5
3BD
100
AcDbEntity
8
025
100
AcDbLine
62
7
6
CONTINUOUS
10
124.0266600000
20
125.3220150000
11
123.4861660000
21
125.2866510000
0
LINE
5
3BE
100
AcDbEntity
8
025
100
AcDbLine
62
7
6
CONTINUOUS
10
123.4861660000
20
125.2866510000
11
122.9644230000
21
125.2560920000
0
LINE
5
3BF
100
AcDbEntity
8
025
100
AcDbLine
62
7
6
CONTINUOUS
10
126.1360070000
20
122.4225700000
11
126.1108560000
21
122.4023290000
0
LINE
5
3C0
100
AcDbEntity
8
025
100
AcDbLine
62
7
6
CONTINUOUS
10
126.1108560000
20
122.4023290000
11
126.0775220000
21
122.3837150000
0
LINE
5
3C1
100
AcDbEntity
8
025
100
AcDbLine
62
7
6
CONTINUOUS
10
126.0775220000
20
122.3837150000
11
126.0367840000
21
122.3671650000
0
LINE
5
3C2
100
AcDbEntity
8
025
100
AcDbLine
62
7
6
CONTINUOUS
10
126.0367840000
20
122.3671650000
11
125.9895910000
21
122.3530630000
0
LINE
5
3C3
100
AcDbEntity
8
025
100
AcDbLine
62
7
6
CONTINUOUS
10
125.9895910000
20
122.3530630000
11
125.9370430000
21
122.3417390000
0
LINE
5
3C4
100
AcDbEntity
8
025
100
AcDbLine
62
7
6
CONTINUOUS
10
125.9370430000
20
122.3417390000
11
125.8803660000
21
122.3334560000
0
LINE
5
3C5
100
AcDbEntity
8
025
100
AcDbLine
62
7
6
CONTINUOUS
10
125.8803660000
20
122.3334560000
11
125.8208820000
21
122.3284070000
0
LINE
5
3C6
100
AcDbEntity
8
025
100
AcDbLine
62
7
6
CONTINUOUS
10
125.8208820000
20
122.3284070000
11
125.7599770000
21
122.3267110000
0
LINE
5
3C7
100
AcDbEntity
8
025
100
AcDbLine
62
7
6
CONTINUOUS
10
107.8256130000
20
132.8543150000
11
122.4157580000
21
132.8543150000
0
LINE
5
3C8
100
AcDbEntity
8
025
100
AcDbLine
62
7
6
CONTINUOUS
10
103.9479050000
20
142.8353110000
11
116.8617760000
21
142.8700160000
0
LINE
5
3C9
100
AcDbEntity
8
025
100
AcDbLine
62
7
6
CONTINUOUS
10
125.5057380000
20
136.5085300000
11
124.4041190000
21
136.5085300000
0
LINE
5
3CA
100
AcDbEntity
8
025
100
AcDbLine
62
7
6
CONTINUOUS
10
112.6873750000
20
134.0736090000
11
114.6515570000
21
133.9791050000
0
LINE
5
3CB
100
AcDbEntity
8
025
100
AcDbLine
62
7
6
CONTINUOUS
10
122.4157580000
20
125.9809260000
11
107.8256130000
21
125.9809260000
0
LINE
5
3CC
100
AcDbEntity
8
025
100
AcDbLine
62
7
6
CONTINUOUS
10
104.2925740000
20
131.3837900000
11
104.3024130000
21
131.6289510000
0
LINE
5
3CD
100
AcDbEntity
8
025
100
AcDbLine
62
7
6
CONTINUOUS
10
104.3024130000
20
131.6289510000
11
104.3378300000
21
131.8782720000
0
LINE
5
3CE
100
AcDbEntity
8
025
100
AcDbLine
62
7
6
CONTINUOUS
10
104.3378300000
20
131.8782720000
11
104.3983770000
21
132.1339150000
0
LINE
5
3CF
100
AcDbEntity
8
025
100
AcDbLine
62
7
6
CONTINUOUS
10
104.3983770000
20
132.1339150000
11
104.4854010000
21
132.3891370000
0
LINE
5
3D0
100
AcDbEntity
8
025
100
AcDbLine
62
7
6
CONTINUOUS
10
104.4854010000
20
132.3891370000
11
104.6007110000
21
132.6393860000
0
LINE
5
3D1
100
AcDbEntity
8
025
100
AcDbLine
62
7
6
CONTINUOUS
10
104.6007110000
20
132.6393860000
11
104.7424700000
21
132.8804470000
0
LINE
5
3D2
100
AcDbEntity
8
025
100
AcDbLine
62
7
6
CONTINUOUS
10
104.7424700000
20
132.8804470000
11
104.9104510000
21
133.1075830000
0
LINE
5
3D3
100
AcDbEntity
8
025
100
AcDbLine
62
7
6
CONTINUOUS
10
104.9104510000
20
133.1075830000
11
105.1016380000
21
133.3180630000
0
LINE
5
3D4
100
AcDbEntity
8
025
100
AcDbLine
62
7
6
CONTINUOUS
10
105.1016380000
20
133.3180630000
11
105.3133060000
21
133.5077410000
0
LINE
5
3D5
100
AcDbEntity
8
025
100
AcDbLine
62
7
6
CONTINUOUS
10
105.3133060000
20
133.5077410000
11
105.5443600000
21
133.6763240000
0
LINE
5
3D6
100
AcDbEntity
8
025
100
AcDbLine
62
7
6
CONTINUOUS
10
105.5443600000
20
133.6763240000
11
105.7931620000
21
133.8225480000
0
LINE
5
3D7
100
AcDbEntity
8
025
100
AcDbLine
62
7
6
CONTINUOUS
10
105.7931620000
20
133.8225480000
11
106.0586180000
21
133.9452290000
0
LINE
5
3D8
100
AcDbEntity
8
025
100
AcDbLine
62
7
6
CONTINUOUS
10
106.0586180000
20
133.9452290000
11
106.3401800000
21
134.0433120000
0
LINE
5
3D9
100
AcDbEntity
8
025
100
AcDbLine
62
7
6
CONTINUOUS
10
106.3401800000
20
134.0433120000
11
106.6345670000
21
134.1151190000
0
LINE
5
3DA
100
AcDbEntity
8
025
100
AcDbLine
62
7
6
CONTINUOUS
10
106.6345670000
20
134.1151190000
11
106.9378840000
21
134.1583030000
0
LINE
5
3DB
100
AcDbEntity
8
025
100
AcDbLine
62
7
6
CONTINUOUS
10
106.9378840000
20
134.1583030000
11
107.2514280000
21
134.1737180000
0
LINE
5
3DC
100
AcDbEntity
8
025
100
AcDbLine
62
7
6
CONTINUOUS
10
104.2925740000
20
127.4514510000
11
104.2925740000
21
131.3837900000
0
LINE
5
3DD
100
AcDbEntity
8
025
100
AcDbLine
62
7
6
CONTINUOUS
10
105.8082310000
20
130.9615860000
11
105.8384650000
21
131.1714530000
0
LINE
5
3DE
100
AcDbEntity
8
025
100
AcDbLine
62
7
6
CONTINUOUS
10
105.8384650000
20
131.1714530000
11
105.8917990000
21
131.3785000000
0
LINE
5
3DF
100
AcDbEntity
8
025
100
AcDbLine
62
7
6
CONTINUOUS
10
105.8917990000
20
131.3785000000
11
105.9667610000
21
131.5801060000
0
LINE
5
3E0
100
AcDbEntity
8
025
100
AcDbLine
62
7
6
CONTINUOUS
10
105.9667610000
20
131.5801060000
11
106.0627400000
21
131.7738830000
0
LINE
5
3E1
100
AcDbEntity
8
025
100
AcDbLine
62
7
6
CONTINUOUS
10
106.0627400000
20
131.7738830000
11
106.1786110000
21
131.9576150000
0
LINE
5
3E2
100
AcDbEntity
8
025
100
AcDbLine
62
7
6
CONTINUOUS
10
106.1786110000
20
131.9576150000
11
106.3129480000
21
132.1289870000
0
LINE
5
3E3
100
AcDbEntity
8
025
100
AcDbLine
62
7
6
CONTINUOUS
10
106.3129480000
20
132.1289870000
11
106.4642700000
21
132.2861390000
0
LINE
5
3E4
100
AcDbEntity
8
025
100
AcDbLine
62
7
6
CONTINUOUS
10
106.4642700000
20
132.2861390000
11
106.6305590000
21
132.4269730000
0
LINE
5
3E5
100
AcDbEntity
8
025
100
AcDbLine
62
7
6
CONTINUOUS
10
106.6305590000
20
132.4269730000
11
106.8102060000
21
132.5500830000
0
LINE
5
3E6
100
AcDbEntity
8
025
100
AcDbLine
62
7
6
CONTINUOUS
10
106.8102060000
20
132.5500830000
11
107.0005100000
21
132.6537090000
0
LINE
5
3E7
100
AcDbEntity
8
025
100
AcDbLine
62
7
6
CONTINUOUS
10
107.0005100000
20
132.6537090000
11
107.1999770000
21
132.7368990000
0
LINE
5
3E8
100
AcDbEntity
8
025
100
AcDbLine
62
7
6
CONTINUOUS
10
107.1999770000
20
132.7368990000
11
107.4052590000
21
132.7984440000
0
LINE
5
3E9
100
AcDbEntity
8
025
100
AcDbLine
62
7
6
CONTINUOUS
10
107.4052590000
20
132.7984440000
11
107.6139050000
21
132.8374880000
0
LINE
5
3EA
100
AcDbEntity
8
025
100
AcDbLine
62
7
6
CONTINUOUS
10
107.6139050000
20
132.8374880000
11
107.8256130000
21
132.8543150000
0
LINE
5
3EB
100
AcDbEntity
8
025
100
AcDbLine
62
7
6
CONTINUOUS
10
105.8082310000
20
127.8736550000
11
105.7997060000
21
128.4485980000
0
LINE
5
3EC
100
AcDbEntity
8
025
100
AcDbLine
62
7
6
CONTINUOUS
10
105.7997060000
20
128.4485980000
11
105.7948310000
21
128.9979210000
0
LINE
5
3ED
100
AcDbEntity
8
025
100
AcDbLine
62
7
6
CONTINUOUS
10
105.7948310000
20
128.9979210000
11
105.7938060000
21
129.5215720000
0
LINE
5
3EE
100
AcDbEntity
8
025
100
AcDbLine
62
7
6
CONTINUOUS
10
105.7938060000
20
129.5215720000
11
105.7959800000
21
130.0222180000
0
LINE
5
3EF
100
AcDbEntity
8
025
100
AcDbLine
62
7
6
CONTINUOUS
10
105.7959800000
20
130.0222180000
11
105.8007130000
21
130.5023080000
0
LINE
5
3F0
100
AcDbEntity
8
025
100
AcDbLine
62
7
6
CONTINUOUS
10
105.8007130000
20
130.5023080000
11
105.8082310000
21
130.9615860000
0
LINE
5
3F1
100
AcDbEntity
8
025
100
AcDbLine
62
7
6
CONTINUOUS
10
107.8256130000
20
125.9809260000
11
107.6147930000
21
125.9971910000
0
LINE
5
3F2
100
AcDbEntity
8
025
100
AcDbLine
62
7
6
CONTINUOUS
10
107.6147930000
20
125.9971910000
11
107.4052590000
21
126.0367970000
0
LINE
5
3F3
100
AcDbEntity
8
025
100
AcDbLine
62
7
6
CONTINUOUS
10
107.4052590000
20
126.0367970000
11
107.1997020000
21
126.0983850000
0
LINE
5
3F4
100
AcDbEntity
8
025
100
AcDbLine
62
7
6
CONTINUOUS
10
107.1997020000
20
126.0983850000
11
107.0005100000
21
126.1815320000
0
LINE
5
3F5
100
AcDbEntity
8
025
100
AcDbLine
62
7
6
CONTINUOUS
10
107.0005100000
20
126.1815320000
11
106.8100220000
21
126.2852240000
0
LINE
5
3F6
100
AcDbEntity
8
025
100
AcDbLine
62
7
6
CONTINUOUS
10
106.8100220000
20
126.2852240000
11
106.6305590000
21
126.4082680000
0
LINE
5
3F7
100
AcDbEntity
8
025
100
AcDbLine
62
7
6
CONTINUOUS
10
106.6305590000
20
126.4082680000
11
106.4641610000
21
126.5491690000
0
LINE
5
3F8
100
AcDbEntity
8
025
100
AcDbLine
62
7
6
CONTINUOUS
10
106.4641610000
20
126.5491690000
11
106.3129480000
21
126.7062530000
0
LINE
5
3F9
100
AcDbEntity
8
025
100
AcDbLine
62
7
6
CONTINUOUS
10
106.3129480000
20
126.7062530000
11
106.1785200000
21
126.8777460000
0
LINE
5
3FA
100
AcDbEntity
8
025
100
AcDbLine
62
7
6
CONTINUOUS
10
106.1785200000
20
126.8777460000
11
106.0627400000
21
127.0613580000
0
LINE
5
3FB
100
AcDbEntity
8
025
100
AcDbLine
62
7
6
CONTINUOUS
10
106.0627400000
20
127.0613580000
11
105.9666710000
21
127.2554240000
0
LINE
5
3FC
100
AcDbEntity
8
025
100
AcDbLine
62
7
6
CONTINUOUS
10
105.9666710000
20
127.2554240000
11
105.8917990000
21
127.4567410000
0
LINE
5
3FD
100
AcDbEntity
8
025
100
AcDbLine
62
7
6
CONTINUOUS
10
105.8917990000
20
127.4567410000
11
105.8391440000
21
127.6634530000
0
LINE
5
3FE
100
AcDbEntity
8
025
100
AcDbLine
62
7
6
CONTINUOUS
10
105.8391440000
20
127.6634530000
11
105.8082310000
21
127.8736550000
0
LINE
5
3FF
100
AcDbEntity
8
025
100
AcDbLine
62
7
6
CONTINUOUS
10
108.3053590000
20
134.1737180000
11
109.0633440000
21
134.1709320000
0
LINE
5
400
100
AcDbEntity
8
025
100
AcDbLine
62
7
6
CONTINUOUS
10
109.0633440000
20
134.1709320000
11
109.8103730000
21
134.1626030000
0
LINE
5
401
100
AcDbEntity
8
025
100
AcDbLine
62
7
6
CONTINUOUS
10
109.8103730000
20
134.1626030000
11
110.5465410000
21
134.1487410000
0
LINE
5
402
100
AcDbEntity
8
025
100
AcDbLine
62
7
6
CONTINUOUS
10
110.5465410000
20
134.1487410000
11
111.2715590000
21
134.1293060000
0
LINE
5
403
100
AcDbEntity
8
025
100
AcDbLine
62
7
6
CONTINUOUS
10
111.2715590000
20
134.1293060000
11
111.9851390000
21
134.1042600000
0
LINE
5
404
100
AcDbEntity
8
025
100
AcDbLine
62
7
6
CONTINUOUS
10
111.9851390000
20
134.1042600000
11
112.6873750000
21
134.0736090000
0
LINE
5
405
100
AcDbEntity
8
025
100
AcDbLine
62
7
6
CONTINUOUS
10
107.2514280000
20
134.1737180000
11
108.3053590000
21
134.1737180000
0
LINE
5
406
100
AcDbEntity
8
025
100
AcDbLine
62
7
6
CONTINUOUS
10
99.2694030000
20
144.1253130000
11
99.2774030000
21
144.0980790000
0
LINE
5
407
100
AcDbEntity
8
025
100
AcDbLine
62
7
6
CONTINUOUS
10
99.2774030000
20
144.0980790000
11
99.2874060000
21
144.0708960000
0
LINE
5
408
100
AcDbEntity
8
025
100
AcDbLine
62
7
6
CONTINUOUS
10
99.2874060000
20
144.0708960000
11
99.2994050000
21
144.0437780000
0
LINE
5
409
100
AcDbEntity
8
025
100
AcDbLine
62
7
6
CONTINUOUS
10
99.2994050000
20
144.0437780000
11
99.3133960000
21
144.0167220000
0
LINE
5
40A
100
AcDbEntity
8
025
100
AcDbLine
62
7
6
CONTINUOUS
10
99.3133960000
20
144.0167220000
11
99.3293770000
21
143.9897230000
0
LINE
5
40B
100
AcDbEntity
8
025
100
AcDbLine
62
7
6
CONTINUOUS
10
99.3293770000
20
143.9897230000
11
99.3473420000
21
143.9627990000
0
LINE
5
40C
100
AcDbEntity
8
025
100
AcDbLine
62
7
6
CONTINUOUS
10
99.3473420000
20
143.9627990000
11
99.3672880000
21
143.9359600000
0
LINE
5
40D
100
AcDbEntity
8
025
100
AcDbLine
62
7
6
CONTINUOUS
10
99.3672880000
20
143.9359600000
11
99.3892090000
21
143.9092150000
0
LINE
5
40E
100
AcDbEntity
8
025
100
AcDbLine
62
7
6
CONTINUOUS
10
99.3892090000
20
143.9092150000
11
99.4131000000
21
143.8825730000
0
LINE
5
40F
100
AcDbEntity
8
025
100
AcDbLine
62
7
6
CONTINUOUS
10
99.4131000000
20
143.8825730000
11
99.4389520000
21
143.8560420000
0
LINE
5
410
100
AcDbEntity
8
025
100
AcDbLine
62
7
6
CONTINUOUS
10
99.4389520000
20
143.8560420000
11
99.4667550000
21
143.8296340000
0
LINE
5
411
100
AcDbEntity
8
025
100
AcDbLine
62
7
6
CONTINUOUS
10
99.4667550000
20
143.8296340000
11
99.4964960000
21
143.8033590000
0
LINE
5
412
100
AcDbEntity
8
025
100
AcDbLine
62
7
6
CONTINUOUS
10
99.4964960000
20
143.8033590000
11
99.5281560000
21
143.7772300000
0
LINE
5
413
100
AcDbEntity
8
025
100
AcDbLine
62
7
6
CONTINUOUS
10
99.5281560000
20
143.7772300000
11
99.5617250000
21
143.7512510000
0
LINE
5
414
100
AcDbEntity
8
025
100
AcDbLine
62
7
6
CONTINUOUS
10
99.5617250000
20
143.7512510000
11
99.5971950000
21
143.7254260000
0
LINE
5
415
100
AcDbEntity
8
025
100
AcDbLine
62
7
6
CONTINUOUS
10
99.5971950000
20
143.7254260000
11
99.6345480000
21
143.6997670000
0
LINE
5
416
100
AcDbEntity
8
025
100
AcDbLine
62
7
6
CONTINUOUS
10
99.6345480000
20
143.6997670000
11
99.6737720000
21
143.6742820000
0
LINE
5
417
100
AcDbEntity
8
025
100
AcDbLine
62
7
6
CONTINUOUS
10
99.6737720000
20
143.6742820000
11
99.7148470000
21
143.6489820000
0
LINE
5
418
100
AcDbEntity
8
025
100
AcDbLine
62
7
6
CONTINUOUS
10
99.7148470000
20
143.6489820000
11
99.7577500000
21
143.6238790000
0
LINE
5
419
100
AcDbEntity
8
025
100
AcDbLine
62
7
6
CONTINUOUS
10
99.7577500000
20
143.6238790000
11
99.8024740000
21
143.5989790000
0
LINE
5
41A
100
AcDbEntity
8
025
100
AcDbLine
62
7
6
CONTINUOUS
10
99.8024740000
20
143.5989790000
11
99.8490100000
21
143.5742870000
0
LINE
5
41B
100
AcDbEntity
8
025
100
AcDbLine
62
7
6
CONTINUOUS
10
99.8490100000
20
143.5742870000
11
99.8973410000
21
143.5498110000
0
LINE
5
41C
100
AcDbEntity
8
025
100
AcDbLine
62
7
6
CONTINUOUS
10
99.8973410000
20
143.5498110000
11
99.9474600000
21
143.5255590000
0
LINE
5
41D
100
AcDbEntity
8
025
100
AcDbLine
62
7
6
CONTINUOUS
10
99.9474600000
20
143.5255590000
11
99.9993330000
21
143.5015460000
0
LINE
5
41E
100
AcDbEntity
8
025
100
AcDbLine
62
7
6
CONTINUOUS
10
99.9993330000
20
143.5015460000
11
100.0529270000
21
143.4777890000
0
LINE
5
41F
100
AcDbEntity
8
025
100
AcDbLine
62
7
6
CONTINUOUS
10
100.0529270000
20
143.4777890000
11
100.1082250000
21
143.4542940000
0
LINE
5
420
100
AcDbEntity
8
025
100
AcDbLine
62
7
6
CONTINUOUS
10
100.1082250000
20
143.4542940000
11
100.1652130000
21
143.4310690000
0
LINE
5
421
100
AcDbEntity
8
025
100
AcDbLine
62
7
6
CONTINUOUS
10
100.1652130000
20
143.4310690000
11
100.2238510000
21
143.4081270000
0
LINE
5
422
100
AcDbEntity
8
025
100
AcDbLine
62
7
6
CONTINUOUS
10
100.2238510000
20
143.4081270000
11
100.2446860000
21
143.4002970000
0
LINE
5
423
100
AcDbEntity
8
025
100
AcDbLine
62
7
6
CONTINUOUS
10
97.5608150000
20
148.2406230000
11
97.5651010000
21
148.1174540000
0
LINE
5
424
100
AcDbEntity
8
025
100
AcDbLine
62
7
6
CONTINUOUS
10
97.5651010000
20
148.1174540000
11
97.5767020000
21
147.9895690000
0
LINE
5
425
100
AcDbEntity
8
025
100
AcDbLine
62
7
6
CONTINUOUS
10
97.5767020000
20
147.9895690000
11
97.5959740000
21
147.8571190000
0
LINE
5
426
100
AcDbEntity
8
025
100
AcDbLine
62
7
6
CONTINUOUS
10
97.5959740000
20
147.8571190000
11
97.6232860000
21
147.7197070000
0
LINE
5
427
100
AcDbEntity
8
025
100
AcDbLine
62
7
6
CONTINUOUS
10
97.6232860000
20
147.7197070000
11
97.6588870000
21
147.5773890000
0
LINE
5
428
100
AcDbEntity
8
025
100
AcDbLine
62
7
6
CONTINUOUS
10
97.6588870000
20
147.5773890000
11
97.7033360000
21
147.4289330000
0
LINE
5
429
100
AcDbEntity
8
025
100
AcDbLine
62
7
6
CONTINUOUS
10
97.7033360000
20
147.4289330000
11
97.7570710000
21
147.2737680000
0
LINE
5
42A
100
AcDbEntity
8
025
100
AcDbLine
62
7
6
CONTINUOUS
10
97.7570710000
20
147.2737680000
11
97.8210530000
21
147.1099520000
0
LINE
5
42B
100
AcDbEntity
8
025
100
AcDbLine
62
7
6
CONTINUOUS
10
97.8210530000
20
147.1099520000
11
97.8320500000
21
147.0844890000
0
LINE
5
42C
100
AcDbEntity
8
025
100
AcDbLine
62
7
6
CONTINUOUS
10
98.5835230000
20
145.6435000000
11
98.6485880000
21
145.5255070000
0
LINE
5
42D
100
AcDbEntity
8
025
100
AcDbLine
62
7
6
CONTINUOUS
10
99.2254900000
20
144.2776860000
11
99.2332510000
21
144.2531630000
0
LINE
5
42E
100
AcDbEntity
8
025
100
AcDbLine
62
7
6
CONTINUOUS
10
99.2332510000
20
144.2531630000
11
99.2408340000
21
144.2283040000
0
LINE
5
42F
100
AcDbEntity
8
025
100
AcDbLine
62
7
6
CONTINUOUS
10
99.2408340000
20
144.2283040000
11
99.2482320000
21
144.2031200000
0
LINE
5
430
100
AcDbEntity
8
025
100
AcDbLine
62
7
6
CONTINUOUS
10
99.2482320000
20
144.2031200000
11
99.2554560000
21
144.1775770000
0
LINE
5
431
100
AcDbEntity
8
025
100
AcDbLine
62
7
6
CONTINUOUS
10
99.2554560000
20
144.1775770000
11
99.2625140000
21
144.1516370000
0
LINE
5
432
100
AcDbEntity
8
025
100
AcDbLine
62
7
6
CONTINUOUS
10
99.2625140000
20
144.1516370000
11
99.2694030000
21
144.1253130000
0
LINE
5
433
100
AcDbEntity
8
025
100
AcDbLine
62
7
6
CONTINUOUS
10
125.8282650000
20
131.3029950000
11
125.8254690000
21
131.5973180000
0
LINE
5
434
100
AcDbEntity
8
025
100
AcDbLine
62
7
6
CONTINUOUS
10
125.7932730000
20
126.1548140000
11
125.1814650000
21
126.1135300000
0
LINE
5
435
100
AcDbEntity
8
025
100
AcDbLine
62
7
6
CONTINUOUS
10
125.1814650000
20
126.1135300000
11
124.5891210000
21
126.0779140000
0
LINE
5
436
100
AcDbEntity
8
025
100
AcDbLine
62
7
6
CONTINUOUS
10
124.5891210000
20
126.0779140000
11
124.0163080000
21
126.0475220000
0
LINE
5
437
100
AcDbEntity
8
025
100
AcDbLine
62
7
6
CONTINUOUS
10
124.0163080000
20
126.0475220000
11
123.4631050000
21
126.0216020000
0
LINE
5
438
100
AcDbEntity
8
025
100
AcDbLine
62
7
6
CONTINUOUS
10
123.4631050000
20
126.0216020000
11
122.9295780000
21
125.9995100000
0
LINE
5
439
100
AcDbEntity
8
025
100
AcDbLine
62
7
6
CONTINUOUS
10
122.9295780000
20
125.9995100000
11
122.4157580000
21
125.9809260000
0
LINE
5
43A
100
AcDbEntity
8
025
100
AcDbLine
62
7
6
CONTINUOUS
10
122.4157580000
20
132.8543150000
11
122.9300640000
21
132.8357110000
0
LINE
5
43B
100
AcDbEntity
8
025
100
AcDbLine
62
7
6
CONTINUOUS
10
122.9300640000
20
132.8357110000
11
123.4638830000
21
132.8136040000
0
LINE
5
43C
100
AcDbEntity
8
025
100
AcDbLine
62
7
6
CONTINUOUS
10
123.4638830000
20
132.8136040000
11
124.0171830000
21
132.7876750000
0
LINE
5
43D
100
AcDbEntity
8
025
100
AcDbLine
62
7
6
CONTINUOUS
10
124.0171830000
20
132.7876750000
11
124.5898980000
21
132.7572830000
0
LINE
5
43E
100
AcDbEntity
8
025
100
AcDbLine
62
7
6
CONTINUOUS
10
124.5898980000
20
132.7572830000
11
125.1819500000
21
132.7216800000
0
LINE
5
43F
100
AcDbEntity
8
025
100
AcDbLine
62
7
6
CONTINUOUS
10
125.1819500000
20
132.7216800000
11
125.7932730000
21
132.6804270000
0
LINE
5
440
100
AcDbEntity
8
025
100
AcDbLine
62
7
6
CONTINUOUS
10
126.1360070000
20
136.4126710000
11
126.1108560000
21
136.4329120000
0
LINE
5
441
100
AcDbEntity
8
025
100
AcDbLine
62
7
6
CONTINUOUS
10
126.1108560000
20
136.4329120000
11
126.0775220000
21
136.4515250000
0
LINE
5
442
100
AcDbEntity
8
025
100
AcDbLine
62
7
6
CONTINUOUS
10
126.0775220000
20
136.4515250000
11
126.0367840000
21
136.4680760000
0
LINE
5
443
100
AcDbEntity
8
025
100
AcDbLine
62
7
6
CONTINUOUS
10
126.0367840000
20
136.4680760000
11
125.9895910000
21
136.4821780000
0
LINE
5
444
100
AcDbEntity
8
025
100
AcDbLine
62
7
6
CONTINUOUS
10
125.9895910000
20
136.4821780000
11
125.9370430000
21
136.4935020000
0
LINE
5
445
100
AcDbEntity
8
025
100
AcDbLine
62
7
6
CONTINUOUS
10
125.9370430000
20
136.4935020000
11
125.8803660000
21
136.5017850000
0
LINE
5
446
100
AcDbEntity
8
025
100
AcDbLine
62
7
6
CONTINUOUS
10
125.8803660000
20
136.5017850000
11
125.8208820000
21
136.5068340000
0
LINE
5
447
100
AcDbEntity
8
025
100
AcDbLine
62
7
6
CONTINUOUS
10
125.8208820000
20
136.5068340000
11
125.7599770000
21
136.5085300000
0
LINE
5
448
100
AcDbEntity
8
025
100
AcDbLine
62
7
6
CONTINUOUS
10
124.2652020000
20
142.8899010000
11
124.2953100000
21
142.8920250000
0
LINE
5
449
100
AcDbEntity
8
025
100
AcDbLine
62
7
6
CONTINUOUS
10
124.2953100000
20
142.8920250000
11
124.3253410000
21
142.8945580000
0
LINE
5
44A
100
AcDbEntity
8
025
100
AcDbLine
62
7
6
CONTINUOUS
10
124.3253410000
20
142.8945580000
11
124.3556770000
21
142.8974420000
0
LINE
5
44B
100
AcDbEntity
8
025
100
AcDbLine
62
7
6
CONTINUOUS
10
124.3556770000
20
142.8974420000
11
124.3851680000
21
142.9008500000
0
LINE
5
44C
100
AcDbEntity
8
025
100
AcDbLine
62
7
6
CONTINUOUS
10
124.3851680000
20
142.9008500000
11
124.4130580000
21
142.9048990000
0
LINE
5
44D
100
AcDbEntity
8
025
100
AcDbLine
62
7
6
CONTINUOUS
10
124.4130580000
20
142.9048990000
11
124.4385510000
21
142.9097020000
0
LINE
5
44E
100
AcDbEntity
8
025
100
AcDbLine
62
7
6
CONTINUOUS
10
124.4385510000
20
142.9097020000
11
124.4608620000
21
142.9153740000
0
LINE
5
44F
100
AcDbEntity
8
025
100
AcDbLine
62
7
6
CONTINUOUS
10
124.4608620000
20
142.9153740000
11
124.4792070000
21
142.9220270000
0
LINE
5
450
100
AcDbEntity
8
025
100
AcDbLine
62
7
6
CONTINUOUS
10
124.4792070000
20
142.9220270000
11
124.4924060000
21
142.9298320000
0
LINE
5
451
100
AcDbEntity
8
025
100
AcDbLine
62
7
6
CONTINUOUS
10
124.4924060000
20
142.9298320000
11
124.5008520000
21
142.9387320000
0
LINE
5
452
100
AcDbEntity
8
025
100
AcDbLine
62
7
6
CONTINUOUS
10
126.1599770000
20
141.2915940000
11
126.1459030000
21
141.4859520000
0
LINE
5
453
100
AcDbEntity
8
025
100
AcDbLine
62
7
6
CONTINUOUS
10
126.1459030000
20
141.4859520000
11
126.1038770000
21
141.6796990000
0
LINE
5
454
100
AcDbEntity
8
025
100
AcDbLine
62
7
6
CONTINUOUS
10
126.1038770000
20
141.6796990000
11
126.0345320000
21
141.8696300000
0
LINE
5
455
100
AcDbEntity
8
025
100
AcDbLine
62
7
6
CONTINUOUS
10
126.0345320000
20
141.8696300000
11
125.9390050000
21
142.0524860000
0
LINE
5
456
100
AcDbEntity
8
025
100
AcDbLine
62
7
6
CONTINUOUS
10
125.9390050000
20
142.0524860000
11
125.8189170000
21
142.2251340000
0
LINE
5
457
100
AcDbEntity
8
025
100
AcDbLine
62
7
6
CONTINUOUS
10
125.8189170000
20
142.2251340000
11
125.6762540000
21
142.3847110000
0
LINE
5
458
100
AcDbEntity
8
025
100
AcDbLine
62
7
6
CONTINUOUS
10
125.6762540000
20
142.3847110000
11
125.5133950000
21
142.5285470000
0
LINE
5
459
100
AcDbEntity
8
025
100
AcDbLine
62
7
6
CONTINUOUS
10
125.5133950000
20
142.5285470000
11
125.3330560000
21
142.6542380000
0
LINE
5
45A
100
AcDbEntity
8
025
100
AcDbLine
62
7
6
CONTINUOUS
10
125.3330560000
20
142.6542380000
11
125.1382200000
21
142.7596940000
0
LINE
5
45B
100
AcDbEntity
8
025
100
AcDbLine
62
7
6
CONTINUOUS
10
125.1382200000
20
142.7596940000
11
124.9322170000
21
142.8431170000
0
LINE
5
45C
100
AcDbEntity
8
025
100
AcDbLine
62
7
6
CONTINUOUS
10
124.9322170000
20
142.8431170000
11
124.7185820000
21
142.9031110000
0
LINE
5
45D
100
AcDbEntity
8
025
100
AcDbLine
62
7
6
CONTINUOUS
10
124.7185820000
20
142.9031110000
11
124.5008470000
21
142.9387330000
0
LINE
5
45E
100
AcDbEntity
8
025
100
AcDbLine
62
7
6
CONTINUOUS
10
124.5008470000
20
142.9387330000
11
124.5708850000
21
143.0745410000
0
LINE
5
45F
100
AcDbEntity
8
025
100
AcDbLine
62
7
6
CONTINUOUS
10
124.5708850000
20
143.0745410000
11
124.6422630000
21
143.2172530000
0
LINE
5
460
100
AcDbEntity
8
025
100
AcDbLine
62
7
6
CONTINUOUS
10
124.6422630000
20
143.2172530000
11
124.7148590000
21
143.3672790000
0
LINE
5
461
100
AcDbEntity
8
025
100
AcDbLine
62
7
6
CONTINUOUS
10
124.7148590000
20
143.3672790000
11
124.7878590000
21
143.5236120000
0
LINE
5
462
100
AcDbEntity
8
025
100
AcDbLine
62
7
6
CONTINUOUS
10
124.7878590000
20
143.5236120000
11
124.8603780000
21
143.6849540000
0
LINE
5
463
100
AcDbEntity
8
025
100
AcDbLine
62
7
6
CONTINUOUS
10
124.8603780000
20
143.6849540000
11
124.9326770000
21
143.8525220000
0
LINE
5
464
100
AcDbEntity
8
025
100
AcDbLine
62
7
6
CONTINUOUS
10
124.9326770000
20
143.8525220000
11
125.0045190000
21
144.0265440000
0
LINE
5
465
100
AcDbEntity
8
025
100
AcDbLine
62
7
6
CONTINUOUS
10
125.0045190000
20
144.0265440000
11
125.0762030000
21
144.2087180000
0
LINE
5
466
100
AcDbEntity
8
025
100
AcDbLine
62
7
6
CONTINUOUS
10
125.0762030000
20
144.2087180000
11
125.1477200000
21
144.4003130000
0
LINE
5
467
100
AcDbEntity
8
025
100
AcDbLine
62
7
6
CONTINUOUS
10
125.1477200000
20
144.4003130000
11
125.2190450000
21
144.6029340000
0
LINE
5
468
100
AcDbEntity
8
025
100
AcDbLine
62
7
6
CONTINUOUS
10
125.2190450000
20
144.6029340000
11
125.2900500000
21
144.8184120000
0
LINE
5
469
100
AcDbEntity
8
025
100
AcDbLine
62
7
6
CONTINUOUS
10
125.2900500000
20
144.8184120000
11
125.3600530000
21
145.0474260000
0
LINE
5
46A
100
AcDbEntity
8
025
100
AcDbLine
62
7
6
CONTINUOUS
10
125.3600530000
20
145.0474260000
11
125.4286710000
21
145.2922410000
0
LINE
5
46B
100
AcDbEntity
8
025
100
AcDbLine
62
7
6
CONTINUOUS
10
125.4286710000
20
145.2922410000
11
125.4939620000
21
145.5499290000
0
LINE
5
46C
100
AcDbEntity
8
025
100
AcDbLine
62
7
6
CONTINUOUS
10
125.4939620000
20
145.5499290000
11
125.5547320000
21
145.8199460000
0
LINE
5
46D
100
AcDbEntity
8
025
100
AcDbLine
62
7
6
CONTINUOUS
10
125.5547320000
20
145.8199460000
11
125.6089680000
21
146.0971580000
0
LINE
5
46E
100
AcDbEntity
8
025
100
AcDbLine
62
7
6
CONTINUOUS
10
125.6089680000
20
146.0971580000
11
125.6485550000
21
146.3359980000
0
ARC
5
46F
100
AcDbEntity
8
025
100
AcDbCircle
62
7
6
CONTINUOUS
10
122.8619400000
20
225.0243900000
40
2.0000000000
100
AcDbArc
50
9.0847770000
51
80.2980520000
0
LINE
5
470
100
AcDbEntity
8
025
100
AcDbLine
62
7
6
CONTINUOUS
10
124.9649640000
20
224.5255920000
11
124.9783790000
21
224.4386520000
0
LINE
5
471
100
AcDbEntity
8
025
100
AcDbLine
62
7
6
CONTINUOUS
10
124.9783790000
20
224.4386520000
11
125.0506780000
21
223.9518100000
0
LINE
5
472
100
AcDbEntity
8
025
100
AcDbLine
62
7
6
CONTINUOUS
10
125.0506780000
20
223.9518100000
11
125.1225210000
21
223.4475170000
0
LINE
5
473
100
AcDbEntity
8
025
100
AcDbLine
62
7
6
CONTINUOUS
10
125.1225210000
20
223.4475170000
11
125.1274390000
21
223.4113900000
0
LINE
5
474
100
AcDbEntity
8
025
100
AcDbLine
62
7
6
CONTINUOUS
10
120.3955330000
20
227.4750860000
11
122.1788160000
21
227.1702020000
0
LINE
5
475
100
AcDbEntity
8
025
100
AcDbLine
62
7
6
CONTINUOUS
10
97.8724700000
20
214.8541000000
11
97.8750730000
21
214.8817800000
0
LINE
5
476
100
AcDbEntity
8
025
100
AcDbLine
62
7
6
CONTINUOUS
10
97.8750730000
20
214.8817800000
11
97.9390540000
21
215.4843270000
0
LINE
5
477
100
AcDbEntity
8
025
100
AcDbLine
62
7
6
CONTINUOUS
10
97.9390540000
20
215.4843270000
11
98.0143770000
21
216.1248050000
0
LINE
5
478
100
AcDbEntity
8
025
100
AcDbLine
62
7
6
CONTINUOUS
10
98.0143770000
20
216.1248050000
11
98.1015400000
21
216.8053050000
0
LINE
5
479
100
AcDbEntity
8
025
100
AcDbLine
62
7
6
CONTINUOUS
10
98.1015400000
20
216.8053050000
11
98.2011590000
21
217.5305490000
0
LINE
5
47A
100
AcDbEntity
8
025
100
AcDbLine
62
7
6
CONTINUOUS
10
98.2011590000
20
217.5305490000
11
98.2267040000
21
217.7066250000
0
LINE
5
47B
100
AcDbEntity
8
025
100
AcDbLine
62
7
6
CONTINUOUS
10
98.4369660000
20
219.1231550000
11
98.7015250000
21
220.8361740000
0
LINE
5
47C
100
AcDbEntity
8
025
100
AcDbLine
62
7
6
CONTINUOUS
10
69.8857050000
20
221.4790300000
11
69.8857050000
21
218.2612530000
0
LINE
5
47D
100
AcDbEntity
8
025
100
AcDbLine
62
7
6
CONTINUOUS
10
69.8857050000
20
216.1422280000
11
69.8857050000
21
187.6061340000
0
LINE
5
47E
100
AcDbEntity
8
025
100
AcDbLine
62
7
6
CONTINUOUS
10
69.7677030000
20
141.7949140000
11
69.7677030000
21
138.7283590000
0
LINE
5
47F
100
AcDbEntity
8
025
100
AcDbLine
62
7
6
CONTINUOUS
10
69.7677030000
20
136.4284420000
11
69.7677030000
21
111.0713150000
0
LINE
5
480
100
AcDbEntity
8
025
100
AcDbLine
62
7
6
CONTINUOUS
10
98.2205840000
20
146.2940670000
11
98.3189650000
21
146.1150860000
0
LINE
5
481
100
AcDbEntity
8
025
100
AcDbLine
62
7
6
CONTINUOUS
10
98.3189650000
20
146.1150860000
11
98.5835230000
21
145.6435000000
0
LINE
5
482
100
AcDbEntity
8
025
100
AcDbLine
62
7
6
CONTINUOUS
10
98.8088900000
20
145.2284320000
11
98.8284420000
21
145.1916860000
0
LINE
5
483
100
AcDbEntity
8
025
100
AcDbLine
62
7
6
CONTINUOUS
10
98.8284420000
20
145.1916860000
11
98.9327050000
21
144.9852290000
0
LINE
5
484
100
AcDbEntity
8
025
100
AcDbLine
62
7
6
CONTINUOUS
10
98.9327050000
20
144.9852290000
11
99.0241790000
21
144.7912870000
0
LINE
5
485
100
AcDbEntity
8
025
100
AcDbLine
62
7
6
CONTINUOUS
10
99.0241790000
20
144.7912870000
11
99.1031550000
21
144.6090270000
0
LINE
5
486
100
AcDbEntity
8
025
100
AcDbLine
62
7
6
CONTINUOUS
10
99.1031550000
20
144.6090270000
11
99.1701490000
21
144.4377010000
0
LINE
5
487
100
AcDbEntity
8
025
100
AcDbLine
62
7
6
CONTINUOUS
10
99.1701490000
20
144.4377010000
11
99.2254900000
21
144.2776860000
0
LINE
5
488
100
AcDbEntity
8
025
100
AcDbLine
62
7
6
CONTINUOUS
10
125.7450340000
20
147.2531010000
11
125.7556570000
21
147.5018960000
0
LINE
5
489
100
AcDbEntity
8
025
100
AcDbLine
62
7
6
CONTINUOUS
10
125.7556570000
20
147.5018960000
11
125.7591810000
21
147.7839780000
0
LINE
5
48A
100
AcDbEntity
8
025
100
AcDbLine
62
7
6
CONTINUOUS
10
97.6064800000
20
111.0309920000
11
97.5960250000
21
110.9784170000
0
LINE
5
48B
100
AcDbEntity
8
025
100
AcDbLine
62
7
6
CONTINUOUS
10
97.5960250000
20
110.9784170000
11
97.5767420000
21
110.8460070000
0
LINE
5
48C
100
AcDbEntity
8
025
100
AcDbLine
62
7
6
CONTINUOUS
10
97.5767420000
20
110.8460070000
11
97.5651150000
21
110.7180110000
0
LINE
5
48D
100
AcDbEntity
8
025
100
AcDbLine
62
7
6
CONTINUOUS
10
97.5651150000
20
110.7180110000
11
97.5608150000
21
110.5946180000
0
LINE
5
48E
100
AcDbEntity
8
025
100
AcDbLine
62
7
6
CONTINUOUS
10
125.5955730000
20
112.8065510000
11
125.5547350000
21
113.0152830000
0
LINE
5
48F
100
AcDbEntity
8
025
100
AcDbLine
62
7
6
CONTINUOUS
10
125.5547350000
20
113.0152830000
11
125.4939650000
21
113.2853000000
0
LINE
5
490
100
AcDbEntity
8
025
100
AcDbLine
62
7
6
CONTINUOUS
10
125.4939650000
20
113.2853000000
11
125.4286750000
21
113.5429880000
0
LINE
5
491
100
AcDbEntity
8
025
100
AcDbLine
62
7
6
CONTINUOUS
10
125.4286750000
20
113.5429880000
11
125.3600570000
21
113.7878040000
0
LINE
5
492
100
AcDbEntity
8
025
100
AcDbLine
62
7
6
CONTINUOUS
10
125.3600570000
20
113.7878040000
11
125.2900530000
21
114.0168190000
0
LINE
5
493
100
AcDbEntity
8
025
100
AcDbLine
62
7
6
CONTINUOUS
10
125.2900530000
20
114.0168190000
11
125.2190480000
21
114.2322980000
0
LINE
5
494
100
AcDbEntity
8
025
100
AcDbLine
62
7
6
CONTINUOUS
10
125.2190480000
20
114.2322980000
11
125.1477230000
21
114.4349200000
0
LINE
5
495
100
AcDbEntity
8
025
100
AcDbLine
62
7
6
CONTINUOUS
10
125.1477230000
20
114.4349200000
11
125.0762060000
21
114.6265150000
0
LINE
5
496
100
AcDbEntity
8
025
100
AcDbLine
62
7
6
CONTINUOUS
10
125.0762060000
20
114.6265150000
11
125.0045220000
21
114.8086900000
0
LINE
5
497
100
AcDbEntity
8
025
100
AcDbLine
62
7
6
CONTINUOUS
10
125.0045220000
20
114.8086900000
11
124.9326800000
21
114.9827120000
0
LINE
5
498
100
AcDbEntity
8
025
100
AcDbLine
62
7
6
CONTINUOUS
10
124.9326800000
20
114.9827120000
11
124.8603810000
21
115.1502800000
0
LINE
5
499
100
AcDbEntity
8
025
100
AcDbLine
62
7
6
CONTINUOUS
10
124.8603810000
20
115.1502800000
11
124.7878620000
21
115.3116230000
0
LINE
5
49A
100
AcDbEntity
8
025
100
AcDbLine
62
7
6
CONTINUOUS
10
124.7878620000
20
115.3116230000
11
124.7148620000
21
115.4679560000
0
LINE
5
49B
100
AcDbEntity
8
025
100
AcDbLine
62
7
6
CONTINUOUS
10
124.7148620000
20
115.4679560000
11
124.6422650000
21
115.6179830000
0
LINE
5
49C
100
AcDbEntity
8
025
100
AcDbLine
62
7
6
CONTINUOUS
10
124.6422650000
20
115.6179830000
11
124.5708870000
21
115.7606960000
0
LINE
5
49D
100
AcDbEntity
8
025
100
AcDbLine
62
7
6
CONTINUOUS
10
124.5708870000
20
115.7606960000
11
124.5008480000
21
115.8965050000
0
LINE
5
49E
100
AcDbEntity
8
025
100
AcDbLine
62
7
6
CONTINUOUS
10
125.6296470000
20
116.4093640000
11
125.5133950000
21
116.3066900000
0
LINE
5
49F
100
AcDbEntity
8
025
100
AcDbLine
62
7
6
CONTINUOUS
10
125.5133950000
20
116.3066900000
11
125.3330560000
21
116.1810000000
0
LINE
5
4A0
100
AcDbEntity
8
025
100
AcDbLine
62
7
6
CONTINUOUS
10
125.3330560000
20
116.1810000000
11
125.1382210000
21
116.0755430000
0
LINE
5
4A1
100
AcDbEntity
8
025
100
AcDbLine
62
7
6
CONTINUOUS
10
125.1382210000
20
116.0755430000
11
124.9322180000
21
115.9921210000
0
LINE
5
4A2
100
AcDbEntity
8
025
100
AcDbLine
62
7
6
CONTINUOUS
10
124.9322180000
20
115.9921210000
11
124.7185830000
21
115.9321270000
0
LINE
5
4A3
100
AcDbEntity
8
025
100
AcDbLine
62
7
6
CONTINUOUS
10
124.7185830000
20
115.9321270000
11
124.5008480000
21
115.8965050000
0
LINE
5
4A4
100
AcDbEntity
8
025
100
AcDbLine
62
7
6
CONTINUOUS
10
122.9635390000
20
136.5085300000
11
98.1347290000
21
136.5085300000
0
LINE
5
4A5
100
AcDbEntity
8
025
100
AcDbLine
62
7
6
CONTINUOUS
10
124.0691100000
20
133.5100900000
11
124.5865700000
21
133.4718260000
0
LINE
5
4A6
100
AcDbEntity
8
025
100
AcDbLine
62
7
6
CONTINUOUS
10
124.5865700000
20
133.4718260000
11
125.1640560000
21
133.4233470000
0
LINE
5
4A7
100
AcDbEntity
8
025
100
AcDbLine
62
7
6
CONTINUOUS
10
125.1640560000
20
133.4233470000
11
125.7599780000
21
133.3681080000
0
LINE
5
4A8
100
AcDbEntity
8
025
100
AcDbLine
62
7
6
CONTINUOUS
10
120.1631970000
20
133.7139210000
11
122.2085230000
21
133.6155140000
0
LINE
5
4A9
100
AcDbEntity
8
025
100
AcDbLine
62
7
6
CONTINUOUS
10
122.2005820000
20
142.8843640000
11
124.2653520000
21
142.8899130000
0
LINE
5
4AA
100
AcDbEntity
8
025
100
AcDbLine
62
7
6
CONTINUOUS
10
102.2656240000
20
142.9405910000
11
102.3293610000
21
142.9326860000
0
LINE
5
4AB
100
AcDbEntity
8
025
100
AcDbLine
62
7
6
CONTINUOUS
10
102.3293610000
20
142.9326860000
11
102.4219800000
21
142.9218630000
0
LINE
5
4AC
100
AcDbEntity
8
025
100
AcDbLine
62
7
6
CONTINUOUS
10
102.4219800000
20
142.9218630000
11
102.5152510000
21
142.9116280000
0
LINE
5
4AD
100
AcDbEntity
8
025
100
AcDbLine
62
7
6
CONTINUOUS
10
102.5152510000
20
142.9116280000
11
102.6090930000
21
142.9019930000
0
LINE
5
4AE
100
AcDbEntity
8
025
100
AcDbLine
62
7
6
CONTINUOUS
10
102.6090930000
20
142.9019930000
11
102.7034190000
21
142.8929710000
0
LINE
5
4AF
100
AcDbEntity
8
025
100
AcDbLine
62
7
6
CONTINUOUS
10
102.7034190000
20
142.8929710000
11
102.7981940000
21
142.8845700000
0
LINE
5
4B0
100
AcDbEntity
8
025
100
AcDbLine
62
7
6
CONTINUOUS
10
102.7981940000
20
142.8845700000
11
102.8933800000
21
142.8767960000
0
LINE
5
4B1
100
AcDbEntity
8
025
100
AcDbLine
62
7
6
CONTINUOUS
10
102.8933800000
20
142.8767960000
11
102.9888910000
21
142.8696620000
0
LINE
5
4B2
100
AcDbEntity
8
025
100
AcDbLine
62
7
6
CONTINUOUS
10
102.9888910000
20
142.8696620000
11
103.0846390000
21
142.8631770000
0
LINE
5
4B3
100
AcDbEntity
8
025
100
AcDbLine
62
7
6
CONTINUOUS
10
103.0846390000
20
142.8631770000
11
103.1805830000
21
142.8573490000
0
LINE
5
4B4
100
AcDbEntity
8
025
100
AcDbLine
62
7
6
CONTINUOUS
10
103.1805830000
20
142.8573490000
11
103.2766580000
21
142.8521860000
0
LINE
5
4B5
100
AcDbEntity
8
025
100
AcDbLine
62
7
6
CONTINUOUS
10
103.2766580000
20
142.8521860000
11
103.3728480000
21
142.8476940000
0
LINE
5
4B6
100
AcDbEntity
8
025
100
AcDbLine
62
7
6
CONTINUOUS
10
103.3728480000
20
142.8476940000
11
103.4691840000
21
142.8438790000
0
LINE
5
4B7
100
AcDbEntity
8
025
100
AcDbLine
62
7
6
CONTINUOUS
10
103.4691840000
20
142.8438790000
11
103.5654540000
21
142.8407550000
0
LINE
5
4B8
100
AcDbEntity
8
025
100
AcDbLine
62
7
6
CONTINUOUS
10
103.5654540000
20
142.8407550000
11
103.6614450000
21
142.8383340000
0
LINE
5
4B9
100
AcDbEntity
8
025
100
AcDbLine
62
7
6
CONTINUOUS
10
103.6614450000
20
142.8383340000
11
103.7572000000
21
142.8366160000
0
LINE
5
4BA
100
AcDbEntity
8
025
100
AcDbLine
62
7
6
CONTINUOUS
10
103.7572000000
20
142.8366160000
11
103.8527210000
21
142.8356070000
0
LINE
5
4BB
100
AcDbEntity
8
025
100
AcDbLine
62
7
6
CONTINUOUS
10
103.8527210000
20
142.8356070000
11
103.9479050000
21
142.8353120000
0
LINE
5
4BC
100
AcDbEntity
8
025
100
AcDbLine
62
7
6
CONTINUOUS
10
100.5242670000
20
115.5318870000
11
100.4742750000
21
115.5158130000
0
LINE
5
4BD
100
AcDbEntity
8
025
100
AcDbLine
62
7
6
CONTINUOUS
10
100.4742750000
20
115.5158130000
11
100.4093320000
21
115.4941130000
0
LINE
5
4BE
100
AcDbEntity
8
025
100
AcDbLine
62
7
6
CONTINUOUS
10
100.4093320000
20
115.4941130000
11
100.3459350000
21
115.4720930000
0
LINE
5
4BF
100
AcDbEntity
8
025
100
AcDbLine
62
7
6
CONTINUOUS
10
100.3459350000
20
115.4720930000
11
100.2841040000
21
115.4497580000
0
LINE
5
4C0
100
AcDbEntity
8
025
100
AcDbLine
62
7
6
CONTINUOUS
10
100.2841040000
20
115.4497580000
11
100.2238610000
21
115.4271180000
0
LINE
5
4C1
100
AcDbEntity
8
025
100
AcDbLine
62
7
6
CONTINUOUS
10
100.2238610000
20
115.4271180000
11
100.1652220000
21
115.4041760000
0
LINE
5
4C2
100
AcDbEntity
8
025
100
AcDbLine
62
7
6
CONTINUOUS
10
100.1652220000
20
115.4041760000
11
100.1082330000
21
115.3809500000
0
LINE
5
4C3
100
AcDbEntity
8
025
100
AcDbLine
62
7
6
CONTINUOUS
10
100.1082330000
20
115.3809500000
11
100.0529320000
21
115.3574540000
0
LINE
5
4C4
100
AcDbEntity
8
025
100
AcDbLine
62
7
6
CONTINUOUS
10
100.0529320000
20
115.3574540000
11
99.9993370000
21
115.3336960000
0
LINE
5
4C5
100
AcDbEntity
8
025
100
AcDbLine
62
7
6
CONTINUOUS
10
99.9993370000
20
115.3336960000
11
99.9474620000
21
115.3096830000
0
LINE
5
4C6
100
AcDbEntity
8
025
100
AcDbLine
62
7
6
CONTINUOUS
10
99.9474620000
20
115.3096830000
11
99.8973440000
21
115.2854310000
0
LINE
5
4C7
100
AcDbEntity
8
025
100
AcDbLine
62
7
6
CONTINUOUS
10
99.8973440000
20
115.2854310000
11
99.8490140000
21
115.2609560000
0
LINE
5
4C8
100
AcDbEntity
8
025
100
AcDbLine
62
7
6
CONTINUOUS
10
99.8490140000
20
115.2609560000
11
99.8024810000
21
115.2362650000
0
LINE
5
4C9
100
AcDbEntity
8
025
100
AcDbLine
62
7
6
CONTINUOUS
10
99.8024810000
20
115.2362650000
11
99.7577560000
21
115.2113650000
0
LINE
5
4CA
100
AcDbEntity
8
025
100
AcDbLine
62
7
6
CONTINUOUS
10
99.7577560000
20
115.2113650000
11
99.7148520000
21
115.1862630000
0
LINE
5
4CB
100
AcDbEntity
8
025
100
AcDbLine
62
7
6
CONTINUOUS
10
99.7148520000
20
115.1862630000
11
99.6737770000
21
115.1609620000
0
LINE
5
4CC
100
AcDbEntity
8
025
100
AcDbLine
62
7
6
CONTINUOUS
10
99.6737770000
20
115.1609620000
11
99.6345530000
21
115.1354770000
0
LINE
5
4CD
100
AcDbEntity
8
025
100
AcDbLine
62
7
6
CONTINUOUS
10
99.6345530000
20
115.1354770000
11
99.5972000000
21
115.1098180000
0
LINE
5
4CE
100
AcDbEntity
8
025
100
AcDbLine
62
7
6
CONTINUOUS
10
99.5972000000
20
115.1098180000
11
99.5617300000
21
115.0839940000
0
LINE
5
4CF
100
AcDbEntity
8
025
100
AcDbLine
62
7
6
CONTINUOUS
10
99.5617300000
20
115.0839940000
11
99.5281610000
21
115.0580150000
0
LINE
5
4D0
100
AcDbEntity
8
025
100
AcDbLine
62
7
6
CONTINUOUS
10
99.5281610000
20
115.0580150000
11
99.4965020000
21
115.0318870000
0
LINE
5
4D1
100
AcDbEntity
8
025
100
AcDbLine
62
7
6
CONTINUOUS
10
99.4965020000
20
115.0318870000
11
99.4667610000
21
115.0056120000
0
LINE
5
4D2
100
AcDbEntity
8
025
100
AcDbLine
62
7
6
CONTINUOUS
10
99.4667610000
20
115.0056120000
11
99.4389570000
21
114.9792030000
0
LINE
5
4D3
100
AcDbEntity
8
025
100
AcDbLine
62
7
6
CONTINUOUS
10
99.4389570000
20
114.9792030000
11
99.4131030000
21
114.9526720000
0
LINE
5
4D4
100
AcDbEntity
8
025
100
AcDbLine
62
7
6
CONTINUOUS
10
99.4131030000
20
114.9526720000
11
99.3892110000
21
114.9260290000
0
LINE
5
4D5
100
AcDbEntity
8
025
100
AcDbLine
62
7
6
CONTINUOUS
10
99.3892110000
20
114.9260290000
11
99.3672900000
21
114.8992840000
0
LINE
5
4D6
100
AcDbEntity
8
025
100
AcDbLine
62
7
6
CONTINUOUS
10
99.3672900000
20
114.8992840000
11
99.3473450000
21
114.8724450000
0
LINE
5
4D7
100
AcDbEntity
8
025
100
AcDbLine
62
7
6
CONTINUOUS
10
99.3473450000
20
114.8724450000
11
99.3293800000
21
114.8455230000
0
LINE
5
4D8
100
AcDbEntity
8
025
100
AcDbLine
62
7
6
CONTINUOUS
10
99.3293800000
20
114.8455230000
11
99.3133990000
21
114.8185260000
0
LINE
5
4D9
100
AcDbEntity
8
025
100
AcDbLine
62
7
6
CONTINUOUS
10
99.3133990000
20
114.8185260000
11
99.2994090000
21
114.7914700000
0
LINE
5
4DA
100
AcDbEntity
8
025
100
AcDbLine
62
7
6
CONTINUOUS
10
99.2994090000
20
114.7914700000
11
99.2874090000
21
114.7643510000
0
LINE
5
4DB
100
AcDbEntity
8
025
100
AcDbLine
62
7
6
CONTINUOUS
10
99.2874090000
20
114.7643510000
11
99.2774040000
21
114.7371660000
0
LINE
5
4DC
100
AcDbEntity
8
025
100
AcDbLine
62
7
6
CONTINUOUS
10
99.2774040000
20
114.7371660000
11
99.2694030000
21
114.7099280000
0
LINE
5
4DD
100
AcDbEntity
8
MITTE
100
AcDbLine
62
4
6
CENTER
10
9.4501560000
20
129.4176200000
11
155.9763260000
21
129.4176200000
0
LINE
5
4DE
100
AcDbEntity
8
MITTE
100
AcDbLine
62
4
6
CENTER
10
10.6700330000
20
206.2210090000
11
157.1962030000
21
206.2210090000
0
LINE
5
4DF
100
AcDbEntity
8
MITTE
100
AcDbLine
62
4
6
CENTER
10
181.5627710000
20
232.8590530000
11
181.5627710000
21
183.9968880000
0
LINE
5
4E0
100
AcDbEntity
8
MITTE
100
AcDbLine
62
4
6
CENTER
10
159.3331210000
20
206.2210090000
11
203.7655610000
21
206.2210090000
0
LINE
5
4E1
100
AcDbEntity
8
MITTE
100
AcDbLine
62
4
6
CENTER
10
173.4627710000
20
203.3410080000
11
173.4627710000
21
209.1010080000
0
LINE
5
4E2
100
AcDbEntity
8
MITTE
100
AcDbLine
62
4
6
CENTER
10
189.6627710000
20
203.3410080000
11
189.6627710000
21
209.1010080000
0
LINE
5
4E3
100
AcDbEntity
8
MITTE
100
AcDbLine
62
4
6
CENTER
10
184.4427710000
20
198.3210090000
11
178.6827710000
21
198.3210090000
0
LINE
5
4E4
100
AcDbEntity
8
0
100
AcDbLine
62
9
6
CONTINUOUS
10
104.3084390000
20
231.6325060000
11
104.3176510000
21
231.6812570000
0
LINE
5
4E5
100
AcDbEntity
8
0
100
AcDbLine
62
9
6
CONTINUOUS
10
104.3176510000
20
231.6812570000
11
104.3211560000
21
231.6975240000
0
LINE
5
4E6
100
AcDbEntity
8
0
100
AcDbLine
62
9
6
CONTINUOUS
10
166.7030710000
20
225.7806230000
11
166.7027080000
21
225.7752430000
0
LINE
5
4E7
100
AcDbEntity
8
0
100
AcDbLine
62
9
6
CONTINUOUS
10
172.5504100000
20
226.1431280000
11
172.5627880000
21
226.1431860000
0
LINE
5
4E8
100
AcDbEntity
8
0
100
AcDbLine
62
9
6
CONTINUOUS
10
178.1260780000
20
228.5602560000
11
178.1301890000
21
228.5831400000
0
LINE
5
4E9
100
AcDbEntity
8
0
100
AcDbLine
62
9
6
CONTINUOUS
10
184.9950000000
20
228.5843720000
11
184.9994670000
21
228.5602560000
0
LINE
5
4EA
100
AcDbEntity
8
RAHMEN
100
AcDbLine
62
2
6
CONTINUOUS
10
205.0000000000
20
5.0000000000
11
205.0000000000
21
292.0000000000
0
LINE
5
4EB
100
AcDbEntity
8
RAHMEN
100
AcDbLine
62
2
6
CONTINUOUS
10
205.0000000000
20
292.0000000000
11
5.0000000000
21
292.0000000000
0
LINE
5
4EC
100
AcDbEntity
8
RAHMEN
100
AcDbLine
62
2
6
CONTINUOUS
10
5.0000000000
20
292.0000000000
11
5.0000000000
21
5.0000000000
0
LINE
5
4ED
100
AcDbEntity
8
RAHMEN
100
AcDbLine
62
2
6
CONTINUOUS
10
5.0000000000
20
5.0000000000
11
205.0000000000
21
5.0000000000
0
LINE
5
4EE
100
AcDbEntity
8
05
100
AcDbLine
62
2
6
CONTINUOUS
10
154.0000000000
20
5.0000000000
11
154.0000000000
21
51.0000000000
0
LINE
5
4EF
100
AcDbEntity
8
05
100
AcDbLine
62
2
6
CONTINUOUS
10
188.0000000000
20
14.0000000000
11
188.0000000000
21
51.0000000000
0
LINE
5
4F0
100
AcDbEntity
8
05
100
AcDbLine
62
2
6
CONTINUOUS
10
173.0000000000
20
31.0000000000
11
173.0000000000
21
51.0000000000
0
LINE
5
4F1
100
AcDbEntity
8
05
100
AcDbLine
62
2
6
CONTINUOUS
10
72.0000000000
20
46.0000000000
11
113.0000000000
21
46.0000000000
0
LINE
5
4F2
100
AcDbEntity
8
05
100
AcDbLine
62
2
6
CONTINUOUS
10
60.0000000000
20
5.0000000000
11
60.0000000000
21
51.0000000000
0
LINE
5
4F3
100
AcDbEntity
8
05
100
AcDbLine
62
2
6
CONTINUOUS
10
47.0000000000
20
5.0000000000
11
47.0000000000
21
51.0000000000
0
LINE
5
4F4
100
AcDbEntity
8
05
100
AcDbLine
62
2
6
CONTINUOUS
10
5.0000000000
20
11.0000000000
11
72.0000000000
21
11.0000000000
0
LINE
5
4F5
100
AcDbEntity
8
05
100
AcDbLine
62
2
6
CONTINUOUS
10
72.0000000000
20
38.0000000000
11
113.0000000000
21
38.0000000000
0
LINE
5
4F6
100
AcDbEntity
8
05
100
AcDbLine
62
2
6
CONTINUOUS
10
14.0000000000
20
5.0000000000
11
14.0000000000
21
51.0000000000
0
LINE
5
4F7
100
AcDbEntity
8
05
100
AcDbLine
62
2
6
CONTINUOUS
10
72.0000000000
20
5.0000000000
11
72.0000000000
21
51.0000000000
0
LINE
5
4F8
100
AcDbEntity
8
05
100
AcDbLine
62
2
6
CONTINUOUS
10
113.0000000000
20
31.0000000000
11
113.0000000000
21
51.0000000000
0
LINE
5
4F9
100
AcDbEntity
8
05
100
AcDbLine
62
2
6
CONTINUOUS
10
136.0000000000
20
31.0000000000
11
136.0000000000
21
51.0000000000
0
LINE
5
4FA
100
AcDbEntity
8
05
100
AcDbLine
62
2
6
CONTINUOUS
10
205.0000000000
20
5.0000000000
11
205.0000000000
21
51.0000000000
0
LINE
5
4FB
100
AcDbEntity
8
05
100
AcDbLine
62
2
6
CONTINUOUS
10
5.0000000000
20
51.0000000000
11
5.0000000000
21
5.0000000000
0
LINE
5
4FC
100
AcDbEntity
8
05
100
AcDbLine
62
2
6
CONTINUOUS
10
205.0000000000
20
14.0000000000
11
72.0000000000
21
14.0000000000
0
LINE
5
4FD
100
AcDbEntity
8
05
100
AcDbLine
62
2
6
CONTINUOUS
10
205.0000000000
20
23.0000000000
11
154.0000000000
21
23.0000000000
0
LINE
5
4FE
100
AcDbEntity
8
05
100
AcDbLine
62
2
6
CONTINUOUS
10
205.0000000000
20
31.0000000000
11
72.0000000000
21
31.0000000000
0
LINE
5
4FF
100
AcDbEntity
8
05
100
AcDbLine
62
2
6
CONTINUOUS
10
205.0000000000
20
36.0000000000
11
154.0000000000
21
36.0000000000
0
LINE
5
500
100
AcDbEntity
8
05
100
AcDbLine
62
2
6
CONTINUOUS
10
205.0000000000
20
41.0000000000
11
154.0000000000
21
41.0000000000
0
LINE
5
501
100
AcDbEntity
8
05
100
AcDbLine
62
2
6
CONTINUOUS
10
205.0000000000
20
46.0000000000
11
154.0000000000
21
46.0000000000
0
LINE
5
502
100
AcDbEntity
8
05
100
AcDbLine
62
2
6
CONTINUOUS
10
205.0000000000
20
51.0000000000
11
5.0000000000
21
51.0000000000
0
LINE
5
503
100
AcDbEntity
8
05
100
AcDbLine
62
2
6
CONTINUOUS
10
70.9926600000
20
109.3054510000
11
84.9805370000
21
109.3054510000
0
LINE
5
504
100
AcDbEntity
8
05
100
AcDbLine
62
2
6
CONTINUOUS
10
70.9926600000
20
149.2708150000
11
84.9805370000
21
149.2708150000
0
ARC
5
505
100
AcDbEntity
8
05
100
AcDbCircle
62
2
6
CONTINUOUS
10
51.4044360000
20
112.9920440000
40
0.5994800000
100
AcDbArc
50
262.0000000000
51
360.0000000000
0
ARC
5
506
100
AcDbEntity
8
05
100
AcDbCircle
62
2
6
CONTINUOUS
10
52.4035700000
20
112.6766880000
40
0.3996540000
100
AcDbArc
50
180.0000000000
51
258.0000000000
0
LINE
5
507
100
AcDbEntity
8
05
100
AcDbLine
62
2
6
CONTINUOUS
10
52.3204780000
20
112.2857680000
11
68.1104330000
21
109.4793100000
0
LINE
5
508
100
AcDbEntity
8
05
100
AcDbLine
62
2
6
CONTINUOUS
10
70.9926600000
20
149.2708150000
11
70.9926600000
21
109.3054510000
0
LINE
5
509
100
AcDbEntity
8
05
100
AcDbLine
62
2
6
CONTINUOUS
10
68.8182140000
20
109.4793100000
11
68.1104330000
21
109.4793100000
0
LINE
5
50A
100
AcDbEntity
8
05
100
AcDbLine
62
2
6
CONTINUOUS
10
69.5418810000
20
110.3045850000
11
69.9935260000
21
110.3045850000
0
LINE
5
50B
100
AcDbEntity
8
05
100
AcDbLine
62
2
6
CONTINUOUS
10
69.5418810000
20
110.3045850000
11
68.8182140000
21
109.4793100000
0
LINE
5
50C
100
AcDbEntity
8
05
100
AcDbLine
62
2
6
CONTINUOUS
10
69.9935260000
20
110.3045850000
11
70.9926600000
21
109.3054510000
0
ARC
5
50D
100
AcDbEntity
8
05
100
AcDbCircle
62
2
6
CONTINUOUS
10
41.0134420000
20
115.6368220000
40
0.9991340000
100
AcDbArc
50
0.0000000000
51
180.0000000000
0
ARC
5
50E
100
AcDbEntity
8
05
100
AcDbCircle
62
2
6
CONTINUOUS
10
41.0134420000
20
142.9394430000
40
0.9991340000
100
AcDbArc
50
180.0000000000
51
360.0000000000
0
LINE
5
50F
100
AcDbEntity
8
05
100
AcDbLine
62
2
6
CONTINUOUS
10
12.0385530000
20
136.4021060000
11
12.0385530000
21
129.2881330000
0
ARC
5
510
100
AcDbEntity
8
05
100
AcDbCircle
62
2
6
CONTINUOUS
10
25.0272960000
20
117.8835290000
40
0.9991340000
100
AcDbArc
50
0.0000000000
51
180.0000000000
0
LINE
5
511
100
AcDbEntity
8
05
100
AcDbLine
62
2
6
CONTINUOUS
10
12.0385530000
20
122.1741600000
11
12.0385530000
21
129.2881330000
0
LINE
5
512
100
AcDbEntity
8
05
100
AcDbLine
62
2
6
CONTINUOUS
10
20.0316260000
20
118.4452050000
11
14.6187980000
21
119.2059290000
0
ARC
5
513
100
AcDbEntity
8
05
100
AcDbCircle
62
2
6
CONTINUOUS
10
15.0359550000
20
122.1741600000
40
2.9974020000
100
AcDbArc
50
180.0000000000
51
262.0000000000
0
ARC
5
514
100
AcDbEntity
8
05
100
AcDbCircle
62
2
6
CONTINUOUS
10
21.0307600000
20
118.4452050000
40
0.9991340000
100
AcDbArc
50
0.0000000000
51
180.0000000000
0
ARC
5
515
100
AcDbEntity
8
05
100
AcDbCircle
62
2
6
CONTINUOUS
10
23.0290280000
20
117.8835290000
40
0.9991340000
100
AcDbArc
50
180.0000000000
51
360.0000000000
0
ARC
5
516
100
AcDbEntity
8
05
100
AcDbCircle
62
2
6
CONTINUOUS
10
33.0203690000
20
116.7601760000
40
0.9991340000
100
AcDbArc
50
0.0000000000
51
180.0000000000
0
ARC
5
517
100
AcDbEntity
8
05
100
AcDbCircle
62
2
6
CONTINUOUS
10
29.0238330000
20
117.3218520000
40
0.9991340000
100
AcDbArc
50
0.0000000000
51
180.0000000000
0
ARC
5
518
100
AcDbEntity
8
05
100
AcDbCircle
62
2
6
CONTINUOUS
10
27.0255640000
20
117.3218520000
40
0.9991340000
100
AcDbArc
50
180.0000000000
51
360.0000000000
0
ARC
5
519
100
AcDbEntity
8
05
100
AcDbCircle
62
2
6
CONTINUOUS
10
31.0221010000
20
116.7601760000
40
0.9991340000
100
AcDbArc
50
180.0000000000
51
360.0000000000
0
ARC
5
51A
100
AcDbEntity
8
05
100
AcDbCircle
62
2
6
CONTINUOUS
10
37.0169050000
20
116.1984990000
40
0.9991340000
100
AcDbArc
50
0.0000000000
51
180.0000000000
0
ARC
5
51B
100
AcDbEntity
8
05
100
AcDbCircle
62
2
6
CONTINUOUS
10
35.0186370000
20
116.1984990000
40
0.9991340000
100
AcDbArc
50
180.0000000000
51
360.0000000000
0
ARC
5
51C
100
AcDbEntity
8
05
100
AcDbCircle
62
2
6
CONTINUOUS
10
39.0151730000
20
115.6368220000
40
0.9991340000
100
AcDbArc
50
180.0000000000
51
360.0000000000
0
ARC
5
51D
100
AcDbEntity
8
05
100
AcDbCircle
62
2
6
CONTINUOUS
10
25.0272960000
20
140.6927370000
40
0.9991340000
100
AcDbArc
50
180.0000000000
51
360.0000000000
0
LINE
5
51E
100
AcDbEntity
8
05
100
AcDbLine
62
2
6
CONTINUOUS
10
20.0316260000
20
140.1310610000
11
14.6187980000
21
139.3703370000
0
ARC
5
51F
100
AcDbEntity
8
05
100
AcDbCircle
62
2
6
CONTINUOUS
10
15.0359550000
20
136.4021060000
40
2.9974020000
100
AcDbArc
50
98.0000000000
51
180.0000000000
0
ARC
5
520
100
AcDbEntity
8
05
100
AcDbCircle
62
2
6
CONTINUOUS
10
21.0307600000
20
140.1310610000
40
0.9991340000
100
AcDbArc
50
180.0000000000
51
360.0000000000
0
ARC
5
521
100
AcDbEntity
8
05
100
AcDbCircle
62
2
6
CONTINUOUS
10
23.0290280000
20
140.6927370000
40
0.9991340000
100
AcDbArc
50
0.0000000000
51
180.0000000000
0
ARC
5
522
100
AcDbEntity
8
05
100
AcDbCircle
62
2
6
CONTINUOUS
10
33.0203690000
20
141.8160900000
40
0.9991340000
100
AcDbArc
50
180.0000000000
51
360.0000000000
0
ARC
5
523
100
AcDbEntity
8
05
100
AcDbCircle
62
2
6
CONTINUOUS
10
29.0238330000
20
141.2544140000
40
0.9991340000
100
AcDbArc
50
180.0000000000
51
360.0000000000
0
ARC
5
524
100
AcDbEntity
8
05
100
AcDbCircle
62
2
6
CONTINUOUS
10
27.0255640000
20
141.2544140000
40
0.9991340000
100
AcDbArc
50
0.0000000000
51
180.0000000000
0
ARC
5
525
100
AcDbEntity
8
05
100
AcDbCircle
62
2
6
CONTINUOUS
10
31.0221010000
20
141.8160900000
40
0.9991340000
100
AcDbArc
50
0.0000000000
51
180.0000000000
0
ARC
5
526
100
AcDbEntity
8
05
100
AcDbCircle
62
2
6
CONTINUOUS
10
37.0169050000
20
142.3777670000
40
0.9991340000
100
AcDbArc
50
180.0000000000
51
360.0000000000
0
ARC
5
527
100
AcDbEntity
8
05
100
AcDbCircle
62
2
6
CONTINUOUS
10
35.0186370000
20
142.3777670000
40
0.9991340000
100
AcDbArc
50
0.0000000000
51
180.0000000000
0
ARC
5
528
100
AcDbEntity
8
05
100
AcDbCircle
62
2
6
CONTINUOUS
10
39.0151730000
20
142.9394430000
40
0.9991340000
100
AcDbArc
50
0.0000000000
51
180.0000000000
0
LINE
5
529
100
AcDbEntity
8
05
100
AcDbLine
62
2
6
CONTINUOUS
10
52.0039170000
20
145.9567230000
11
52.0039170000
21
129.2881330000
0
LINE
5
52A
100
AcDbEntity
8
05
100
AcDbLine
62
2
6
CONTINUOUS
10
52.0039170000
20
145.9264320000
11
52.0039170000
21
129.2881330000
0
LINE
5
52B
100
AcDbEntity
8
05
100
AcDbLine
62
2
6
CONTINUOUS
10
52.0039170000
20
145.5842220000
11
52.0039170000
21
129.2881330000
0
LINE
5
52C
100
AcDbEntity
8
05
100
AcDbLine
62
2
6
CONTINUOUS
10
52.0039170000
20
145.8995770000
11
52.0039170000
21
129.2881330000
0
LINE
5
52D
100
AcDbEntity
8
05
100
AcDbLine
62
2
6
CONTINUOUS
10
52.0039170000
20
112.6498340000
11
52.0039170000
21
129.2881330000
0
LINE
5
52E
100
AcDbEntity
8
05
100
AcDbLine
62
2
6
CONTINUOUS
10
52.0039170000
20
112.9920440000
11
52.0039170000
21
129.2881330000
0
LINE
5
52F
100
AcDbEntity
8
05
100
AcDbLine
62
2
6
CONTINUOUS
10
52.0039170000
20
112.6766880000
11
52.0039170000
21
129.2881330000
0
LINE
5
530
100
AcDbEntity
8
05
100
AcDbLine
62
2
6
CONTINUOUS
10
46.8691940000
20
113.5240590000
11
51.3210050000
21
112.3983980000
0
ARC
5
531
100
AcDbEntity
8
05
100
AcDbCircle
62
2
6
CONTINUOUS
10
45.0099780000
20
115.0751460000
40
0.9991340000
100
AcDbArc
50
0.0000000000
51
180.0000000000
0
ARC
5
532
100
AcDbEntity
8
05
100
AcDbCircle
62
2
6
CONTINUOUS
10
43.0117100000
20
115.0751460000
40
0.9991340000
100
AcDbArc
50
180.0000000000
51
360.0000000000
0
ARC
5
533
100
AcDbEntity
8
05
100
AcDbCircle
62
2
6
CONTINUOUS
10
47.0082460000
20
114.5134690000
40
0.9991340000
100
AcDbArc
50
180.0000000000
51
262.0000000000
0
LINE
5
534
100
AcDbEntity
8
05
100
AcDbLine
62
2
6
CONTINUOUS
10
52.3204780000
20
146.2904980000
11
68.1104330000
21
149.0969560000
0
ARC
5
535
100
AcDbEntity
8
05
100
AcDbCircle
62
2
6
CONTINUOUS
10
51.4044360000
20
145.5842220000
40
0.5994800000
100
AcDbArc
50
0.0000000000
51
98.0000000000
0
LINE
5
536
100
AcDbEntity
8
05
100
AcDbLine
62
2
6
CONTINUOUS
10
46.8691940000
20
145.0522070000
11
51.3210050000
21
146.1778680000
0
ARC
5
537
100
AcDbEntity
8
05
100
AcDbCircle
62
2
6
CONTINUOUS
10
52.4035700000
20
145.8995770000
40
0.3996540000
100
AcDbArc
50
102.0000000000
51
180.0000000000
0
ARC
5
538
100
AcDbEntity
8
05
100
AcDbCircle
62
2
6
CONTINUOUS
10
45.0099780000
20
143.5011200000
40
0.9991340000
100
AcDbArc
50
180.0000000000
51
360.0000000000
0
ARC
5
539
100
AcDbEntity
8
05
100
AcDbCircle
62
2
6
CONTINUOUS
10
43.0117100000
20
143.5011200000
40
0.9991340000
100
AcDbArc
50
0.0000000000
51
180.0000000000
0
ARC
5
53A
100
AcDbEntity
8
05
100
AcDbCircle
62
2
6
CONTINUOUS
10
47.0082460000
20
144.0627970000
40
0.9991340000
100
AcDbArc
50
98.0000000000
51
180.0000000000
0
LINE
5
53B
100
AcDbEntity
8
05
100
AcDbLine
62
2
6
CONTINUOUS
10
68.8182140000
20
149.0969560000
11
68.1104330000
21
149.0969560000
0
LINE
5
53C
100
AcDbEntity
8
05
100
AcDbLine
62
2
6
CONTINUOUS
10
69.9935260000
20
148.2716810000
11
69.5418810000
21
148.2716810000
0
LINE
5
53D
100
AcDbEntity
8
05
100
AcDbLine
62
2
6
CONTINUOUS
10
69.5418810000
20
148.2716810000
11
68.8182140000
21
149.0969560000
0
LINE
5
53E
100
AcDbEntity
8
05
100
AcDbLine
62
2
6
CONTINUOUS
10
69.9935260000
20
148.2716810000
11
70.9926600000
21
149.2708150000
0
LINE
5
53F
100
AcDbEntity
8
05
100
AcDbLine
62
2
6
CONTINUOUS
10
142.1284350000
20
126.2176200000
11
130.9796710000
21
126.2176200000
0
LINE
5
540
100
AcDbEntity
8
05
100
AcDbLine
62
2
6
CONTINUOUS
10
130.9796710000
20
132.6176200000
11
142.1284350000
21
132.6176200000
0
LINE
5
541
100
AcDbEntity
8
05
100
AcDbLine
62
2
6
CONTINUOUS
10
130.9796710000
20
145.1676200000
11
151.1284350000
21
145.1676200000
0
LINE
5
542
100
AcDbEntity
8
05
100
AcDbLine
62
2
6
CONTINUOUS
10
130.9796710000
20
113.6676200000
11
151.1284350000
21
113.6676200000
0
LINE
5
543
100
AcDbEntity
8
05
100
AcDbLine
62
2
6
CONTINUOUS
10
130.9796710000
20
119.8641800000
11
151.4370830000
21
119.8704140000
0
LINE
5
544
100
AcDbEntity
8
05
100
AcDbLine
62
2
6
CONTINUOUS
10
130.9796710000
20
118.0344620000
11
152.9083870000
21
118.0344620000
0
LINE
5
545
100
AcDbEntity
8
05
100
AcDbLine
62
2
6
CONTINUOUS
10
87.2461090000
20
112.4323410000
11
87.2461090000
21
111.4332070000
0
LINE
5
546
100
AcDbEntity
8
05
100
AcDbLine
62
2
6
CONTINUOUS
10
91.2616060000
20
113.7312150000
11
91.2616060000
21
110.4340730000
0
LINE
5
547
100
AcDbEntity
8
05
100
AcDbLine
62
2
6
CONTINUOUS
10
85.9796710000
20
148.2716810000
11
85.9796710000
21
110.3045850000
0
LINE
5
548
100
AcDbEntity
8
05
100
AcDbLine
62
2
6
CONTINUOUS
10
84.9805370000
20
109.3054510000
11
84.9805370000
21
149.2708150000
0
LINE
5
549
100
AcDbEntity
8
05
100
AcDbLine
62
2
6
CONTINUOUS
10
91.2616060000
20
110.4340730000
11
97.1599770000
21
110.4340730000
0
LINE
5
54A
100
AcDbEntity
8
05
100
AcDbLine
62
2
6
CONTINUOUS
10
88.2452430000
20
110.4340730000
11
91.2616060000
21
110.4340730000
0
ARC
5
54B
100
AcDbEntity
8
05
100
AcDbCircle
62
2
6
CONTINUOUS
10
88.2452430000
20
111.4332070000
40
0.9991340000
100
AcDbArc
50
180.0000000000
51
270.0000000000
0
LINE
5
54C
100
AcDbEntity
8
05
100
AcDbLine
62
2
6
CONTINUOUS
10
85.9796710000
20
110.3045850000
11
84.9805370000
21
109.3054510000
0
LINE
5
54D
100
AcDbEntity
8
05
100
AcDbLine
62
2
6
CONTINUOUS
10
91.2616060000
20
148.4011680000
11
97.1599770000
21
148.4011680000
0
LINE
5
54E
100
AcDbEntity
8
05
100
AcDbLine
62
2
6
CONTINUOUS
10
91.2616060000
20
145.1040260000
11
91.2616060000
21
113.7312150000
0
LINE
5
54F
100
AcDbEntity
8
05
100
AcDbLine
62
2
6
CONTINUOUS
10
87.2461090000
20
146.4029000000
11
87.2461090000
21
112.4323410000
0
LINE
5
550
100
AcDbEntity
8
05
100
AcDbLine
62
2
6
CONTINUOUS
10
88.2452430000
20
148.4011680000
11
91.2616060000
21
148.4011680000
0
ARC
5
551
100
AcDbEntity
8
05
100
AcDbCircle
62
2
6
CONTINUOUS
10
88.2452430000
20
147.4020340000
40
0.9991340000
100
AcDbArc
50
90.0000000000
51
180.0000000000
0
LINE
5
552
100
AcDbEntity
8
05
100
AcDbLine
62
2
6
CONTINUOUS
10
87.2461090000
20
147.4020340000
11
87.2461090000
21
146.4029000000
0
LINE
5
553
100
AcDbEntity
8
05
100
AcDbLine
62
2
6
CONTINUOUS
10
85.9796710000
20
148.2716810000
11
84.9805370000
21
149.2708150000
0
LINE
5
554
100
AcDbEntity
8
05
100
AcDbLine
62
2
6
CONTINUOUS
10
91.2616060000
20
148.4011680000
11
91.2616060000
21
145.1040260000
0
LINE
5
555
100
AcDbEntity
8
05
100
AcDbLine
62
2
6
CONTINUOUS
10
135.8701210000
20
132.2176200000
11
135.8701210000
21
126.6176200000
0
LINE
5
556
100
AcDbEntity
8
05
100
AcDbLine
62
2
6
CONTINUOUS
10
153.1284350000
20
143.1676200000
11
153.1284350000
21
115.6676200000
0
ARC
5
557
100
AcDbEntity
8
05
100
AcDbCircle
62
2
6
CONTINUOUS
10
151.1284350000
20
115.6676200000
40
2.0000000000
100
AcDbArc
50
270.0000000000
51
360.0000000000
0
ARC
5
558
100
AcDbEntity
8
05
100
AcDbCircle
62
2
6
CONTINUOUS
10
151.4002830000
20
118.3334060000
40
1.5374480000
100
AcDbArc
50
348.7878880000
51
91.4062680000
0
LINE
5
559
100
AcDbEntity
8
05
100
AcDbLine
62
2
6
CONTINUOUS
10
143.1284350000
20
131.6176200000
11
143.1284350000
21
127.2176200000
0
ARC
5
55A
100
AcDbEntity
8
05
100
AcDbCircle
62
2
6
CONTINUOUS
10
142.1284350000
20
127.2176200000
40
1.0000000000
100
AcDbArc
50
270.0000000000
51
360.0000000000
0
ARC
5
55B
100
AcDbEntity
8
05
100
AcDbCircle
62
2
6
CONTINUOUS
10
142.1284350000
20
131.6176200000
40
1.0000000000
100
AcDbArc
50
0.0000000000
51
90.0000000000
0
ARC
5
55C
100
AcDbEntity
8
05
100
AcDbCircle
62
2
6
CONTINUOUS
10
151.1284350000
20
143.1676200000
40
2.0000000000
100
AcDbArc
50
0.0000000000
51
90.0000000000
0
LINE
5
55D
100
AcDbEntity
8
05
100
AcDbLine
62
2
6
CONTINUOUS
10
71.1106610000
20
226.0742030000
11
85.0985380000
21
226.0742030000
0
LINE
5
55E
100
AcDbEntity
8
05
100
AcDbLine
62
2
6
CONTINUOUS
10
71.1106610000
20
186.1088400000
11
85.0985380000
21
186.1088400000
0
LINE
5
55F
100
AcDbEntity
8
05
100
AcDbLine
62
2
6
CONTINUOUS
10
71.1106610000
20
226.0742030000
11
71.1106610000
21
186.1088400000
0
LINE
5
560
100
AcDbEntity
8
05
100
AcDbLine
62
2
6
CONTINUOUS
10
52.1219180000
20
189.4800770000
11
52.1219180000
21
206.0915210000
0
LINE
5
561
100
AcDbEntity
8
05
100
AcDbLine
62
2
6
CONTINUOUS
10
52.1219180000
20
189.7954320000
11
52.1219180000
21
206.0915210000
0
LINE
5
562
100
AcDbEntity
8
05
100
AcDbLine
62
2
6
CONTINUOUS
10
12.1565540000
20
198.9775490000
11
12.1565540000
21
206.0915210000
0
LINE
5
563
100
AcDbEntity
8
05
100
AcDbLine
62
2
6
CONTINUOUS
10
52.1219180000
20
189.4532220000
11
52.1219180000
21
206.0915210000
0
ARC
5
564
100
AcDbEntity
8
05
100
AcDbCircle
62
2
6
CONTINUOUS
10
41.1314430000
20
192.4402110000
40
0.9991340000
100
AcDbArc
50
0.0000000000
51
180.0000000000
0
ARC
5
565
100
AcDbEntity
8
05
100
AcDbCircle
62
2
6
CONTINUOUS
10
25.1452980000
20
194.6869170000
40
0.9991340000
100
AcDbArc
50
0.0000000000
51
180.0000000000
0
LINE
5
566
100
AcDbEntity
8
05
100
AcDbLine
62
2
6
CONTINUOUS
10
20.1496270000
20
195.2485940000
11
14.7367990000
21
196.0093170000
0
ARC
5
567
100
AcDbEntity
8
05
100
AcDbCircle
62
2
6
CONTINUOUS
10
15.1539570000
20
198.9775490000
40
2.9974020000
100
AcDbArc
50
180.0000000000
51
262.0000000000
0
ARC
5
568
100
AcDbEntity
8
05
100
AcDbCircle
62
2
6
CONTINUOUS
10
21.1487610000
20
195.2485940000
40
0.9991340000
100
AcDbArc
50
0.0000000000
51
180.0000000000
0
ARC
5
569
100
AcDbEntity
8
05
100
AcDbCircle
62
2
6
CONTINUOUS
10
23.1470290000
20
194.6869170000
40
0.9991340000
100
AcDbArc
50
180.0000000000
51
360.0000000000
0
ARC
5
56A
100
AcDbEntity
8
05
100
AcDbCircle
62
2
6
CONTINUOUS
10
33.1383700000
20
193.5635640000
40
0.9991340000
100
AcDbArc
50
0.0000000000
51
180.0000000000
0
ARC
5
56B
100
AcDbEntity
8
05
100
AcDbCircle
62
2
6
CONTINUOUS
10
29.1418340000
20
194.1252400000
40
0.9991340000
100
AcDbArc
50
0.0000000000
51
180.0000000000
0
ARC
5
56C
100
AcDbEntity
8
05
100
AcDbCircle
62
2
6
CONTINUOUS
10
27.1435660000
20
194.1252400000
40
0.9991340000
100
AcDbArc
50
180.0000000000
51
360.0000000000
0
ARC
5
56D
100
AcDbEntity
8
05
100
AcDbCircle
62
2
6
CONTINUOUS
10
31.1401020000
20
193.5635640000
40
0.9991340000
100
AcDbArc
50
180.0000000000
51
360.0000000000
0
ARC
5
56E
100
AcDbEntity
8
05
100
AcDbCircle
62
2
6
CONTINUOUS
10
37.1349070000
20
193.0018870000
40
0.9991340000
100
AcDbArc
50
0.0000000000
51
180.0000000000
0
ARC
5
56F
100
AcDbEntity
8
05
100
AcDbCircle
62
2
6
CONTINUOUS
10
35.1366380000
20
193.0018870000
40
0.9991340000
100
AcDbArc
50
180.0000000000
51
360.0000000000
0
ARC
5
570
100
AcDbEntity
8
05
100
AcDbCircle
62
2
6
CONTINUOUS
10
39.1331750000
20
192.4402110000
40
0.9991340000
100
AcDbArc
50
180.0000000000
51
360.0000000000
0
LINE
5
571
100
AcDbEntity
8
05
100
AcDbLine
62
2
6
CONTINUOUS
10
52.4384790000
20
189.0891570000
11
68.2284340000
21
186.2826990000
0
LINE
5
572
100
AcDbEntity
8
05
100
AcDbLine
62
2
6
CONTINUOUS
10
46.9871950000
20
190.3274470000
11
51.4390060000
21
189.2017860000
0
ARC
5
573
100
AcDbEntity
8
05
100
AcDbCircle
62
2
6
CONTINUOUS
10
52.5215720000
20
189.4800770000
40
0.3996540000
100
AcDbArc
50
180.0000000000
51
258.0000000000
0
ARC
5
574
100
AcDbEntity
8
05
100
AcDbCircle
62
2
6
CONTINUOUS
10
51.5224380000
20
189.7954320000
40
0.5994800000
100
AcDbArc
50
262.0000000000
51
360.0000000000
0
ARC
5
575
100
AcDbEntity
8
05
100
AcDbCircle
62
2
6
CONTINUOUS
10
45.1279790000
20
191.8785340000
40
0.9991340000
100
AcDbArc
50
0.0000000000
51
180.0000000000
0
ARC
5
576
100
AcDbEntity
8
05
100
AcDbCircle
62
2
6
CONTINUOUS
10
43.1297110000
20
191.8785340000
40
0.9991340000
100
AcDbArc
50
180.0000000000
51
360.0000000000
0
ARC
5
577
100
AcDbEntity
8
05
100
AcDbCircle
62
2
6
CONTINUOUS
10
47.1262480000
20
191.3168580000
40
0.9991340000
100
AcDbArc
50
180.0000000000
51
262.0000000000
0
LINE
5
578
100
AcDbEntity
8
05
100
AcDbLine
62
2
6
CONTINUOUS
10
68.9362150000
20
186.2826990000
11
68.2284340000
21
186.2826990000
0
LINE
5
579
100
AcDbEntity
8
05
100
AcDbLine
62
2
6
CONTINUOUS
10
70.1115270000
20
187.1079740000
11
69.6598820000
21
187.1079740000
0
LINE
5
57A
100
AcDbEntity
8
05
100
AcDbLine
62
2
6
CONTINUOUS
10
69.6598820000
20
187.1079740000
11
68.9362150000
21
186.2826990000
0
LINE
5
57B
100
AcDbEntity
8
05
100
AcDbLine
62
2
6
CONTINUOUS
10
70.1115270000
20
187.1079740000
11
71.1106610000
21
186.1088400000
0
ARC
5
57C
100
AcDbEntity
8
05
100
AcDbCircle
62
2
6
CONTINUOUS
10
41.1314430000
20
219.7428320000
40
0.9991340000
100
AcDbArc
50
180.0000000000
51
360.0000000000
0
ARC
5
57D
100
AcDbEntity
8
05
100
AcDbCircle
62
2
6
CONTINUOUS
10
25.1452980000
20
217.4961260000
40
0.9991340000
100
AcDbArc
50
180.0000000000
51
360.0000000000
0
LINE
5
57E
100
AcDbEntity
8
05
100
AcDbLine
62
2
6
CONTINUOUS
10
12.1565540000
20
213.2054940000
11
12.1565540000
21
206.0915210000
0
LINE
5
57F
100
AcDbEntity
8
05
100
AcDbLine
62
2
6
CONTINUOUS
10
20.1496270000
20
216.9344490000
11
14.7367990000
21
216.1737260000
0
ARC
5
580
100
AcDbEntity
8
05
100
AcDbCircle
62
2
6
CONTINUOUS
10
15.1539570000
20
213.2054940000
40
2.9974020000
100
AcDbArc
50
98.0000000000
51
180.0000000000
0
ARC
5
581
100
AcDbEntity
8
05
100
AcDbCircle
62
2
6
CONTINUOUS
10
23.1470290000
20
217.4961260000
40
0.9991340000
100
AcDbArc
50
0.0000000000
51
180.0000000000
0
ARC
5
582
100
AcDbEntity
8
05
100
AcDbCircle
62
2
6
CONTINUOUS
10
21.1487610000
20
216.9344490000
40
0.9991340000
100
AcDbArc
50
180.0000000000
51
360.0000000000
0
ARC
5
583
100
AcDbEntity
8
05
100
AcDbCircle
62
2
6
CONTINUOUS
10
33.1383700000
20
218.6194790000
40
0.9991340000
100
AcDbArc
50
180.0000000000
51
360.0000000000
0
ARC
5
584
100
AcDbEntity
8
05
100
AcDbCircle
62
2
6
CONTINUOUS
10
27.1435660000
20
218.0578020000
40
0.9991340000
100
AcDbArc
50
0.0000000000
51
180.0000000000
0
ARC
5
585
100
AcDbEntity
8
05
100
AcDbCircle
62
2
6
CONTINUOUS
10
29.1418340000
20
218.0578020000
40
0.9991340000
100
AcDbArc
50
180.0000000000
51
360.0000000000
0
ARC
5
586
100
AcDbEntity
8
05
100
AcDbCircle
62
2
6
CONTINUOUS
10
31.1401020000
20
218.6194790000
40
0.9991340000
100
AcDbArc
50
0.0000000000
51
180.0000000000
0
ARC
5
587
100
AcDbEntity
8
05
100
AcDbCircle
62
2
6
CONTINUOUS
10
37.1349070000
20
219.1811550000
40
0.9991340000
100
AcDbArc
50
180.0000000000
51
360.0000000000
0
ARC
5
588
100
AcDbEntity
8
05
100
AcDbCircle
62
2
6
CONTINUOUS
10
35.1366380000
20
219.1811550000
40
0.9991340000
100
AcDbArc
50
0.0000000000
51
180.0000000000
0
ARC
5
589
100
AcDbEntity
8
05
100
AcDbCircle
62
2
6
CONTINUOUS
10
39.1331750000
20
219.7428320000
40
0.9991340000
100
AcDbArc
50
0.0000000000
51
180.0000000000
0
LINE
5
58A
100
AcDbEntity
8
05
100
AcDbLine
62
2
6
CONTINUOUS
10
52.4384790000
20
223.0938860000
11
68.2284340000
21
225.9003440000
0
LINE
5
58B
100
AcDbEntity
8
05
100
AcDbLine
62
2
6
CONTINUOUS
10
52.1219180000
20
222.7029660000
11
52.1219180000
21
206.0915210000
0
LINE
5
58C
100
AcDbEntity
8
05
100
AcDbLine
62
2
6
CONTINUOUS
10
52.1219180000
20
222.3876100000
11
52.1219180000
21
206.0915210000
0
LINE
5
58D
100
AcDbEntity
8
05
100
AcDbLine
62
2
6
CONTINUOUS
10
52.1219180000
20
222.7298200000
11
52.1219180000
21
206.0915210000
0
LINE
5
58E
100
AcDbEntity
8
05
100
AcDbLine
62
2
6
CONTINUOUS
10
52.1219180000
20
222.7601120000
11
52.1219180000
21
206.0915210000
0
LINE
5
58F
100
AcDbEntity
8
05
100
AcDbLine
62
2
6
CONTINUOUS
10
46.9871950000
20
221.8555960000
11
51.4390060000
21
222.9812570000
0
ARC
5
590
100
AcDbEntity
8
05
100
AcDbCircle
62
2
6
CONTINUOUS
10
45.1279790000
20
220.3045080000
40
0.9991340000
100
AcDbArc
50
180.0000000000
51
360.0000000000
0
ARC
5
591
100
AcDbEntity
8
05
100
AcDbCircle
62
2
6
CONTINUOUS
10
43.1297110000
20
220.3045080000
40
0.9991340000
100
AcDbArc
50
0.0000000000
51
180.0000000000
0
ARC
5
592
100
AcDbEntity
8
05
100
AcDbCircle
62
2
6
CONTINUOUS
10
47.1262480000
20
220.8661850000
40
0.9991340000
100
AcDbArc
50
98.0000000000
51
180.0000000000
0
ARC
5
593
100
AcDbEntity
8
05
100
AcDbCircle
62
2
6
CONTINUOUS
10
52.5215720000
20
222.7029660000
40
0.3996540000
100
AcDbArc
50
102.0000000000
51
180.0000000000
0
ARC
5
594
100
AcDbEntity
8
05
100
AcDbCircle
62
2
6
CONTINUOUS
10
51.5224380000
20
222.3876100000
40
0.5994800000
100
AcDbArc
50
0.0000000000
51
98.0000000000
0
LINE
5
595
100
AcDbEntity
8
05
100
AcDbLine
62
2
6
CONTINUOUS
10
68.9362150000
20
225.9003440000
11
68.2284340000
21
225.9003440000
0
LINE
5
596
100
AcDbEntity
8
05
100
AcDbLine
62
2
6
CONTINUOUS
10
69.6598820000
20
225.0750690000
11
68.9362150000
21
225.9003440000
0
LINE
5
597
100
AcDbEntity
8
05
100
AcDbLine
62
2
6
CONTINUOUS
10
70.1115270000
20
225.0750690000
11
69.6598820000
21
225.0750690000
0
LINE
5
598
100
AcDbEntity
8
05
100
AcDbLine
62
2
6
CONTINUOUS
10
70.1115270000
20
225.0750690000
11
71.1106610000
21
226.0742030000
0
ARC
5
599
100
AcDbEntity
8
07
100
AcDbCircle
62
2
6
CONTINUOUS
10
139.3031620000
20
216.2645610000
40
7.0000000000
100
AcDbArc
50
64.2998200000
51
115.7001800000
0
LINE
5
59A
100
AcDbEntity
8
05
100
AcDbLine
62
2
6
CONTINUOUS
10
131.0976720000
20
191.0720900000
11
151.2464360000
21
191.0720900000
0
LINE
5
59B
100
AcDbEntity
8
05
100
AcDbLine
62
2
6
CONTINUOUS
10
131.0976720000
20
222.5720900000
11
151.2464360000
21
222.5720900000
0
LINE
5
59C
100
AcDbEntity
8
05
100
AcDbLine
62
2
6
CONTINUOUS
10
85.0985380000
20
186.1088400000
11
85.0985380000
21
226.0742030000
0
LINE
5
59D
100
AcDbEntity
8
05
100
AcDbLine
62
2
6
CONTINUOUS
10
86.0976720000
20
225.0750690000
11
86.0976720000
21
187.1079740000
0
LINE
5
59E
100
AcDbEntity
8
05
100
AcDbLine
62
2
6
CONTINUOUS
10
87.3641100000
20
223.2062880000
11
87.3641100000
21
189.2357290000
0
LINE
5
59F
100
AcDbEntity
8
05
100
AcDbLine
62
2
6
CONTINUOUS
10
91.3796080000
20
221.9074140000
11
91.3796080000
21
190.5346040000
0
LINE
5
5A0
100
AcDbEntity
8
05
100
AcDbLine
62
2
6
CONTINUOUS
10
88.3632450000
20
187.2374610000
11
91.3796080000
21
187.2374610000
0
LINE
5
5A1
100
AcDbEntity
8
05
100
AcDbLine
62
2
6
CONTINUOUS
10
86.0976720000
20
187.1079740000
11
85.0985380000
21
186.1088400000
0
LINE
5
5A2
100
AcDbEntity
8
05
100
AcDbLine
62
2
6
CONTINUOUS
10
87.3641100000
20
189.2357290000
11
87.3641100000
21
188.2365950000
0
ARC
5
5A3
100
AcDbEntity
8
05
100
AcDbCircle
62
2
6
CONTINUOUS
10
88.3632450000
20
188.2365950000
40
0.9991340000
100
AcDbArc
50
180.0000000000
51
270.0000000000
0
LINE
5
5A4
100
AcDbEntity
8
05
100
AcDbLine
62
2
6
CONTINUOUS
10
91.3796080000
20
190.5346040000
11
91.3796080000
21
187.2374610000
0
LINE
5
5A5
100
AcDbEntity
8
05
100
AcDbLine
62
2
6
CONTINUOUS
10
91.3796080000
20
225.2045560000
11
91.3796080000
21
221.9074140000
0
LINE
5
5A6
100
AcDbEntity
8
05
100
AcDbLine
62
2
6
CONTINUOUS
10
87.3641100000
20
224.2054220000
11
87.3641100000
21
223.2062880000
0
LINE
5
5A7
100
AcDbEntity
8
05
100
AcDbLine
62
2
6
CONTINUOUS
10
88.3632450000
20
225.2045560000
11
91.3796080000
21
225.2045560000
0
LINE
5
5A8
100
AcDbEntity
8
05
100
AcDbLine
62
2
6
CONTINUOUS
10
86.0976720000
20
225.0750690000
11
85.0985380000
21
226.0742030000
0
ARC
5
5A9
100
AcDbEntity
8
05
100
AcDbCircle
62
2
6
CONTINUOUS
10
88.3632450000
20
224.2054220000
40
0.9991340000
100
AcDbArc
50
90.0000000000
51
180.0000000000
0
LINE
5
5AA
100
AcDbEntity
8
07
100
AcDbLine
62
2
6
CONTINUOUS
10
131.2451000000
20
224.7514930000
11
135.0199360000
21
222.5720900000
0
LINE
5
5AB
100
AcDbEntity
8
05
100
AcDbLine
62
2
6
CONTINUOUS
10
153.2464360000
20
220.5720900000
11
153.2464360000
21
193.0720900000
0
ARC
5
5AC
100
AcDbEntity
8
05
100
AcDbCircle
62
2
6
CONTINUOUS
10
151.2464360000
20
193.0720900000
40
2.0000000000
100
AcDbArc
50
270.0000000000
51
360.0000000000
0
ARC
5
5AD
100
AcDbEntity
8
05
100
AcDbCircle
62
2
6
CONTINUOUS
10
151.2464360000
20
220.5720900000
40
2.0000000000
100
AcDbArc
50
0.0000000000
51
90.0000000000
0
ARC
5
5AE
100
AcDbEntity
8
05
100
AcDbCircle
62
2
6
CONTINUOUS
10
181.5627710000
20
206.2210090000
40
13.0000000000
100
AcDbArc
50
109.7831700000
51
70.2168300000
0
CIRCLE
5
5AF
100
AcDbEntity
8
05
100
AcDbCircle
62
2
6
CONTINUOUS
10
173.4627710000
20
206.2210090000
40
2.5000000000
0
CIRCLE
5
5B0
100
AcDbEntity
8
05
100
AcDbCircle
62
2
6
CONTINUOUS
10
189.6627710000
20
206.2210090000
40
2.5000000000
0
CIRCLE
5
5B1
100
AcDbEntity
8
05
100
AcDbCircle
62
2
6
CONTINUOUS
10
181.5627710000
20
198.3210090000
40
2.5000000000
0
LINE
5
5B2
100
AcDbEntity
8
05
100
AcDbLine
62
2
6
CONTINUOUS
10
131.0976720000
20
185.9911340000
11
131.0976720000
21
226.4508840000
0
LINE
5
5B3
100
AcDbEntity
8
05
100
AcDbLine
62
2
6
CONTINUOUS
10
130.3863630000
20
226.9040370000
11
126.8470260000
21
225.2536170000
0
ARC
5
5B4
100
AcDbEntity
8
05
100
AcDbCircle
62
2
6
CONTINUOUS
10
130.5976720000
20
226.4508840000
40
0.5000000000
100
AcDbArc
50
0.0000000000
51
115.0000000000
0
ARC
5
5B5
100
AcDbEntity
8
05
100
AcDbCircle
62
2
6
CONTINUOUS
10
103.2779790000
20
225.7889040000
40
6.0000000000
100
AcDbArc
50
79.9875120000
51
180.0000000000
0
ARC
5
5B6
100
AcDbEntity
8
05
100
AcDbCircle
62
2
6
CONTINUOUS
10
126.6779790000
20
225.6161400000
40
0.4000000000
100
AcDbArc
50
180.0000000000
51
295.0000000000
0
LINE
5
5B7
100
AcDbEntity
8
05
100
AcDbLine
62
2
6
CONTINUOUS
10
104.3211560000
20
231.6975240000
11
124.6257040000
21
228.1127210000
0
ARC
5
5B8
100
AcDbEntity
8
05
100
AcDbCircle
62
2
6
CONTINUOUS
10
124.2779790000
20
226.1431810000
40
2.0000000000
100
AcDbArc
50
0.0000000000
51
79.9875120000
0
ARC
5
5B9
100
AcDbEntity
8
05
100
AcDbCircle
62
2
6
CONTINUOUS
10
125.8779790000
20
226.4854430000
40
0.4000000000
100
AcDbArc
50
39.4036150000
51
40.4908370000
0
LINE
5
5BA
100
AcDbEntity
8
05
100
AcDbLine
62
2
6
CONTINUOUS
10
126.2779790000
20
226.1431810000
11
126.2780460000
21
187.0351260000
0
LINE
5
5BB
100
AcDbEntity
8
05
100
AcDbLine
62
2
6
CONTINUOUS
10
97.2779790000
20
187.1210090000
11
97.2779790000
21
225.7889040000
0
LINE
5
5BC
100
AcDbEntity
8
05
100
AcDbLine
62
2
6
CONTINUOUS
10
130.3863630000
20
185.5379800000
11
126.7990850000
21
187.2107550000
0
ARC
5
5BD
100
AcDbEntity
8
05
100
AcDbCircle
62
2
6
CONTINUOUS
10
130.5976720000
20
185.9911340000
40
0.5000000000
100
AcDbArc
50
245.0000000000
51
360.0000000000
0
LINE
5
5BE
100
AcDbEntity
8
05
100
AcDbLine
62
2
6
CONTINUOUS
10
113.3094160000
20
187.3507010000
11
113.7916540000
21
187.3689380000
0
LINE
5
5BF
100
AcDbEntity
8
05
100
AcDbLine
62
2
6
CONTINUOUS
10
125.8779790000
20
186.7210090000
11
119.2779790000
21
186.7210090000
0
ARC
5
5C0
100
AcDbEntity
8
05
100
AcDbCircle
62
2
6
CONTINUOUS
10
125.8779790000
20
187.1210090000
40
0.4000000000
100
AcDbArc
50
270.0000000000
51
340.0641540000
0
LINE
5
5C1
100
AcDbEntity
8
05
100
AcDbLine
62
2
6
CONTINUOUS
10
126.7990870000
20
187.2107590000
11
126.7599570000
21
187.2265490000
0
LINE
5
5C2
100
AcDbEntity
8
05
100
AcDbLine
62
2
6
CONTINUOUS
10
126.7599570000
20
187.2265490000
11
126.6885330000
21
187.2439360000
0
LINE
5
5C3
100
AcDbEntity
8
05
100
AcDbLine
62
2
6
CONTINUOUS
10
126.6885330000
20
187.2439360000
11
126.6151320000
21
187.2479590000
0
LINE
5
5C4
100
AcDbEntity
8
05
100
AcDbLine
62
2
6
CONTINUOUS
10
126.6151320000
20
187.2479590000
11
126.5422320000
21
187.2384800000
0
LINE
5
5C5
100
AcDbEntity
8
05
100
AcDbLine
62
2
6
CONTINUOUS
10
126.5422320000
20
187.2384800000
11
126.4722960000
21
187.2158200000
0
LINE
5
5C6
100
AcDbEntity
8
05
100
AcDbLine
62
2
6
CONTINUOUS
10
126.4722960000
20
187.2158200000
11
126.4076830000
21
187.1807400000
0
LINE
5
5C7
100
AcDbEntity
8
05
100
AcDbLine
62
2
6
CONTINUOUS
10
126.4076830000
20
187.1807400000
11
126.3505870000
21
187.1344310000
0
LINE
5
5C8
100
AcDbEntity
8
05
100
AcDbLine
62
2
6
CONTINUOUS
10
126.3505870000
20
187.1344310000
11
126.3029370000
21
187.0784650000
0
LINE
5
5C9
100
AcDbEntity
8
05
100
AcDbLine
62
2
6
CONTINUOUS
10
126.3029370000
20
187.0784650000
11
126.2663420000
21
187.0147470000
0
LINE
5
5CA
100
AcDbEntity
8
05
100
AcDbLine
62
2
6
CONTINUOUS
10
126.2663420000
20
187.0147470000
11
126.2540070000
21
186.9846220000
0
LINE
5
5CB
100
AcDbEntity
8
05
100
AcDbLine
62
2
6
CONTINUOUS
10
114.2779790000
20
187.3756100000
11
114.7563480000
21
187.3691850000
0
LINE
5
5CC
100
AcDbEntity
8
05
100
AcDbLine
62
2
6
CONTINUOUS
10
114.7563480000
20
187.3691850000
11
115.2340350000
21
187.3511770000
0
LINE
5
5CD
100
AcDbEntity
8
05
100
AcDbLine
62
2
6
CONTINUOUS
10
115.2340350000
20
187.3511770000
11
115.7066940000
21
187.3209710000
0
LINE
5
5CE
100
AcDbEntity
8
05
100
AcDbLine
62
2
6
CONTINUOUS
10
115.7066940000
20
187.3209710000
11
116.1687980000
21
187.2804150000
0
LINE
5
5CF
100
AcDbEntity
8
05
100
AcDbLine
62
2
6
CONTINUOUS
10
116.1687980000
20
187.2804150000
11
116.6150550000
21
187.2303220000
0
LINE
5
5D0
100
AcDbEntity
8
05
100
AcDbLine
62
2
6
CONTINUOUS
10
116.6150550000
20
187.2303220000
11
117.0404970000
21
187.1731860000
0
LINE
5
5D1
100
AcDbEntity
8
05
100
AcDbLine
62
2
6
CONTINUOUS
10
117.0404970000
20
187.1731860000
11
117.4404810000
21
187.1108200000
0
LINE
5
5D2
100
AcDbEntity
8
05
100
AcDbLine
62
2
6
CONTINUOUS
10
117.4404810000
20
187.1108200000
11
117.8098560000
21
187.0460700000
0
LINE
5
5D3
100
AcDbEntity
8
05
100
AcDbLine
62
2
6
CONTINUOUS
10
117.8098560000
20
187.0460700000
11
118.1441730000
21
186.9815620000
0
LINE
5
5D4
100
AcDbEntity
8
05
100
AcDbLine
62
2
6
CONTINUOUS
10
118.1441730000
20
186.9815620000
11
118.4396860000
21
186.9197660000
0
LINE
5
5D5
100
AcDbEntity
8
05
100
AcDbLine
62
2
6
CONTINUOUS
10
118.4396860000
20
186.9197660000
11
118.6931600000
21
186.8634860000
0
LINE
5
5D6
100
AcDbEntity
8
05
100
AcDbLine
62
2
6
CONTINUOUS
10
118.6931600000
20
186.8634860000
11
118.9026320000
21
186.8143380000
0
LINE
5
5D7
100
AcDbEntity
8
05
100
AcDbLine
62
2
6
CONTINUOUS
10
118.9026320000
20
186.8143380000
11
119.0664400000
21
186.7746250000
0
LINE
5
5D8
100
AcDbEntity
8
05
100
AcDbLine
62
2
6
CONTINUOUS
10
119.0664400000
20
186.7746250000
11
119.2544410000
21
186.7272120000
0
LINE
5
5D9
100
AcDbEntity
8
05
100
AcDbLine
62
2
6
CONTINUOUS
10
113.7916540000
20
187.3689380000
11
114.2779790000
21
187.3756100000
0
LINE
5
5DA
100
AcDbEntity
8
05
100
AcDbLine
62
2
6
CONTINUOUS
10
109.4914690000
20
186.7751480000
11
109.6567140000
21
186.8152120000
0
LINE
5
5DB
100
AcDbEntity
8
05
100
AcDbLine
62
2
6
CONTINUOUS
10
109.6567140000
20
186.8152120000
11
109.8678640000
21
186.8647600000
0
LINE
5
5DC
100
AcDbEntity
8
05
100
AcDbLine
62
2
6
CONTINUOUS
10
109.8678640000
20
186.8647600000
11
110.1226840000
21
186.9213150000
0
LINE
5
5DD
100
AcDbEntity
8
05
100
AcDbLine
62
2
6
CONTINUOUS
10
110.1226840000
20
186.9213150000
11
110.4182640000
21
186.9830650000
0
LINE
5
5DE
100
AcDbEntity
8
05
100
AcDbLine
62
2
6
CONTINUOUS
10
110.4182640000
20
186.9830650000
11
110.7511880000
21
187.0472760000
0
LINE
5
5DF
100
AcDbEntity
8
05
100
AcDbLine
62
2
6
CONTINUOUS
10
110.7511880000
20
187.0472760000
11
111.1170710000
21
187.1113880000
0
LINE
5
5E0
100
AcDbEntity
8
05
100
AcDbLine
62
2
6
CONTINUOUS
10
111.1170710000
20
187.1113880000
11
111.5124350000
21
187.1730630000
0
LINE
5
5E1
100
AcDbEntity
8
05
100
AcDbLine
62
2
6
CONTINUOUS
10
111.5124350000
20
187.1730630000
11
111.9331760000
21
187.2297120000
0
LINE
5
5E2
100
AcDbEntity
8
05
100
AcDbLine
62
2
6
CONTINUOUS
10
111.9331760000
20
187.2297120000
11
112.3755630000
21
187.2795320000
0
LINE
5
5E3
100
AcDbEntity
8
05
100
AcDbLine
62
2
6
CONTINUOUS
10
112.3755630000
20
187.2795320000
11
112.8358610000
21
187.3202140000
0
LINE
5
5E4
100
AcDbEntity
8
05
100
AcDbLine
62
2
6
CONTINUOUS
10
112.8358610000
20
187.3202140000
11
113.3094160000
21
187.3507010000
0
LINE
5
5E5
100
AcDbEntity
8
05
100
AcDbLine
62
2
6
CONTINUOUS
10
109.2779790000
20
186.7210090000
11
109.3017310000
21
186.7272710000
0
LINE
5
5E6
100
AcDbEntity
8
05
100
AcDbLine
62
2
6
CONTINUOUS
10
109.3017310000
20
186.7272710000
11
109.4914690000
21
186.7751480000
0
LINE
5
5E7
100
AcDbEntity
8
05
100
AcDbLine
62
2
6
CONTINUOUS
10
109.2779790000
20
186.7210090000
11
106.8979790000
21
186.7210090000
0
ARC
5
5E8
100
AcDbEntity
8
05
100
AcDbCircle
62
2
6
CONTINUOUS
10
97.6779790000
20
187.1210090000
40
0.4000000000
100
AcDbArc
50
180.0000000000
51
270.0000000000
0
LINE
5
5E9
100
AcDbEntity
8
05
100
AcDbLine
62
2
6
CONTINUOUS
10
104.2779790000
20
186.7210090000
11
97.6779790000
21
186.7210090000
0
LINE
5
5EA
100
AcDbEntity
8
05
100
AcDbLine
62
2
6
CONTINUOUS
10
104.2779790000
20
186.3211120000
11
105.3774670000
21
186.3232640000
0
LINE
5
5EB
100
AcDbEntity
8
05
100
AcDbLine
62
2
6
CONTINUOUS
10
104.9059790000
20
186.3270260000
11
104.2779790000
21
186.3318580000
0
LINE
5
5EC
100
AcDbEntity
8
05
100
AcDbLine
62
2
6
CONTINUOUS
10
106.0899320000
20
186.3272920000
11
106.2422710000
21
186.3293150000
0
LINE
5
5ED
100
AcDbEntity
8
05
100
AcDbLine
62
2
6
CONTINUOUS
10
106.2422710000
20
186.3293150000
11
106.3855730000
21
186.3323190000
0
LINE
5
5EE
100
AcDbEntity
8
05
100
AcDbLine
62
2
6
CONTINUOUS
10
106.3855730000
20
186.3323190000
11
106.5152670000
21
186.3364650000
0
LINE
5
5EF
100
AcDbEntity
8
05
100
AcDbLine
62
2
6
CONTINUOUS
10
106.5152670000
20
186.3364650000
11
106.6272810000
21
186.3419150000
0
LINE
5
5F0
100
AcDbEntity
8
05
100
AcDbLine
62
2
6
CONTINUOUS
10
106.6272810000
20
186.3419150000
11
106.7216460000
21
186.3489060000
0
LINE
5
5F1
100
AcDbEntity
8
05
100
AcDbLine
62
2
6
CONTINUOUS
10
106.7216460000
20
186.3489060000
11
106.7417280000
21
186.3512360000
0
LINE
5
5F2
100
AcDbEntity
8
05
100
AcDbLine
62
2
6
CONTINUOUS
10
106.8979790000
20
186.3489200000
11
105.5694830000
21
186.3710160000
0
ARC
5
5F3
100
AcDbEntity
8
05
100
AcDbCircle
62
2
6
CONTINUOUS
10
181.5627710000
20
206.2210090000
40
16.4000000000
100
AcDbArc
50
100.2439240000
51
129.7725490000
0
CIRCLE
5
5F4
100
AcDbEntity
8
05
100
AcDbCircle
62
2
6
CONTINUOUS
10
181.5627710000
20
206.2210090000
40
20.7298750000
0
LINE
5
5F5
100
AcDbEntity
8
05
100
AcDbLine
62
2
6
CONTINUOUS
10
181.5627710000
20
231.6103510000
11
179.5428570000
21
231.6103510000
0
LINE
5
5F6
100
AcDbEntity
8
05
100
AcDbLine
62
2
6
CONTINUOUS
10
167.0306910000
20
226.9621990000
11
165.2570230000
21
220.5477960000
0
LINE
5
5F7
100
AcDbEntity
8
05
100
AcDbLine
62
2
6
CONTINUOUS
10
172.5627710000
20
229.7889050000
11
172.5627920000
21
225.6902150000
0
LINE
5
5F8
100
AcDbEntity
8
05
100
AcDbLine
62
2
6
CONTINUOUS
10
165.2570230000
20
220.5477960000
11
164.5808620000
21
218.0868800000
0
ARC
5
5F9
100
AcDbEntity
8
05
100
AcDbCircle
62
2
6
CONTINUOUS
10
173.9627710000
20
225.6902150000
40
1.4000000000
100
AcDbArc
50
180.0000000000
51
210.4841660000
0
ARC
5
5FA
100
AcDbEntity
8
05
100
AcDbCircle
62
2
6
CONTINUOUS
10
170.5627710000
20
229.7889040000
40
2.0000000000
100
AcDbArc
50
0.0000000000
51
90.0000000000
0
LINE
5
5FB
100
AcDbEntity
8
05
100
AcDbLine
62
2
6
CONTINUOUS
10
170.0607440000
20
231.7888980000
11
169.9625300000
21
231.7865050000
0
LINE
5
5FC
100
AcDbEntity
8
05
100
AcDbLine
62
2
6
CONTINUOUS
10
169.9625300000
20
231.7865050000
11
169.7651070000
21
231.7671020000
0
LINE
5
5FD
100
AcDbEntity
8
05
100
AcDbLine
62
2
6
CONTINUOUS
10
169.7651070000
20
231.7671020000
11
169.5745230000
21
231.7293970000
0
LINE
5
5FE
100
AcDbEntity
8
05
100
AcDbLine
62
2
6
CONTINUOUS
10
169.5745230000
20
231.7293970000
11
169.3923340000
21
231.6748980000
0
LINE
5
5FF
100
AcDbEntity
8
05
100
AcDbLine
62
2
6
CONTINUOUS
10
169.3923340000
20
231.6748980000
11
169.2206460000
21
231.6056220000
0
LINE
5
600
100
AcDbEntity
8
05
100
AcDbLine
62
2
6
CONTINUOUS
10
169.2206460000
20
231.6056220000
11
169.0609940000
21
231.5238020000
0
LINE
5
601
100
AcDbEntity
8
05
100
AcDbLine
62
2
6
CONTINUOUS
10
169.0609940000
20
231.5238020000
11
168.9144010000
21
231.4318020000
0
LINE
5
602
100
AcDbEntity
8
05
100
AcDbLine
62
2
6
CONTINUOUS
10
168.9144010000
20
231.4318020000
11
168.7814540000
21
231.3320290000
0
LINE
5
603
100
AcDbEntity
8
05
100
AcDbLine
62
2
6
CONTINUOUS
10
168.7814540000
20
231.3320290000
11
168.6624510000
21
231.2269760000
0
LINE
5
604
100
AcDbEntity
8
05
100
AcDbLine
62
2
6
CONTINUOUS
10
168.6624510000
20
231.2269760000
11
168.5570220000
21
231.1187770000
0
LINE
5
605
100
AcDbEntity
8
05
100
AcDbLine
62
2
6
CONTINUOUS
10
168.5570220000
20
231.1187770000
11
168.4651960000
21
231.0102880000
0
LINE
5
606
100
AcDbEntity
8
05
100
AcDbLine
62
2
6
CONTINUOUS
10
168.4651960000
20
231.0102880000
11
168.3862030000
21
230.9037280000
0
LINE
5
607
100
AcDbEntity
8
05
100
AcDbLine
62
2
6
CONTINUOUS
10
168.3862030000
20
230.9037280000
11
168.3190590000
21
230.8013150000
0
LINE
5
608
100
AcDbEntity
8
05
100
AcDbLine
62
2
6
CONTINUOUS
10
168.3190590000
20
230.8013150000
11
168.2628430000
21
230.7054430000
0
LINE
5
609
100
AcDbEntity
8
05
100
AcDbLine
62
2
6
CONTINUOUS
10
168.2628430000
20
230.7054430000
11
168.2146820000
21
230.6148200000
0
LINE
5
60A
100
AcDbEntity
8
05
100
AcDbLine
62
2
6
CONTINUOUS
10
168.2146820000
20
230.6148200000
11
168.1729450000
21
230.5293450000
0
LINE
5
60B
100
AcDbEntity
8
05
100
AcDbLine
62
2
6
CONTINUOUS
10
168.1729450000
20
230.5293450000
11
168.1349720000
21
230.4458580000
0
LINE
5
60C
100
AcDbEntity
8
05
100
AcDbLine
62
2
6
CONTINUOUS
10
168.1349720000
20
230.4458580000
11
168.0988840000
21
230.3616160000
0
LINE
5
60D
100
AcDbEntity
8
05
100
AcDbLine
62
2
6
CONTINUOUS
10
168.0285130000
20
230.1850690000
11
167.9928960000
21
230.0904000000
0
LINE
5
60E
100
AcDbEntity
8
05
100
AcDbLine
62
2
6
CONTINUOUS
10
167.9928960000
20
230.0904000000
11
167.9564820000
21
229.9905540000
0
LINE
5
60F
100
AcDbEntity
8
05
100
AcDbLine
62
2
6
CONTINUOUS
10
167.9564820000
20
229.9905540000
11
167.9189140000
21
229.8846900000
0
LINE
5
610
100
AcDbEntity
8
05
100
AcDbLine
62
2
6
CONTINUOUS
10
167.9189140000
20
229.8846900000
11
167.8798460000
21
229.7719080000
0
LINE
5
611
100
AcDbEntity
8
05
100
AcDbLine
62
2
6
CONTINUOUS
10
167.8798460000
20
229.7719080000
11
167.8391970000
21
229.6519770000
0
LINE
5
612
100
AcDbEntity
8
05
100
AcDbLine
62
2
6
CONTINUOUS
10
167.8391970000
20
229.6519770000
11
167.7968370000
21
229.5245200000
0
LINE
5
613
100
AcDbEntity
8
05
100
AcDbLine
62
2
6
CONTINUOUS
10
167.7968370000
20
229.5245200000
11
167.7527360000
21
229.3894340000
0
LINE
5
614
100
AcDbEntity
8
05
100
AcDbLine
62
2
6
CONTINUOUS
10
167.7527360000
20
229.3894340000
11
167.7068520000
21
229.2465900000
0
LINE
5
615
100
AcDbEntity
8
05
100
AcDbLine
62
2
6
CONTINUOUS
10
167.7068520000
20
229.2465900000
11
167.6592060000
21
229.0959870000
0
LINE
5
616
100
AcDbEntity
8
05
100
AcDbLine
62
2
6
CONTINUOUS
10
167.6592060000
20
229.0959870000
11
167.5586570000
21
228.7716220000
0
LINE
5
617
100
AcDbEntity
8
05
100
AcDbLine
62
2
6
CONTINUOUS
10
167.4514440000
20
228.4172370000
11
167.3379730000
21
228.0340230000
0
LINE
5
618
100
AcDbEntity
8
05
100
AcDbLine
62
2
6
CONTINUOUS
10
167.5586570000
20
228.7716220000
11
167.4514440000
21
228.4172370000
0
LINE
5
619
100
AcDbEntity
8
05
100
AcDbLine
62
2
6
CONTINUOUS
10
170.0604900000
20
231.7888980000
11
170.5627730000
21
231.7888980000
0
LINE
5
61A
100
AcDbEntity
8
05
100
AcDbLine
62
2
6
CONTINUOUS
10
178.1304360000
20
228.5840100000
11
177.6681680000
21
226.9318730000
0
LINE
5
61B
100
AcDbEntity
8
05
100
AcDbLine
62
2
6
CONTINUOUS
10
178.1743110000
20
228.7210680000
11
178.1303920000
21
228.5838790000
0
LINE
5
61C
100
AcDbEntity
8
05
100
AcDbLine
62
2
6
CONTINUOUS
10
197.8710090000
20
220.5387610000
11
196.1652750000
21
226.7106330000
0
LINE
5
61D
100
AcDbEntity
8
05
100
AcDbLine
62
2
6
CONTINUOUS
10
190.5627640000
20
225.6902180000
11
190.5627710000
21
229.7889050000
0
LINE
5
61E
100
AcDbEntity
8
05
100
AcDbLine
62
2
6
CONTINUOUS
10
198.5446680000
20
218.0868940000
11
197.8710090000
21
220.5387610000
0
ARC
5
61F
100
AcDbEntity
8
05
100
AcDbCircle
62
2
6
CONTINUOUS
10
189.1627710000
20
225.6902150000
40
1.4000000000
100
AcDbArc
50
329.5158340000
51
360.0000000000
0
LINE
5
620
100
AcDbEntity
8
05
100
AcDbLine
62
2
6
CONTINUOUS
10
184.9951160000
20
228.5839660000
11
184.9481880000
21
228.7294790000
0
LINE
5
621
100
AcDbEntity
8
05
100
AcDbLine
62
2
6
CONTINUOUS
10
185.4573680000
20
226.9319060000
11
184.9951020000
21
228.5840100000
0
ARC
5
622
100
AcDbEntity
8
05
100
AcDbCircle
62
2
6
CONTINUOUS
10
192.5627710000
20
229.7889040000
40
2.0000000000
100
AcDbArc
50
90.0000000000
51
180.0000000000
0
LINE
5
623
100
AcDbEntity
8
05
100
AcDbLine
62
2
6
CONTINUOUS
10
195.0162270000
20
230.3864290000
11
194.9802770000
21
230.4690320000
0
LINE
5
624
100
AcDbEntity
8
05
100
AcDbLine
62
2
6
CONTINUOUS
10
194.9802770000
20
230.4690320000
11
194.9415850000
21
230.5525200000
0
LINE
5
625
100
AcDbEntity
8
05
100
AcDbLine
62
2
6
CONTINUOUS
10
194.9415850000
20
230.5525200000
11
194.8982680000
21
230.6393280000
0
LINE
5
626
100
AcDbEntity
8
05
100
AcDbLine
62
2
6
CONTINUOUS
10
194.8982680000
20
230.6393280000
11
194.8477290000
21
230.7319670000
0
LINE
5
627
100
AcDbEntity
8
05
100
AcDbLine
62
2
6
CONTINUOUS
10
194.8477290000
20
230.7319670000
11
194.7856460000
21
230.8343940000
0
LINE
5
628
100
AcDbEntity
8
05
100
AcDbLine
62
2
6
CONTINUOUS
10
194.7856460000
20
230.8343940000
11
194.7114390000
21
230.9429410000
0
LINE
5
629
100
AcDbEntity
8
05
100
AcDbLine
62
2
6
CONTINUOUS
10
194.7114390000
20
230.9429410000
11
194.6237320000
21
231.0553310000
0
LINE
5
62A
100
AcDbEntity
8
05
100
AcDbLine
62
2
6
CONTINUOUS
10
194.6237320000
20
231.0553310000
11
194.5214350000
21
231.1690410000
0
LINE
5
62B
100
AcDbEntity
8
05
100
AcDbLine
62
2
6
CONTINUOUS
10
194.5214350000
20
231.1690410000
11
194.4044330000
21
231.2807930000
0
LINE
5
62C
100
AcDbEntity
8
05
100
AcDbLine
62
2
6
CONTINUOUS
10
194.4044330000
20
231.2807930000
11
194.2721610000
21
231.3881080000
0
LINE
5
62D
100
AcDbEntity
8
05
100
AcDbLine
62
2
6
CONTINUOUS
10
194.2721610000
20
231.3881080000
11
194.1249800000
21
231.4879680000
0
LINE
5
62E
100
AcDbEntity
8
05
100
AcDbLine
62
2
6
CONTINUOUS
10
194.1249800000
20
231.4879680000
11
193.9632980000
21
231.5777500000
0
LINE
5
62F
100
AcDbEntity
8
05
100
AcDbLine
62
2
6
CONTINUOUS
10
193.9632980000
20
231.5777500000
11
193.7880570000
21
231.6547400000
0
LINE
5
630
100
AcDbEntity
8
05
100
AcDbLine
62
2
6
CONTINUOUS
10
193.7880570000
20
231.6547400000
11
193.6008510000
21
231.7163300000
0
LINE
5
631
100
AcDbEntity
8
05
100
AcDbLine
62
2
6
CONTINUOUS
10
193.6008510000
20
231.7163300000
11
193.4039580000
21
231.7601700000
0
LINE
5
632
100
AcDbEntity
8
05
100
AcDbLine
62
2
6
CONTINUOUS
10
193.4039580000
20
231.7601700000
11
193.1990890000
21
231.7844310000
0
LINE
5
633
100
AcDbEntity
8
05
100
AcDbLine
62
2
6
CONTINUOUS
10
193.1990890000
20
231.7844310000
11
193.0648010000
21
231.7888980000
0
LINE
5
634
100
AcDbEntity
8
05
100
AcDbLine
62
2
6
CONTINUOUS
10
192.5627720000
20
231.7888980000
11
193.0650470000
21
231.7888980000
0
LINE
5
635
100
AcDbEntity
8
05
100
AcDbLine
62
2
6
CONTINUOUS
10
195.3930750000
20
229.3266110000
11
195.3493080000
21
229.4616680000
0
LINE
5
636
100
AcDbEntity
8
05
100
AcDbLine
62
2
6
CONTINUOUS
10
195.3493080000
20
229.4616680000
11
195.3072520000
21
229.5893580000
0
LINE
5
637
100
AcDbEntity
8
05
100
AcDbLine
62
2
6
CONTINUOUS
10
195.3072520000
20
229.5893580000
11
195.2668640000
21
229.7097530000
0
LINE
5
638
100
AcDbEntity
8
05
100
AcDbLine
62
2
6
CONTINUOUS
10
195.2668640000
20
229.7097530000
11
195.2280720000
21
229.8231150000
0
LINE
5
639
100
AcDbEntity
8
05
100
AcDbLine
62
2
6
CONTINUOUS
10
195.2280720000
20
229.8231150000
11
195.1908160000
21
229.9295880000
0
LINE
5
63A
100
AcDbEntity
8
05
100
AcDbLine
62
2
6
CONTINUOUS
10
195.1908160000
20
229.9295880000
11
195.1548220000
21
230.0299560000
0
LINE
5
63B
100
AcDbEntity
8
05
100
AcDbLine
62
2
6
CONTINUOUS
10
195.1548220000
20
230.0299560000
11
195.1199160000
21
230.1246100000
0
LINE
5
63C
100
AcDbEntity
8
05
100
AcDbLine
62
2
6
CONTINUOUS
10
196.1652750000
20
226.7106330000
11
196.1022930000
21
226.9357180000
0
LINE
5
63D
100
AcDbEntity
8
05
100
AcDbLine
62
2
6
CONTINUOUS
10
196.1022930000
20
226.9357180000
11
195.9187850000
21
227.5818810000
0
LINE
5
63E
100
AcDbEntity
8
05
100
AcDbLine
62
2
6
CONTINUOUS
10
195.9187850000
20
227.5818810000
11
195.8020440000
21
227.9846150000
0
LINE
5
63F
100
AcDbEntity
8
05
100
AcDbLine
62
2
6
CONTINUOUS
10
195.8020440000
20
227.9846150000
11
195.6905970000
21
228.3620140000
0
LINE
5
640
100
AcDbEntity
8
05
100
AcDbLine
62
2
6
CONTINUOUS
10
195.6905970000
20
228.3620140000
11
195.5850080000
21
228.7122800000
0
LINE
5
641
100
AcDbEntity
8
05
100
AcDbLine
62
2
6
CONTINUOUS
10
195.5850080000
20
228.7122800000
11
195.4856990000
21
229.0341940000
0
LINE
5
642
100
AcDbEntity
8
05
100
AcDbLine
62
2
6
CONTINUOUS
10
195.4856990000
20
229.0341940000
11
195.3930750000
21
229.3266110000
0
ARC
5
643
100
AcDbEntity
8
05
100
AcDbCircle
62
2
6
CONTINUOUS
10
179.7760940000
20
230.8362000000
40
0.8370800000
100
AcDbArc
50
127.9216660000
51
153.7018040000
0
ARC
5
644
100
AcDbEntity
8
05
100
AcDbCircle
62
2
6
CONTINUOUS
10
179.5562050000
20
231.1730510000
40
0.4375040000
100
AcDbArc
50
91.7483210000
51
132.3215250000
0
LINE
5
645
100
AcDbEntity
8
05
100
AcDbLine
62
2
6
CONTINUOUS
10
181.5627710000
20
231.6103510000
11
183.5826840000
21
231.6103510000
0
ARC
5
646
100
AcDbEntity
8
05
100
AcDbCircle
62
2
6
CONTINUOUS
10
183.5693360000
20
231.1730510000
40
0.4375040000
100
AcDbArc
50
47.6784750000
51
88.2516790000
0
ARC
5
647
100
AcDbEntity
8
05
100
AcDbCircle
62
2
6
CONTINUOUS
10
183.3494480000
20
230.8362000000
40
0.8370800000
100
AcDbArc
50
26.2981960000
51
52.0783340000
0
LINE
5
648
100
AcDbEntity
8
05
100
AcDbLine
62
2
6
CONTINUOUS
10
97.2779790000
20
225.2045560000
11
97.2779790000
21
201.5398210000
0
LINE
5
649
100
AcDbEntity
8
05
100
AcDbLine
62
2
6
CONTINUOUS
10
86.0976720000
20
223.0210090000
11
87.3641100000
21
223.0210090000
0
LINE
5
64A
100
AcDbEntity
8
05
100
AcDbLine
62
2
6
CONTINUOUS
10
86.0976720000
20
189.4210090000
11
87.3641100000
21
189.4210090000
0
LINE
5
64B
100
AcDbEntity
8
05
100
AcDbLine
62
2
6
CONTINUOUS
10
91.3796080000
20
224.5731820000
11
97.2779790000
21
225.1555580000
0
LINE
5
64C
100
AcDbEntity
8
05
100
AcDbLine
62
2
6
CONTINUOUS
10
91.3796080000
20
187.8688350000
11
97.2779790000
21
187.2864590000
0
LINE
5
64D
100
AcDbEntity
8
05
100
AcDbLine
62
2
6
CONTINUOUS
10
85.9796710000
20
146.2176200000
11
87.2461090000
21
146.2176200000
0
LINE
5
64E
100
AcDbEntity
8
05
100
AcDbLine
62
2
6
CONTINUOUS
10
85.9796710000
20
112.6176200000
11
87.2461090000
21
112.6176200000
0
ARC
5
64F
100
AcDbEntity
8
05
100
AcDbCircle
62
2
6
CONTINUOUS
10
97.5599770000
20
148.5161120000
40
0.4000000000
100
AcDbArc
50
89.7881090000
51
179.9738820000
0
ARC
5
650
100
AcDbEntity
8
05
100
AcDbCircle
62
2
6
CONTINUOUS
10
125.7599770000
20
148.5157660000
40
0.4000000000
100
AcDbArc
50
20.0555330000
51
90.2351440000
0
LINE
5
651
100
AcDbEntity
8
05
100
AcDbLine
62
2
6
CONTINUOUS
10
130.2683620000
20
150.1006490000
11
126.6805450000
21
148.4276230000
0
LINE
5
652
100
AcDbEntity
8
05
100
AcDbLine
62
2
6
CONTINUOUS
10
130.9796710000
20
149.6474950000
11
130.9796710000
21
109.1877460000
0
ARC
5
653
100
AcDbEntity
8
05
100
AcDbCircle
62
2
6
CONTINUOUS
10
97.5599770000
20
110.3191290000
40
0.4000000000
100
AcDbArc
50
180.0260990000
51
270.2118910000
0
LINE
5
654
100
AcDbEntity
8
05
100
AcDbLine
62
2
6
CONTINUOUS
10
97.1599770000
20
148.5161120000
11
97.1599770000
21
110.3191290000
0
LINE
5
655
100
AcDbEntity
8
05
100
AcDbLine
62
2
6
CONTINUOUS
10
130.2683620000
20
108.7345920000
11
126.6805450000
21
110.4076180000
0
LINE
5
656
100
AcDbEntity
8
05
100
AcDbLine
62
2
6
CONTINUOUS
10
126.1599780000
20
148.6007130000
11
126.1599720000
21
110.2344710000
0
LINE
5
657
100
AcDbEntity
8
05
100
AcDbLine
62
2
6
CONTINUOUS
10
97.5614560000
20
109.9191320000
11
101.5408040000
21
109.9320080000
0
LINE
5
658
100
AcDbEntity
8
05
100
AcDbLine
62
2
6
CONTINUOUS
10
101.5408040000
20
109.9320080000
11
105.8179070000
21
109.9415610000
0
LINE
5
659
100
AcDbEntity
8
05
100
AcDbLine
62
2
6
CONTINUOUS
10
105.8179070000
20
109.9415610000
11
110.2215410000
21
109.9464560000
0
LINE
5
65A
100
AcDbEntity
8
05
100
AcDbLine
62
2
6
CONTINUOUS
10
110.2215410000
20
109.9464560000
11
114.9458790000
21
109.9457930000
0
LINE
5
65B
100
AcDbEntity
8
05
100
AcDbLine
62
2
6
CONTINUOUS
10
114.9458790000
20
109.9457930000
11
120.1850970000
21
109.9374890000
0
LINE
5
65C
100
AcDbEntity
8
05
100
AcDbLine
62
2
6
CONTINUOUS
10
120.1850970000
20
109.9374890000
11
125.7583360000
21
109.9194780000
0
LINE
5
65D
100
AcDbEntity
8
05
100
AcDbLine
62
2
6
CONTINUOUS
10
126.1357580000
20
110.1822890000
11
126.1537160000
21
110.2239720000
0
LINE
5
65E
100
AcDbEntity
8
05
100
AcDbLine
62
2
6
CONTINUOUS
10
126.1537160000
20
110.2239720000
11
126.1839100000
21
110.2746460000
0
LINE
5
65F
100
AcDbEntity
8
05
100
AcDbLine
62
2
6
CONTINUOUS
10
126.1839100000
20
110.2746460000
11
126.2226100000
21
110.3217780000
0
LINE
5
660
100
AcDbEntity
8
05
100
AcDbLine
62
2
6
CONTINUOUS
10
126.2226100000
20
110.3217780000
11
126.2695650000
21
110.3636550000
0
LINE
5
661
100
AcDbEntity
8
05
100
AcDbLine
62
2
6
CONTINUOUS
10
126.2695650000
20
110.3636550000
11
126.3241170000
21
110.3985100000
0
LINE
5
662
100
AcDbEntity
8
05
100
AcDbLine
62
2
6
CONTINUOUS
10
126.3241170000
20
110.3985100000
11
126.3849900000
21
110.4245830000
0
LINE
5
663
100
AcDbEntity
8
05
100
AcDbLine
62
2
6
CONTINUOUS
10
126.3849900000
20
110.4245830000
11
126.4506010000
21
110.4404530000
0
LINE
5
664
100
AcDbEntity
8
05
100
AcDbLine
62
2
6
CONTINUOUS
10
126.4506010000
20
110.4404530000
11
126.5187210000
21
110.4450510000
0
LINE
5
665
100
AcDbEntity
8
05
100
AcDbLine
62
2
6
CONTINUOUS
10
126.5187210000
20
110.4450510000
11
126.5869730000
21
110.4379320000
0
LINE
5
666
100
AcDbEntity
8
05
100
AcDbLine
62
2
6
CONTINUOUS
10
126.5869730000
20
110.4379320000
11
126.6528980000
21
110.4192920000
0
LINE
5
667
100
AcDbEntity
8
05
100
AcDbLine
62
2
6
CONTINUOUS
10
126.6528980000
20
110.4192920000
11
126.6805490000
21
110.4076400000
0
ARC
5
668
100
AcDbEntity
8
05
100
AcDbCircle
62
2
6
CONTINUOUS
10
125.7599770000
20
110.3194750000
40
0.4000000000
100
AcDbArc
50
269.7648560000
51
339.9444530000
0
LINE
5
669
100
AcDbEntity
8
05
100
AcDbLine
62
2
6
CONTINUOUS
10
126.6805490000
20
148.4276010000
11
126.6534690000
21
148.4161650000
0
LINE
5
66A
100
AcDbEntity
8
05
100
AcDbLine
62
2
6
CONTINUOUS
10
126.6534690000
20
148.4161650000
11
126.5880920000
21
148.3975250000
0
LINE
5
66B
100
AcDbEntity
8
05
100
AcDbLine
62
2
6
CONTINUOUS
10
126.5880920000
20
148.3975250000
11
126.5204060000
21
148.3902230000
0
LINE
5
66C
100
AcDbEntity
8
05
100
AcDbLine
62
2
6
CONTINUOUS
10
126.5204060000
20
148.3902230000
11
126.4527220000
21
148.3944670000
0
LINE
5
66D
100
AcDbEntity
8
05
100
AcDbLine
62
2
6
CONTINUOUS
10
126.4527220000
20
148.3944670000
11
126.3873060000
21
148.4098930000
0
LINE
5
66E
100
AcDbEntity
8
05
100
AcDbLine
62
2
6
CONTINUOUS
10
126.3873060000
20
148.4098930000
11
126.3262650000
21
148.4356000000
0
LINE
5
66F
100
AcDbEntity
8
05
100
AcDbLine
62
2
6
CONTINUOUS
10
126.3262650000
20
148.4356000000
11
126.2713190000
21
148.4702610000
0
LINE
5
670
100
AcDbEntity
8
05
100
AcDbLine
62
2
6
CONTINUOUS
10
126.2713190000
20
148.4702610000
11
126.2238280000
21
148.5121970000
0
LINE
5
671
100
AcDbEntity
8
05
100
AcDbLine
62
2
6
CONTINUOUS
10
126.2238280000
20
148.5121970000
11
126.1846160000
21
148.5595910000
0
LINE
5
672
100
AcDbEntity
8
05
100
AcDbLine
62
2
6
CONTINUOUS
10
126.1846160000
20
148.5595910000
11
126.1540340000
21
148.6106340000
0
LINE
5
673
100
AcDbEntity
8
05
100
AcDbLine
62
2
6
CONTINUOUS
10
126.1540340000
20
148.6106340000
11
126.1357580000
21
148.6529510000
0
ARC
5
674
100
AcDbEntity
8
05
100
AcDbCircle
62
2
6
CONTINUOUS
10
130.4796710000
20
109.1877460000
40
0.5000000000
100
AcDbArc
50
245.0000000000
51
360.0000000000
0
LINE
5
675
100
AcDbEntity
8
05
100
AcDbLine
62
2
6
CONTINUOUS
10
125.7583360000
20
148.9157630000
11
120.1850970000
21
148.8977520000
0
LINE
5
676
100
AcDbEntity
8
05
100
AcDbLine
62
2
6
CONTINUOUS
10
120.1850970000
20
148.8977520000
11
114.9458790000
21
148.8894470000
0
LINE
5
677
100
AcDbEntity
8
05
100
AcDbLine
62
2
6
CONTINUOUS
10
114.9458790000
20
148.8894470000
11
110.2215410000
21
148.8887850000
0
LINE
5
678
100
AcDbEntity
8
05
100
AcDbLine
62
2
6
CONTINUOUS
10
110.2215410000
20
148.8887850000
11
105.8179070000
21
148.8936800000
0
LINE
5
679
100
AcDbEntity
8
05
100
AcDbLine
62
2
6
CONTINUOUS
10
105.8179070000
20
148.8936800000
11
101.5408040000
21
148.9032330000
0
LINE
5
67A
100
AcDbEntity
8
05
100
AcDbLine
62
2
6
CONTINUOUS
10
101.5408040000
20
148.9032330000
11
97.5614560000
21
148.9161090000
0
ARC
5
67B
100
AcDbEntity
8
05
100
AcDbCircle
62
2
6
CONTINUOUS
10
130.4796710000
20
149.6474950000
40
0.5000000000
100
AcDbArc
50
0.0000000000
51
115.0000000000
0
ARC
5
67C
100
AcDbEntity
8
05
100
AcDbCircle
62
2
6
CONTINUOUS
10
186.8333300000
20
227.1902210000
40
1.4000000000
100
AcDbArc
50
190.6326230000
51
206.8925170000
0
ARC
5
67D
100
AcDbEntity
8
05
100
AcDbCircle
62
2
6
CONTINUOUS
10
176.2922110000
20
227.1902210000
40
1.4000000000
100
AcDbArc
50
333.1074830000
51
349.3673770000
0
ARC
5
67E
100
AcDbEntity
8
05
100
AcDbCircle
62
2
6
CONTINUOUS
10
170.1076410000
20
217.6761390000
40
1.5000000000
100
AcDbArc
50
24.9933240000
51
132.2277320000
0
LINE
5
67F
100
AcDbEntity
8
05
100
AcDbLine
62
2
6
CONTINUOUS
10
169.0995220000
20
218.7868580000
11
169.0995220000
21
215.8506470000
0
CIRCLE
5
680
100
AcDbEntity
8
05
100
AcDbCircle
62
2
6
CONTINUOUS
10
181.5627710000
20
206.2210090000
40
15.7500000000
0
ARC
5
681
100
AcDbEntity
8
05
100
AcDbCircle
62
2
6
CONTINUOUS
10
181.5627710000
20
206.2210090000
40
16.4000000000
100
AcDbArc
50
139.4601580000
51
79.7560760000
0
LINE
5
682
100
AcDbEntity
8
05
100
AcDbLine
62
2
6
CONTINUOUS
10
168.0988840000
20
230.3616160000
11
168.0285130000
21
230.1850690000
0
LINE
5
683
100
AcDbEntity
8
05
100
AcDbLine
62
2
6
CONTINUOUS
10
195.0162270000
20
230.3864290000
11
195.1199160000
21
230.1246100000
0
LINE
5
684
100
AcDbEntity
8
05
100
AcDbLine
62
2
6
CONTINUOUS
10
167.0306910000
20
226.9621990000
11
167.3379730000
21
228.0340230000
0
LINE
5
685
100
AcDbEntity
8
RAHMEN
100
AcDbLine
62
7
6
CONTINUOUS
10
210.0000000000
20
0.0000000000
11
210.0000000000
21
297.0000000000
0
LINE
5
686
100
AcDbEntity
8
RAHMEN
100
AcDbLine
62
7
6
CONTINUOUS
10
210.0000000000
20
297.0000000000
11
0.0000000000
21
297.0000000000
0
LINE
5
687
100
AcDbEntity
8
RAHMEN
100
AcDbLine
62
7
6
CONTINUOUS
10
0.0000000000
20
297.0000000000
11
0.0000000000
21
0.0000000000
0
LINE
5
688
100
AcDbEntity
8
RAHMEN
100
AcDbLine
62
7
6
CONTINUOUS
10
0.0000000000
20
0.0000000000
11
210.0000000000
21
0.0000000000
0
LINE
5
689
100
AcDbEntity
8
05
100
AcDbLine
62
7
6
CONTINUOUS
10
97.5761270000
20
8.2089520000
11
97.8594800000
21
8.4923040000
0
LINE
5
68A
100
AcDbEntity
8
05
100
AcDbLine
62
7
6
CONTINUOUS
10
99.6202690000
20
10.2530940000
11
100.0602470000
21
10.6930720000
0
LINE
5
68B
100
AcDbEntity
8
05
100
AcDbLine
62
7
6
CONTINUOUS
10
98.5024150000
20
9.1352400000
11
98.7923930000
21
9.4252180000
0
LINE
5
68C
100
AcDbEntity
8
05
100
AcDbLine
62
7
6
CONTINUOUS
10
97.2579290000
20
8.2089520000
11
97.9501160000
21
8.9011390000
0
LINE
5
68D
100
AcDbEntity
8
05
100
AcDbLine
62
7
6
CONTINUOUS
10
99.3020710000
20
10.2530940000
11
99.7420490000
21
10.6930720000
0
LINE
5
68E
100
AcDbEntity
8
05
100
AcDbLine
62
7
6
CONTINUOUS
10
98.1842170000
20
9.1352400000
11
98.4741950000
21
9.4252180000
0
LINE
5
68F
100
AcDbEntity
8
05
100
AcDbLine
62
7
6
CONTINUOUS
10
96.9397310000
20
8.2089520000
11
98.1559970000
21
9.4252180000
0
LINE
5
690
100
AcDbEntity
8
05
100
AcDbLine
62
7
6
CONTINUOUS
10
98.9838730000
20
10.2530940000
11
99.4238510000
21
10.6930720000
0
LINE
5
691
100
AcDbEntity
8
05
100
AcDbLine
62
7
6
CONTINUOUS
10
96.6215330000
20
8.2089520000
11
98.1313890000
21
9.7188080000
0
LINE
5
692
100
AcDbEntity
8
05
100
AcDbLine
62
7
6
CONTINUOUS
10
98.6656750000
20
10.2530940000
11
99.1056530000
21
10.6930720000
0
LINE
5
693
100
AcDbEntity
8
05
100
AcDbLine
62
7
6
CONTINUOUS
10
96.3033350000
20
8.2089520000
11
98.2220250000
21
10.1276420000
0
LINE
5
694
100
AcDbEntity
8
05
100
AcDbLine
62
7
6
CONTINUOUS
10
98.3474770000
20
10.2530940000
11
98.7874550000
21
10.6930720000
0
LINE
5
695
100
AcDbEntity
8
05
100
AcDbLine
62
7
6
CONTINUOUS
10
96.1183660000
20
8.3421810000
11
98.4692570000
21
10.6930720000
0
LINE
5
696
100
AcDbEntity
8
05
100
AcDbLine
62
7
6
CONTINUOUS
10
96.2090020000
20
8.7510150000
11
98.1510590000
21
10.6930720000
0
LINE
5
697
100
AcDbEntity
8
05
100
AcDbLine
62
7
6
CONTINUOUS
10
96.2996390000
20
9.1598500000
11
97.8328610000
21
10.6930720000
0
LINE
5
698
100
AcDbEntity
8
05
100
AcDbLine
62
7
6
CONTINUOUS
10
96.3902750000
20
9.5686840000
11
97.5146630000
21
10.6930720000
0
LINE
5
699
100
AcDbEntity
8
05
100
AcDbLine
62
7
6
CONTINUOUS
10
96.4809110000
20
9.9775190000
11
97.1964650000
21
10.6930720000
0
LINE
5
69A
100
AcDbEntity
8
05
100
AcDbLine
62
7
6
CONTINUOUS
10
96.5715480000
20
10.3863530000
11
96.8782670000
21
10.6930720000
0
LINE
5
69B
100
AcDbEntity
8
05
100
AcDbLine
62
7
6
CONTINUOUS
10
95.9390390000
20
10.0720420000
11
95.9639990000
21
10.0970020000
0
LINE
5
69C
100
AcDbEntity
8
05
100
AcDbLine
62
7
6
CONTINUOUS
10
93.7577510000
20
8.2089520000
11
93.9600800000
21
8.4112820000
0
LINE
5
69D
100
AcDbEntity
8
05
100
AcDbLine
62
7
6
CONTINUOUS
10
95.6208410000
20
10.0720420000
11
96.0546360000
21
10.5058370000
0
LINE
5
69E
100
AcDbEntity
8
05
100
AcDbLine
62
7
6
CONTINUOUS
10
93.4395530000
20
8.2089520000
11
94.0507170000
21
8.8201160000
0
LINE
5
69F
100
AcDbEntity
8
05
100
AcDbLine
62
7
6
CONTINUOUS
10
95.3026430000
20
10.0720420000
11
95.9236730000
21
10.6930720000
0
LINE
5
6A0
100
AcDbEntity
8
05
100
AcDbLine
62
7
6
CONTINUOUS
10
93.1213550000
20
8.2089520000
11
94.1413530000
21
9.2289510000
0
LINE
5
6A1
100
AcDbEntity
8
05
100
AcDbLine
62
7
6
CONTINUOUS
10
94.9844450000
20
10.0720420000
11
95.6054740000
21
10.6930720000
0
LINE
5
6A2
100
AcDbEntity
8
05
100
AcDbLine
62
7
6
CONTINUOUS
10
92.8031570000
20
8.2089520000
11
94.2319900000
21
9.6377850000
0
LINE
5
6A3
100
AcDbEntity
8
05
100
AcDbLine
62
7
6
CONTINUOUS
10
94.6662460000
20
10.0720420000
11
95.2872760000
21
10.6930720000
0
LINE
5
6A4
100
AcDbEntity
8
05
100
AcDbLine
62
7
6
CONTINUOUS
10
92.4849590000
20
8.2089520000
11
94.3226260000
21
10.0466200000
0
LINE
5
6A5
100
AcDbEntity
8
05
100
AcDbLine
62
7
6
CONTINUOUS
10
94.3480480000
20
10.0720420000
11
94.9690780000
21
10.6930720000
0
LINE
5
6A6
100
AcDbEntity
8
05
100
AcDbLine
62
7
6
CONTINUOUS
10
92.2189660000
20
8.2611580000
11
94.6508800000
21
10.6930720000
0
LINE
5
6A7
100
AcDbEntity
8
05
100
AcDbLine
62
7
6
CONTINUOUS
10
92.3096030000
20
8.6699920000
11
94.3326820000
21
10.6930720000
0
LINE
5
6A8
100
AcDbEntity
8
05
100
AcDbLine
62
7
6
CONTINUOUS
10
92.4002390000
20
9.0788270000
11
94.0144840000
21
10.6930720000
0
LINE
5
6A9
100
AcDbEntity
8
05
100
AcDbLine
62
7
6
CONTINUOUS
10
92.4908760000
20
9.4876610000
11
93.6962860000
21
10.6930720000
0
LINE
5
6AA
100
AcDbEntity
8
05
100
AcDbLine
62
7
6
CONTINUOUS
10
92.5815120000
20
9.8964960000
11
93.3780880000
21
10.6930720000
0
LINE
5
6AB
100
AcDbEntity
8
05
100
AcDbLine
62
7
6
CONTINUOUS
10
92.4388600000
20
10.0720420000
11
93.0598900000
21
10.6930720000
0
LINE
5
6AC
100
AcDbEntity
8
05
100
AcDbLine
62
7
6
CONTINUOUS
10
92.1206620000
20
10.0720420000
11
92.7416920000
21
10.6930720000
0
LINE
5
6AD
100
AcDbEntity
8
05
100
AcDbLine
62
7
6
CONTINUOUS
10
91.8024640000
20
10.0720420000
11
92.4234940000
21
10.6930720000
0
LINE
5
6AE
100
AcDbEntity
8
05
100
AcDbLine
62
7
6
CONTINUOUS
10
89.8883760000
20
8.4761520000
11
90.3685390000
21
8.9563150000
0
LINE
5
6AF
100
AcDbEntity
8
05
100
AcDbLine
62
7
6
CONTINUOUS
10
91.4842660000
20
10.0720420000
11
92.1052960000
21
10.6930720000
0
LINE
5
6B0
100
AcDbEntity
8
05
100
AcDbLine
62
7
6
CONTINUOUS
10
89.4054660000
20
8.3114400000
11
90.4591750000
21
9.3651490000
0
LINE
5
6B1
100
AcDbEntity
8
05
100
AcDbLine
62
7
6
CONTINUOUS
10
91.1660680000
20
10.0720420000
11
91.7870980000
21
10.6930720000
0
LINE
5
6B2
100
AcDbEntity
8
05
100
AcDbLine
62
7
6
CONTINUOUS
10
89.0027690000
20
8.2269410000
11
90.5498110000
21
9.7739840000
0
LINE
5
6B3
100
AcDbEntity
8
05
100
AcDbLine
62
7
6
CONTINUOUS
10
91.1305160000
20
10.3546880000
11
91.4689000000
21
10.6930720000
0
LINE
5
6B4
100
AcDbEntity
8
05
100
AcDbLine
62
7
6
CONTINUOUS
10
88.6368590000
20
8.1792300000
11
90.6404480000
21
10.1828180000
0
LINE
5
6B5
100
AcDbEntity
8
05
100
AcDbLine
62
7
6
CONTINUOUS
10
88.2894110000
20
8.1499790000
11
90.7310840000
21
10.5916520000
0
LINE
5
6B6
100
AcDbEntity
8
05
100
AcDbLine
62
7
6
CONTINUOUS
10
87.9558910000
20
8.1346570000
11
90.5143060000
21
10.6930720000
0
LINE
5
6B7
100
AcDbEntity
8
05
100
AcDbLine
62
7
6
CONTINUOUS
10
87.6346880000
20
8.1316520000
11
88.3351190000
21
8.8320840000
0
LINE
5
6B8
100
AcDbEntity
8
05
100
AcDbLine
62
7
6
CONTINUOUS
10
88.7236060000
20
9.2205700000
11
90.1961080000
21
10.6930720000
0
LINE
5
6B9
100
AcDbEntity
8
05
100
AcDbLine
62
7
6
CONTINUOUS
10
87.3245180000
20
8.1396810000
11
87.9444690000
21
8.7596310000
0
LINE
5
6BA
100
AcDbEntity
8
05
100
AcDbLine
62
7
6
CONTINUOUS
10
88.8142420000
20
9.6294040000
11
89.8779100000
21
10.6930720000
0
LINE
5
6BB
100
AcDbEntity
8
05
100
AcDbLine
62
7
6
CONTINUOUS
10
87.0243430000
20
8.1577030000
11
87.6233120000
21
8.7566730000
0
LINE
5
6BC
100
AcDbEntity
8
05
100
AcDbLine
62
7
6
CONTINUOUS
10
88.9048780000
20
10.0382390000
11
89.5597110000
21
10.6930720000
0
LINE
5
6BD
100
AcDbEntity
8
05
100
AcDbLine
62
7
6
CONTINUOUS
10
86.7333060000
20
8.1848640000
11
87.3407990000
21
8.7923570000
0
LINE
5
6BE
100
AcDbEntity
8
05
100
AcDbLine
62
7
6
CONTINUOUS
10
88.9955150000
20
10.4470730000
11
89.2415130000
21
10.6930720000
0
LINE
5
6BF
100
AcDbEntity
8
05
100
AcDbLine
62
7
6
CONTINUOUS
10
86.4520070000
20
8.2217640000
11
87.0972290000
21
8.8669850000
0
LINE
5
6C0
100
AcDbEntity
8
05
100
AcDbLine
62
7
6
CONTINUOUS
10
86.1841710000
20
8.2721250000
11
86.9024090000
21
8.9903630000
0
LINE
5
6C1
100
AcDbEntity
8
05
100
AcDbLine
62
7
6
CONTINUOUS
10
85.9287580000
20
8.3349100000
11
86.8448360000
21
9.2509890000
0
LINE
5
6C2
100
AcDbEntity
8
05
100
AcDbLine
62
7
6
CONTINUOUS
10
85.6873210000
20
8.4116710000
11
86.9354730000
21
9.6598230000
0
LINE
5
6C3
100
AcDbEntity
8
05
100
AcDbLine
62
7
6
CONTINUOUS
10
85.4667180000
20
8.5092670000
11
87.0261090000
21
10.0686580000
0
LINE
5
6C4
100
AcDbEntity
8
05
100
AcDbLine
62
7
6
CONTINUOUS
10
85.2651030000
20
8.6258500000
11
87.1167450000
21
10.4774920000
0
LINE
5
6C5
100
AcDbEntity
8
05
100
AcDbLine
62
7
6
CONTINUOUS
10
85.1018940000
20
8.7808390000
11
87.0141270000
21
10.6930720000
0
LINE
5
6C6
100
AcDbEntity
8
05
100
AcDbLine
62
7
6
CONTINUOUS
10
85.1092480000
20
9.1063910000
11
86.6959290000
21
10.6930720000
0
LINE
5
6C7
100
AcDbEntity
8
05
100
AcDbLine
62
7
6
CONTINUOUS
10
83.8936110000
20
8.2089520000
11
84.2024780000
21
8.5178190000
0
LINE
5
6C8
100
AcDbEntity
8
05
100
AcDbLine
62
7
6
CONTINUOUS
10
85.1998850000
20
9.5152260000
11
86.3777310000
21
10.6930720000
0
LINE
5
6C9
100
AcDbEntity
8
05
100
AcDbLine
62
7
6
CONTINUOUS
10
83.5754130000
20
8.2089520000
11
84.0153920000
21
8.6489310000
0
LINE
5
6CA
100
AcDbEntity
8
05
100
AcDbLine
62
7
6
CONTINUOUS
10
85.2905210000
20
9.9240600000
11
86.0595330000
21
10.6930720000
0
LINE
5
6CB
100
AcDbEntity
8
05
100
AcDbLine
62
7
6
CONTINUOUS
10
83.2572150000
20
8.2089520000
11
83.6971940000
21
8.6489310000
0
LINE
5
6CC
100
AcDbEntity
8
05
100
AcDbLine
62
7
6
CONTINUOUS
10
85.3811580000
20
10.3328950000
11
85.7413350000
21
10.6930720000
0
LINE
5
6CD
100
AcDbEntity
8
05
100
AcDbLine
62
7
6
CONTINUOUS
10
82.9390170000
20
8.2089520000
11
83.3789960000
21
8.6489310000
0
LINE
5
6CE
100
AcDbEntity
8
05
100
AcDbLine
62
7
6
CONTINUOUS
10
84.0360880000
20
9.3060230000
11
84.1751650000
21
9.4451000000
0
LINE
5
6CF
100
AcDbEntity
8
05
100
AcDbLine
62
7
6
CONTINUOUS
10
82.6208190000
20
8.2089520000
11
83.0607970000
21
8.6489310000
0
LINE
5
6D0
100
AcDbEntity
8
05
100
AcDbLine
62
7
6
CONTINUOUS
10
83.7178900000
20
9.3060230000
11
84.0078680000
21
9.5960010000
0
LINE
5
6D1
100
AcDbEntity
8
05
100
AcDbLine
62
7
6
CONTINUOUS
10
82.3026210000
20
8.2089520000
11
82.7425990000
21
8.6489310000
0
LINE
5
6D2
100
AcDbEntity
8
05
100
AcDbLine
62
7
6
CONTINUOUS
10
84.3467620000
20
10.2530940000
11
84.6556600000
21
10.5619910000
0
LINE
5
6D3
100
AcDbEntity
8
05
100
AcDbLine
62
7
6
CONTINUOUS
10
83.3996920000
20
9.3060230000
11
83.6896700000
21
9.5960010000
0
LINE
5
6D4
100
AcDbEntity
8
05
100
AcDbLine
62
7
6
CONTINUOUS
10
81.9844230000
20
8.2089520000
11
82.4244010000
21
8.6489310000
0
LINE
5
6D5
100
AcDbEntity
8
05
100
AcDbLine
62
7
6
CONTINUOUS
10
84.0285640000
20
10.2530940000
11
84.4685430000
21
10.6930720000
0
LINE
5
6D6
100
AcDbEntity
8
05
100
AcDbLine
62
7
6
CONTINUOUS
10
83.0814940000
20
9.3060230000
11
83.3714720000
21
9.5960010000
0
LINE
5
6D7
100
AcDbEntity
8
05
100
AcDbLine
62
7
6
CONTINUOUS
10
81.6662250000
20
8.2089520000
11
82.1062030000
21
8.6489310000
0
LINE
5
6D8
100
AcDbEntity
8
05
100
AcDbLine
62
7
6
CONTINUOUS
10
83.7103660000
20
10.2530940000
11
84.1503450000
21
10.6930720000
0
LINE
5
6D9
100
AcDbEntity
8
05
100
AcDbLine
62
7
6
CONTINUOUS
10
82.7632960000
20
9.3060230000
11
83.0532740000
21
9.5960010000
0
LINE
5
6DA
100
AcDbEntity
8
05
100
AcDbLine
62
7
6
CONTINUOUS
10
81.3480270000
20
8.2089520000
11
81.7880050000
21
8.6489310000
0
LINE
5
6DB
100
AcDbEntity
8
05
100
AcDbLine
62
7
6
CONTINUOUS
10
83.3921680000
20
10.2530940000
11
83.8321470000
21
10.6930720000
0
LINE
5
6DC
100
AcDbEntity
8
05
100
AcDbLine
62
7
6
CONTINUOUS
10
82.4450970000
20
9.3060230000
11
82.7350760000
21
9.5960010000
0
LINE
5
6DD
100
AcDbEntity
8
05
100
AcDbLine
62
7
6
CONTINUOUS
10
81.0298290000
20
8.2089520000
11
81.4698070000
21
8.6489310000
0
LINE
5
6DE
100
AcDbEntity
8
05
100
AcDbLine
62
7
6
CONTINUOUS
10
83.0739700000
20
10.2530940000
11
83.5139480000
21
10.6930720000
0
LINE
5
6DF
100
AcDbEntity
8
05
100
AcDbLine
62
7
6
CONTINUOUS
10
82.1268990000
20
9.3060230000
11
82.4168780000
21
9.5960010000
0
LINE
5
6E0
100
AcDbEntity
8
05
100
AcDbLine
62
7
6
CONTINUOUS
10
80.7116310000
20
8.2089520000
11
81.3186940000
21
8.8160160000
0
LINE
5
6E1
100
AcDbEntity
8
05
100
AcDbLine
62
7
6
CONTINUOUS
10
82.7557720000
20
10.2530940000
11
83.1957500000
21
10.6930720000
0
LINE
5
6E2
100
AcDbEntity
8
05
100
AcDbLine
62
7
6
CONTINUOUS
10
81.8087010000
20
9.3060230000
11
82.0986800000
21
9.5960010000
0
LINE
5
6E3
100
AcDbEntity
8
05
100
AcDbLine
62
7
6
CONTINUOUS
10
80.3934330000
20
8.2089520000
11
81.4093310000
21
9.2248500000
0
LINE
5
6E4
100
AcDbEntity
8
05
100
AcDbLine
62
7
6
CONTINUOUS
10
82.4375740000
20
10.2530940000
11
82.8775520000
21
10.6930720000
0
LINE
5
6E5
100
AcDbEntity
8
05
100
AcDbLine
62
7
6
CONTINUOUS
10
81.4905030000
20
9.3060230000
11
81.7804820000
21
9.5960010000
0
LINE
5
6E6
100
AcDbEntity
8
05
100
AcDbLine
62
7
6
CONTINUOUS
10
80.0752350000
20
8.2089520000
11
81.4999670000
21
9.6336850000
0
LINE
5
6E7
100
AcDbEntity
8
05
100
AcDbLine
62
7
6
CONTINUOUS
10
82.1193760000
20
10.2530940000
11
82.5593540000
21
10.6930720000
0
LINE
5
6E8
100
AcDbEntity
8
05
100
AcDbLine
62
7
6
CONTINUOUS
10
79.7570370000
20
8.2089520000
11
81.5906030000
21
10.0425190000
0
LINE
5
6E9
100
AcDbEntity
8
05
100
AcDbLine
62
7
6
CONTINUOUS
10
81.8011780000
20
10.2530940000
11
82.2411560000
21
10.6930720000
0
LINE
5
6EA
100
AcDbEntity
8
05
100
AcDbLine
62
7
6
CONTINUOUS
10
79.4869440000
20
8.2570570000
11
81.9229580000
21
10.6930720000
0
LINE
5
6EB
100
AcDbEntity
8
05
100
AcDbLine
62
7
6
CONTINUOUS
10
79.5775800000
20
8.6658920000
11
81.6047600000
21
10.6930720000
0
LINE
5
6EC
100
AcDbEntity
8
05
100
AcDbLine
62
7
6
CONTINUOUS
10
79.6682170000
20
9.0747260000
11
81.2865620000
21
10.6930720000
0
LINE
5
6ED
100
AcDbEntity
8
05
100
AcDbLine
62
7
6
CONTINUOUS
10
78.4842440000
20
8.2089520000
11
78.6617050000
21
8.3864130000
0
LINE
5
6EE
100
AcDbEntity
8
05
100
AcDbLine
62
7
6
CONTINUOUS
10
79.7588530000
20
9.4835610000
11
80.9683640000
21
10.6930720000
0
LINE
5
6EF
100
AcDbEntity
8
05
100
AcDbLine
62
7
6
CONTINUOUS
10
78.1660460000
20
8.2089520000
11
78.7523410000
21
8.7952470000
0
LINE
5
6F0
100
AcDbEntity
8
05
100
AcDbLine
62
7
6
CONTINUOUS
10
79.8494890000
20
9.8923950000
11
80.6501660000
21
10.6930720000
0
LINE
5
6F1
100
AcDbEntity
8
05
100
AcDbLine
62
7
6
CONTINUOUS
10
77.8478480000
20
8.2089520000
11
78.8429780000
21
9.2040820000
0
LINE
5
6F2
100
AcDbEntity
8
05
100
AcDbLine
62
7
6
CONTINUOUS
10
79.9401260000
20
10.3012300000
11
80.3319680000
21
10.6930720000
0
LINE
5
6F3
100
AcDbEntity
8
05
100
AcDbLine
62
7
6
CONTINUOUS
10
77.5296500000
20
8.2089520000
11
78.9336140000
21
9.6129160000
0
LINE
5
6F4
100
AcDbEntity
8
05
100
AcDbLine
62
7
6
CONTINUOUS
10
77.2114520000
20
8.2089520000
11
79.0242510000
21
10.0217510000
0
LINE
5
6F5
100
AcDbEntity
8
05
100
AcDbLine
62
7
6
CONTINUOUS
10
76.8932540000
20
8.2089520000
11
79.1148870000
21
10.4305850000
0
LINE
5
6F6
100
AcDbEntity
8
05
100
AcDbLine
62
7
6
CONTINUOUS
10
76.6255330000
20
8.2594290000
11
79.0591760000
21
10.6930720000
0
LINE
5
6F7
100
AcDbEntity
8
05
100
AcDbLine
62
7
6
CONTINUOUS
10
76.4580220000
20
8.4101170000
11
78.7409780000
21
10.6930720000
0
LINE
5
6F8
100
AcDbEntity
8
05
100
AcDbLine
62
7
6
CONTINUOUS
10
76.2905120000
20
8.5608040000
11
78.4227800000
21
10.6930720000
0
LINE
5
6F9
100
AcDbEntity
8
05
100
AcDbLine
62
7
6
CONTINUOUS
10
76.1230020000
20
8.7114920000
11
77.1030810000
21
9.6915710000
0
LINE
5
6FA
100
AcDbEntity
8
05
100
AcDbLine
62
7
6
CONTINUOUS
10
77.2831370000
20
9.8716270000
11
78.1045820000
21
10.6930720000
0
LINE
5
6FB
100
AcDbEntity
8
05
100
AcDbLine
62
7
6
CONTINUOUS
10
75.9554910000
20
8.8621800000
11
76.9163070000
21
9.8229950000
0
LINE
5
6FC
100
AcDbEntity
8
05
100
AcDbLine
62
7
6
CONTINUOUS
10
77.3737730000
20
10.2804620000
11
77.7863840000
21
10.6930720000
0
LINE
5
6FD
100
AcDbEntity
8
05
100
AcDbLine
62
7
6
CONTINUOUS
10
75.7879810000
20
9.0128680000
11
76.7295320000
21
9.9544190000
0
LINE
5
6FE
100
AcDbEntity
8
05
100
AcDbLine
62
7
6
CONTINUOUS
10
77.4644100000
20
10.6892960000
11
77.4681860000
21
10.6930720000
0
LINE
5
6FF
100
AcDbEntity
8
05
100
AcDbLine
62
7
6
CONTINUOUS
10
74.6658680000
20
8.2089520000
11
74.8620460000
21
8.4051310000
0
LINE
5
700
100
AcDbEntity
8
05
100
AcDbLine
62
7
6
CONTINUOUS
10
75.6204710000
20
9.1635550000
11
76.5427580000
21
10.0858420000
0
LINE
5
701
100
AcDbEntity
8
05
100
AcDbLine
62
7
6
CONTINUOUS
10
74.3476700000
20
8.2089520000
11
74.9526830000
21
8.8139650000
0
LINE
5
702
100
AcDbEntity
8
05
100
AcDbLine
62
7
6
CONTINUOUS
10
75.4529600000
20
9.3142430000
11
76.3559830000
21
10.2172660000
0
LINE
5
703
100
AcDbEntity
8
05
100
AcDbLine
62
7
6
CONTINUOUS
10
74.0294720000
20
8.2089520000
11
75.0433190000
21
9.2228000000
0
LINE
5
704
100
AcDbEntity
8
05
100
AcDbLine
62
7
6
CONTINUOUS
10
75.2854500000
20
9.4649310000
11
76.1692090000
21
10.3486900000
0
LINE
5
705
100
AcDbEntity
8
05
100
AcDbLine
62
7
6
CONTINUOUS
10
73.7112740000
20
8.2089520000
11
75.9824350000
21
10.4801130000
0
LINE
5
706
100
AcDbEntity
8
05
100
AcDbLine
62
7
6
CONTINUOUS
10
73.3930760000
20
8.2089520000
11
75.7956600000
21
10.6115370000
0
LINE
5
707
100
AcDbEntity
8
05
100
AcDbLine
62
7
6
CONTINUOUS
10
73.1209320000
20
8.2550070000
11
75.5589970000
21
10.6930720000
0
LINE
5
708
100
AcDbEntity
8
05
100
AcDbLine
62
7
6
CONTINUOUS
10
73.2115690000
20
8.6638420000
11
75.2407990000
21
10.6930720000
0
LINE
5
709
100
AcDbEntity
8
05
100
AcDbLine
62
7
6
CONTINUOUS
10
73.3022050000
20
9.0726760000
11
74.9226010000
21
10.6930720000
0
LINE
5
70A
100
AcDbEntity
8
05
100
AcDbLine
62
7
6
CONTINUOUS
10
73.3928420000
20
9.4815110000
11
74.6044030000
21
10.6930720000
0
LINE
5
70B
100
AcDbEntity
8
05
100
AcDbLine
62
7
6
CONTINUOUS
10
73.4834780000
20
9.8903450000
11
74.2862050000
21
10.6930720000
0
LINE
5
70C
100
AcDbEntity
8
05
100
AcDbLine
62
7
6
CONTINUOUS
10
73.5741150000
20
10.2991800000
11
73.9680070000
21
10.6930720000
0
LINE
5
70D
100
AcDbEntity
8
05
100
AcDbLine
62
7
6
CONTINUOUS
10
98.8206130000
20
9.1352400000
11
99.1105910000
21
9.4252180000
0
LINE
5
70E
100
AcDbEntity
8
05
100
AcDbLine
62
7
6
CONTINUOUS
10
99.8666600000
20
10.1812870000
11
100.3784450000
21
10.6930720000
0
LINE
5
70F
100
AcDbEntity
8
05
100
AcDbLine
62
7
6
CONTINUOUS
10
99.1388110000
20
9.1352400000
11
99.4292410000
21
9.4256700000
0
LINE
5
710
100
AcDbEntity
8
05
100
AcDbLine
62
7
6
CONTINUOUS
10
99.9467390000
20
9.9431670000
11
100.6966430000
21
10.6930720000
0
LINE
5
711
100
AcDbEntity
8
05
100
AcDbLine
62
7
6
CONTINUOUS
10
99.4562560000
20
9.1344860000
11
101.0146710000
21
10.6929020000
0
LINE
5
712
100
AcDbEntity
8
05
100
AcDbLine
62
7
6
CONTINUOUS
10
99.6305160000
20
8.9905480000
11
101.2989430000
21
10.6589760000
0
LINE
5
713
100
AcDbEntity
8
05
100
AcDbLine
62
7
6
CONTINUOUS
10
99.6130000000
20
8.6548350000
11
101.5351130000
21
10.5769480000
0
LINE
5
714
100
AcDbEntity
8
05
100
AcDbLine
62
7
6
CONTINUOUS
10
99.6052610000
20
8.3288970000
11
101.7250750000
21
10.4487110000
0
LINE
5
715
100
AcDbEntity
8
05
100
AcDbLine
62
7
6
CONTINUOUS
10
99.8035140000
20
8.2089520000
11
101.8509000000
21
10.2563380000
0
LINE
5
716
100
AcDbEntity
8
05
100
AcDbLine
62
7
6
CONTINUOUS
10
100.1217120000
20
8.2089520000
11
101.2212130000
21
9.3084530000
0
LINE
5
717
100
AcDbEntity
8
05
100
AcDbLine
62
7
6
CONTINUOUS
10
101.2660830000
20
9.3533230000
11
101.8342290000
21
9.9214690000
0
LINE
5
718
100
AcDbEntity
8
05
100
AcDbLine
62
7
6
CONTINUOUS
10
100.4399100000
20
8.2089520000
11
101.3457580000
21
9.1148000000
0
LINE
5
719
100
AcDbEntity
8
05
100
AcDbLine
62
7
6
CONTINUOUS
10
102.6292330000
20
10.3982750000
11
102.9240300000
21
10.6930720000
0
LINE
5
71A
100
AcDbEntity
8
05
100
AcDbLine
62
7
6
CONTINUOUS
10
100.7581080000
20
8.2089520000
11
101.3299420000
21
8.7807860000
0
LINE
5
71B
100
AcDbEntity
8
05
100
AcDbLine
62
7
6
CONTINUOUS
10
102.5385960000
20
9.9894400000
11
103.2422280000
21
10.6930720000
0
LINE
5
71C
100
AcDbEntity
8
05
100
AcDbLine
62
7
6
CONTINUOUS
10
101.0763060000
20
8.2089520000
11
101.3071930000
21
8.4398390000
0
LINE
5
71D
100
AcDbEntity
8
05
100
AcDbLine
62
7
6
CONTINUOUS
10
102.4479600000
20
9.5806060000
11
103.5604260000
21
10.6930720000
0
LINE
5
71E
100
AcDbEntity
8
05
100
AcDbLine
62
7
6
CONTINUOUS
10
102.3573230000
20
9.1717720000
11
103.8786240000
21
10.6930720000
0
LINE
5
71F
100
AcDbEntity
8
05
100
AcDbLine
62
7
6
CONTINUOUS
10
102.2666870000
20
8.7629370000
11
104.1968220000
21
10.6930720000
0
LINE
5
720
100
AcDbEntity
8
05
100
AcDbLine
62
7
6
CONTINUOUS
10
102.1760510000
20
8.3541030000
11
104.3703470000
21
10.5483990000
0
LINE
5
721
100
AcDbEntity
8
05
100
AcDbLine
62
7
6
CONTINUOUS
10
102.3490980000
20
8.2089520000
11
104.2797100000
21
10.1395640000
0
LINE
5
722
100
AcDbEntity
8
05
100
AcDbLine
62
7
6
CONTINUOUS
10
102.6672960000
20
8.2089520000
11
104.1890740000
21
9.7307300000
0
LINE
5
723
100
AcDbEntity
8
05
100
AcDbLine
62
7
6
CONTINUOUS
10
102.9854940000
20
8.2089520000
11
104.0984370000
21
9.3218950000
0
LINE
5
724
100
AcDbEntity
8
05
100
AcDbLine
62
7
6
CONTINUOUS
10
105.3950670000
20
10.6185250000
11
105.4696140000
21
10.6930720000
0
LINE
5
725
100
AcDbEntity
8
05
100
AcDbLine
62
7
6
CONTINUOUS
10
103.3036920000
20
8.2089520000
11
104.0078010000
21
8.9130610000
0
LINE
5
726
100
AcDbEntity
8
05
100
AcDbLine
62
7
6
CONTINUOUS
10
105.3044300000
20
10.2096900000
11
105.7878120000
21
10.6930720000
0
LINE
5
727
100
AcDbEntity
8
05
100
AcDbLine
62
7
6
CONTINUOUS
10
103.6218900000
20
8.2089520000
11
103.9171640000
21
8.5042260000
0
LINE
5
728
100
AcDbEntity
8
05
100
AcDbLine
62
7
6
CONTINUOUS
10
105.2137940000
20
9.8008560000
11
106.1060100000
21
10.6930720000
0
LINE
5
729
100
AcDbEntity
8
05
100
AcDbLine
62
7
6
CONTINUOUS
10
105.1231580000
20
9.3920210000
11
106.4242080000
21
10.6930720000
0
LINE
5
72A
100
AcDbEntity
8
05
100
AcDbLine
62
7
6
CONTINUOUS
10
105.0325210000
20
8.9831870000
11
106.7424060000
21
10.6930720000
0
LINE
5
72B
100
AcDbEntity
8
05
100
AcDbLine
62
7
6
CONTINUOUS
10
104.9418850000
20
8.5743520000
11
107.0364400000
21
10.6689080000
0
LINE
5
72C
100
AcDbEntity
8
05
100
AcDbLine
62
7
6
CONTINUOUS
10
104.8946830000
20
8.2089520000
11
106.9458040000
21
10.2600730000
0
LINE
5
72D
100
AcDbEntity
8
05
100
AcDbLine
62
7
6
CONTINUOUS
10
105.2128810000
20
8.2089520000
11
106.8577180000
21
9.8537890000
0
LINE
5
72E
100
AcDbEntity
8
05
100
AcDbLine
62
7
6
CONTINUOUS
10
105.5310790000
20
8.2089520000
11
107.4121960000
21
10.0900700000
0
LINE
5
72F
100
AcDbEntity
8
05
100
AcDbLine
62
7
6
CONTINUOUS
10
105.8492770000
20
8.2089520000
11
107.9666750000
21
10.3263510000
0
LINE
5
730
100
AcDbEntity
8
05
100
AcDbLine
62
7
6
CONTINUOUS
10
106.1674750000
20
8.2089520000
11
106.5832580000
21
8.6247350000
0
LINE
5
731
100
AcDbEntity
8
05
100
AcDbLine
62
7
6
CONTINUOUS
10
106.9071250000
20
8.9486020000
11
108.5211540000
21
10.5626310000
0
LINE
5
732
100
AcDbEntity
8
05
100
AcDbLine
62
7
6
CONTINUOUS
10
106.4856730000
20
8.2089520000
11
106.4926210000
21
8.2159010000
0
LINE
5
733
100
AcDbEntity
8
05
100
AcDbLine
62
7
6
CONTINUOUS
10
107.3871300000
20
9.1104090000
11
108.9697930000
21
10.6930720000
0
LINE
5
734
100
AcDbEntity
8
05
100
AcDbLine
62
7
6
CONTINUOUS
10
107.5451590000
20
8.9502400000
11
109.2879910000
21
10.6930720000
0
LINE
5
735
100
AcDbEntity
8
05
100
AcDbLine
62
7
6
CONTINUOUS
10
107.7031880000
20
8.7900710000
11
109.6061890000
21
10.6930720000
0
LINE
5
736
100
AcDbEntity
8
05
100
AcDbLine
62
7
6
CONTINUOUS
10
107.8612170000
20
8.6299020000
11
109.0334790000
21
9.8021650000
0
LINE
5
737
100
AcDbEntity
8
05
100
AcDbLine
62
7
6
CONTINUOUS
10
109.1250400000
20
9.8937250000
11
109.9243870000
21
10.6930720000
0
LINE
5
738
100
AcDbEntity
8
05
100
AcDbLine
62
7
6
CONTINUOUS
10
108.0192460000
20
8.4697330000
11
109.1915080000
21
9.6419950000
0
LINE
5
739
100
AcDbEntity
8
05
100
AcDbLine
62
7
6
CONTINUOUS
10
109.6795190000
20
10.1300060000
11
110.2425850000
21
10.6930720000
0
LINE
5
73A
100
AcDbEntity
8
05
100
AcDbLine
62
7
6
CONTINUOUS
10
108.1772750000
20
8.3095640000
11
109.3495370000
21
9.4818260000
0
LINE
5
73B
100
AcDbEntity
8
05
100
AcDbLine
62
7
6
CONTINUOUS
10
110.2339980000
20
10.3662870000
11
110.5607830000
21
10.6930720000
0
LINE
5
73C
100
AcDbEntity
8
05
100
AcDbLine
62
7
6
CONTINUOUS
10
108.3948610000
20
8.2089520000
11
109.5075660000
21
9.3216570000
0
LINE
5
73D
100
AcDbEntity
8
05
100
AcDbLine
62
7
6
CONTINUOUS
10
110.7884760000
20
10.6025670000
11
110.8789810000
21
10.6930720000
0
LINE
5
73E
100
AcDbEntity
8
05
100
AcDbLine
62
7
6
CONTINUOUS
10
108.7130590000
20
8.2089520000
11
109.6655950000
21
9.1614880000
0
LINE
5
73F
100
AcDbEntity
8
05
100
AcDbLine
62
7
6
CONTINUOUS
10
109.0312570000
20
8.2089520000
11
109.8236240000
21
9.0013190000
0
LINE
5
740
100
AcDbEntity
8
05
100
AcDbLine
62
7
6
CONTINUOUS
10
109.3494550000
20
8.2089520000
11
109.9816530000
21
8.8411500000
0
LINE
5
741
100
AcDbEntity
8
05
100
AcDbLine
62
7
6
CONTINUOUS
10
109.6676530000
20
8.2089520000
11
110.1396820000
21
8.6809810000
0
LINE
5
742
100
AcDbEntity
8
05
100
AcDbLine
62
7
6
CONTINUOUS
10
109.9858510000
20
8.2089520000
11
110.2977110000
21
8.5208120000
0
LINE
5
743
100
AcDbEntity
8
05
100
AcDbLine
62
7
6
CONTINUOUS
10
110.3040500000
20
8.2089520000
11
110.4557400000
21
8.3606430000
0
LINE
5
744
100
AcDbEntity
8
05
100
AcDbLine
62
7
6
CONTINUOUS
10
115.3077010000
20
10.6670200000
11
115.3344820000
21
10.6938010000
0
LINE
5
745
100
AcDbEntity
8
05
100
AcDbLine
62
7
6
CONTINUOUS
10
114.3531070000
20
9.3942270000
11
115.6526800000
21
10.6938010000
0
LINE
5
746
100
AcDbEntity
8
05
100
AcDbLine
62
7
6
CONTINUOUS
10
113.4860300000
20
8.2089520000
11
115.9708790000
21
10.6938010000
0
LINE
5
747
100
AcDbEntity
8
05
100
AcDbLine
62
7
6
CONTINUOUS
10
113.8042280000
20
8.2089520000
11
116.2890770000
21
10.6938010000
0
LINE
5
748
100
AcDbEntity
8
05
100
AcDbLine
62
7
6
CONTINUOUS
10
114.1224260000
20
8.2089520000
11
116.6072750000
21
10.6938010000
0
LINE
5
749
100
AcDbEntity
8
05
100
AcDbLine
62
7
6
CONTINUOUS
10
114.4406240000
20
8.2089520000
11
116.9254730000
21
10.6938010000
0
LINE
5
74A
100
AcDbEntity
8
05
100
AcDbLine
62
7
6
CONTINUOUS
10
114.7588220000
20
8.2089520000
11
116.2846820000
21
9.7348120000
0
LINE
5
74B
100
AcDbEntity
8
05
100
AcDbLine
62
7
6
CONTINUOUS
10
116.8285960000
20
10.2787260000
11
117.2436710000
21
10.6938010000
0
LINE
5
74C
100
AcDbEntity
8
05
100
AcDbLine
62
7
6
CONTINUOUS
10
115.0770200000
20
8.2089520000
11
115.3300880000
21
8.4620200000
0
LINE
5
74D
100
AcDbEntity
8
05
100
AcDbLine
62
7
6
CONTINUOUS
10
116.8922360000
20
10.0241680000
11
117.5618690000
21
10.6938010000
0
LINE
5
74E
100
AcDbEntity
8
05
100
AcDbLine
62
7
6
CONTINUOUS
10
115.5570520000
20
8.6889840000
11
115.9302400000
21
9.0621710000
0
LINE
5
74F
100
AcDbEntity
8
05
100
AcDbLine
62
7
6
CONTINUOUS
10
115.8752500000
20
8.6889840000
11
116.2484380000
21
9.0621710000
0
LINE
5
750
100
AcDbEntity
8
05
100
AcDbLine
62
7
6
CONTINUOUS
10
116.9558760000
20
9.7696100000
11
117.8800670000
21
10.6938010000
0
LINE
5
751
100
AcDbEntity
8
05
100
AcDbLine
62
7
6
CONTINUOUS
10
116.1934480000
20
8.6889840000
11
116.5666360000
21
9.0621710000
0
LINE
5
752
100
AcDbEntity
8
05
100
AcDbLine
62
7
6
CONTINUOUS
10
117.0195150000
20
9.5150510000
11
118.1982650000
21
10.6938010000
0
LINE
5
753
100
AcDbEntity
8
05
100
AcDbLine
62
7
6
CONTINUOUS
10
116.5116460000
20
8.6889840000
11
116.8848340000
21
9.0621710000
0
LINE
5
754
100
AcDbEntity
8
05
100
AcDbLine
62
7
6
CONTINUOUS
10
117.0831550000
20
9.2604930000
11
118.3292860000
21
10.5066230000
0
LINE
5
755
100
AcDbEntity
8
05
100
AcDbLine
62
7
6
CONTINUOUS
10
116.8298440000
20
8.6889840000
11
118.3929250000
21
10.2520650000
0
LINE
5
756
100
AcDbEntity
8
05
100
AcDbLine
62
7
6
CONTINUOUS
10
117.1480420000
20
8.6889840000
11
118.4565650000
21
9.9975060000
0
LINE
5
757
100
AcDbEntity
8
05
100
AcDbLine
62
7
6
CONTINUOUS
10
117.2740740000
20
8.4968170000
11
118.5202040000
21
9.7429480000
0
LINE
5
758
100
AcDbEntity
8
05
100
AcDbLine
62
7
6
CONTINUOUS
10
117.3377130000
20
8.2422590000
11
118.5838440000
21
9.4883900000
0
LINE
5
759
100
AcDbEntity
8
05
100
AcDbLine
62
7
6
CONTINUOUS
10
117.6226050000
20
8.2089520000
11
118.6474840000
21
9.2338310000
0
LINE
5
75A
100
AcDbEntity
8
05
100
AcDbLine
62
7
6
CONTINUOUS
10
117.9408030000
20
8.2089520000
11
118.7111230000
21
8.9792730000
0
LINE
5
75B
100
AcDbEntity
8
05
100
AcDbLine
62
7
6
CONTINUOUS
10
119.8640330000
20
10.1321820000
11
120.2440540000
21
10.5122030000
0
LINE
5
75C
100
AcDbEntity
8
05
100
AcDbLine
62
7
6
CONTINUOUS
10
118.2590010000
20
8.2089520000
11
118.7747630000
21
8.7247140000
0
LINE
5
75D
100
AcDbEntity
8
05
100
AcDbLine
62
7
6
CONTINUOUS
10
119.7959150000
20
9.7458660000
11
120.6185860000
21
10.5685370000
0
LINE
5
75E
100
AcDbEntity
8
05
100
AcDbLine
62
7
6
CONTINUOUS
10
118.5771990000
20
8.2089520000
11
118.8384020000
21
8.4701560000
0
LINE
5
75F
100
AcDbEntity
8
05
100
AcDbLine
62
7
6
CONTINUOUS
10
119.7277970000
20
9.3595500000
11
120.9813030000
21
10.6130560000
0
LINE
5
760
100
AcDbEntity
8
05
100
AcDbLine
62
7
6
CONTINUOUS
10
118.8953970000
20
8.2089520000
11
118.9020420000
21
8.2155970000
0
LINE
5
761
100
AcDbEntity
8
05
100
AcDbLine
62
7
6
CONTINUOUS
10
119.6596790000
20
8.9732340000
11
121.3333580000
21
10.6469130000
0
LINE
5
762
100
AcDbEntity
8
05
100
AcDbLine
62
7
6
CONTINUOUS
10
119.6152770000
20
8.6106340000
11
121.6757100000
21
10.6710670000
0
LINE
5
763
100
AcDbEntity
8
05
100
AcDbLine
62
7
6
CONTINUOUS
10
119.7378940000
20
8.4150530000
11
122.0091650000
21
10.6863240000
0
LINE
5
764
100
AcDbEntity
8
05
100
AcDbLine
62
7
6
CONTINUOUS
10
119.9839510000
20
8.3429130000
11
121.3408190000
21
9.6997800000
0
LINE
5
765
100
AcDbEntity
8
05
100
AcDbLine
62
7
6
CONTINUOUS
10
121.8827100000
20
10.2416710000
11
122.3344090000
21
10.6933700000
0
LINE
5
766
100
AcDbEntity
8
05
100
AcDbLine
62
7
6
CONTINUOUS
10
120.2652030000
20
8.3059660000
11
121.2727010000
21
9.3134640000
0
LINE
5
767
100
AcDbEntity
8
05
100
AcDbLine
62
7
6
CONTINUOUS
10
122.2192190000
20
10.2599820000
11
122.6520320000
21
10.6927950000
0
LINE
5
768
100
AcDbEntity
8
05
100
AcDbLine
62
7
6
CONTINUOUS
10
120.5518220000
20
8.2743870000
11
121.2250940000
21
8.9476590000
0
LINE
5
769
100
AcDbEntity
8
05
100
AcDbLine
62
7
6
CONTINUOUS
10
122.5263210000
20
10.2488860000
11
122.9625450000
21
10.6851100000
0
LINE
5
76A
100
AcDbEntity
8
05
100
AcDbLine
62
7
6
CONTINUOUS
10
120.8440880000
20
8.2484550000
11
121.3438720000
21
8.7482390000
0
LINE
5
76B
100
AcDbEntity
8
05
100
AcDbLine
62
7
6
CONTINUOUS
10
122.8104210000
20
10.2147880000
11
123.2663950000
21
10.6707620000
0
LINE
5
76C
100
AcDbEntity
8
05
100
AcDbLine
62
7
6
CONTINUOUS
10
121.1423120000
20
8.2284810000
11
121.5883040000
21
8.6744730000
0
LINE
5
76D
100
AcDbEntity
8
05
100
AcDbLine
62
7
6
CONTINUOUS
10
123.0259950000
20
10.1121640000
11
123.5639730000
21
10.6501420000
0
LINE
5
76E
100
AcDbEntity
8
05
100
AcDbLine
62
7
6
CONTINUOUS
10
121.4468470000
20
8.2148180000
11
121.8836220000
21
8.6515930000
0
LINE
5
76F
100
AcDbEntity
8
05
100
AcDbLine
62
7
6
CONTINUOUS
10
123.1960220000
20
9.9639930000
11
123.8556280000
21
10.6235990000
0
LINE
5
770
100
AcDbEntity
8
05
100
AcDbLine
62
7
6
CONTINUOUS
10
122.3537820000
20
9.1217520000
11
122.5334060000
21
9.3013760000
0
LINE
5
771
100
AcDbEntity
8
05
100
AcDbLine
62
7
6
CONTINUOUS
10
121.7580900000
20
8.2078620000
11
122.2048330000
21
8.6546050000
0
LINE
5
772
100
AcDbEntity
8
05
100
AcDbLine
62
7
6
CONTINUOUS
10
123.5142200000
20
9.9639930000
11
124.1416670000
21
10.5914400000
0
LINE
5
773
100
AcDbEntity
8
05
100
AcDbLine
62
7
6
CONTINUOUS
10
122.6288760000
20
9.0786490000
11
122.8516040000
21
9.3013760000
0
LINE
5
774
100
AcDbEntity
8
05
100
AcDbLine
62
7
6
CONTINUOUS
10
122.0764930000
20
8.2080680000
11
122.5603930000
21
8.6919670000
0
LINE
5
775
100
AcDbEntity
8
05
100
AcDbLine
62
7
6
CONTINUOUS
10
123.8324180000
20
9.9639930000
11
124.4223670000
21
10.5539410000
0
LINE
5
776
100
AcDbEntity
8
05
100
AcDbLine
62
7
6
CONTINUOUS
10
122.9470740000
20
9.0786490000
11
123.1698020000
21
9.3013760000
0
LINE
5
777
100
AcDbEntity
8
05
100
AcDbLine
62
7
6
CONTINUOUS
10
122.4025750000
20
8.2159520000
11
123.4880000000
21
9.3013760000
0
LINE
5
778
100
AcDbEntity
8
05
100
AcDbLine
62
7
6
CONTINUOUS
10
124.1506160000
20
9.9639930000
11
124.6387420000
21
10.4521180000
0
LINE
5
779
100
AcDbEntity
8
05
100
AcDbLine
62
7
6
CONTINUOUS
10
122.7369360000
20
8.2321150000
11
123.8061980000
21
9.3013760000
0
LINE
5
77A
100
AcDbEntity
8
05
100
AcDbLine
62
7
6
CONTINUOUS
10
124.4688140000
20
9.9639930000
11
124.7195490000
21
10.2147280000
0
LINE
5
77B
100
AcDbEntity
8
05
100
AcDbLine
62
7
6
CONTINUOUS
10
123.0319720000
20
8.2089520000
11
124.1243960000
21
9.3013760000
0
LINE
5
77C
100
AcDbEntity
8
05
100
AcDbLine
62
7
6
CONTINUOUS
10
123.3501700000
20
8.2089520000
11
124.4425940000
21
9.3013760000
0
LINE
5
77D
100
AcDbEntity
8
05
100
AcDbLine
62
7
6
CONTINUOUS
10
123.6683680000
20
8.2089520000
11
124.5166470000
21
9.0572320000
0
LINE
5
77E
100
AcDbEntity
8
05
100
AcDbLine
62
7
6
CONTINUOUS
10
123.9865660000
20
8.2089520000
11
124.4485290000
21
8.6709160000
0
LINE
5
77F
100
AcDbEntity
8
05
100
AcDbLine
62
7
6
CONTINUOUS
10
124.3047640000
20
8.2089520000
11
124.3804110000
21
8.2846000000
0
LINE
5
780
100
AcDbEntity
8
05
100
AcDbLine
62
7
6
CONTINUOUS
10
99.8961450000
20
8.2089520000
11
99.6025370000
21
8.5025600000
0
LINE
5
781
100
AcDbEntity
8
05
100
AcDbLine
62
7
6
CONTINUOUS
10
98.1776440000
20
9.9274530000
11
97.4120250000
21
10.6930720000
0
LINE
5
782
100
AcDbEntity
8
05
100
AcDbLine
62
7
6
CONTINUOUS
10
98.9698570000
20
9.1352400000
11
98.6798790000
21
9.4252180000
0
LINE
5
783
100
AcDbEntity
8
05
100
AcDbLine
62
7
6
CONTINUOUS
10
98.6516590000
20
9.1352400000
11
98.3616810000
21
9.4252180000
0
LINE
5
784
100
AcDbEntity
8
05
100
AcDbLine
62
7
6
CONTINUOUS
10
98.1199030000
20
9.6669960000
11
97.0938270000
21
10.6930720000
0
LINE
5
785
100
AcDbEntity
8
05
100
AcDbLine
62
7
6
CONTINUOUS
10
98.3334610000
20
9.1352400000
11
96.7756290000
21
10.6930720000
0
LINE
5
786
100
AcDbEntity
8
05
100
AcDbLine
62
7
6
CONTINUOUS
10
98.0152630000
20
9.1352400000
11
96.6064980000
21
10.5440050000
0
LINE
5
787
100
AcDbEntity
8
05
100
AcDbLine
62
7
6
CONTINUOUS
10
97.9466770000
20
8.8856280000
11
96.5487570000
21
10.2835480000
0
LINE
5
788
100
AcDbEntity
8
05
100
AcDbLine
62
7
6
CONTINUOUS
10
97.8889360000
20
8.6251710000
11
96.4910150000
21
10.0230920000
0
LINE
5
789
100
AcDbEntity
8
05
100
AcDbLine
62
7
6
CONTINUOUS
10
96.0462220000
20
10.4678850000
11
95.8210350000
21
10.6930720000
0
LINE
5
78A
100
AcDbEntity
8
05
100
AcDbLine
62
7
6
CONTINUOUS
10
97.8311940000
20
8.3647150000
11
96.4332730000
21
9.7626360000
0
LINE
5
78B
100
AcDbEntity
8
05
100
AcDbLine
62
7
6
CONTINUOUS
10
95.9884800000
20
10.2074290000
11
95.5028370000
21
10.6930720000
0
LINE
5
78C
100
AcDbEntity
8
05
100
AcDbLine
62
7
6
CONTINUOUS
10
97.6687580000
20
8.2089520000
11
96.3755310000
21
9.5021790000
0
LINE
5
78D
100
AcDbEntity
8
05
100
AcDbLine
62
7
6
CONTINUOUS
10
95.8056690000
20
10.0720420000
11
95.1846390000
21
10.6930720000
0
LINE
5
78E
100
AcDbEntity
8
05
100
AcDbLine
62
7
6
CONTINUOUS
10
97.3505600000
20
8.2089520000
11
96.3177890000
21
9.2417230000
0
LINE
5
78F
100
AcDbEntity
8
05
100
AcDbLine
62
7
6
CONTINUOUS
10
95.4874710000
20
10.0720420000
11
94.8664410000
21
10.6930720000
0
LINE
5
790
100
AcDbEntity
8
05
100
AcDbLine
62
7
6
CONTINUOUS
10
97.0323620000
20
8.2089520000
11
96.2600480000
21
8.9812670000
0
LINE
5
791
100
AcDbEntity
8
05
100
AcDbLine
62
7
6
CONTINUOUS
10
95.1692730000
20
10.0720420000
11
94.5482430000
21
10.6930720000
0
LINE
5
792
100
AcDbEntity
8
05
100
AcDbLine
62
7
6
CONTINUOUS
10
96.7141640000
20
8.2089520000
11
96.2023060000
21
8.7208110000
0
LINE
5
793
100
AcDbEntity
8
05
100
AcDbLine
62
7
6
CONTINUOUS
10
94.8510750000
20
10.0720420000
11
94.2300450000
21
10.6930720000
0
LINE
5
794
100
AcDbEntity
8
05
100
AcDbLine
62
7
6
CONTINUOUS
10
96.3959660000
20
8.2089520000
11
96.1445640000
21
8.4603540000
0
LINE
5
795
100
AcDbEntity
8
05
100
AcDbLine
62
7
6
CONTINUOUS
10
94.5328760000
20
10.0720420000
11
93.9118470000
21
10.6930720000
0
LINE
5
796
100
AcDbEntity
8
05
100
AcDbLine
62
7
6
CONTINUOUS
10
94.3076510000
20
9.9790700000
11
93.5936480000
21
10.6930720000
0
LINE
5
797
100
AcDbEntity
8
05
100
AcDbLine
62
7
6
CONTINUOUS
10
94.2499090000
20
9.7186140000
11
93.2754500000
21
10.6930720000
0
LINE
5
798
100
AcDbEntity
8
05
100
AcDbLine
62
7
6
CONTINUOUS
10
94.1921670000
20
9.4581570000
11
92.9572520000
21
10.6930720000
0
LINE
5
799
100
AcDbEntity
8
05
100
AcDbLine
62
7
6
CONTINUOUS
10
94.1344250000
20
9.1977010000
11
92.6390540000
21
10.6930720000
0
LINE
5
79A
100
AcDbEntity
8
05
100
AcDbLine
62
7
6
CONTINUOUS
10
94.0766830000
20
8.9372450000
11
92.3208560000
21
10.6930720000
0
LINE
5
79B
100
AcDbEntity
8
05
100
AcDbLine
62
7
6
CONTINUOUS
10
94.0189420000
20
8.6767880000
11
92.0026580000
21
10.6930720000
0
LINE
5
79C
100
AcDbEntity
8
05
100
AcDbLine
62
7
6
CONTINUOUS
10
93.9612000000
20
8.4163320000
11
92.5632790000
21
9.8142530000
0
LINE
5
79D
100
AcDbEntity
8
05
100
AcDbLine
62
7
6
CONTINUOUS
10
92.3054900000
20
10.0720420000
11
91.6844600000
21
10.6930720000
0
LINE
5
79E
100
AcDbEntity
8
05
100
AcDbLine
62
7
6
CONTINUOUS
10
93.8503820000
20
8.2089520000
11
92.5055370000
21
9.5537970000
0
LINE
5
79F
100
AcDbEntity
8
05
100
AcDbLine
62
7
6
CONTINUOUS
10
91.9872920000
20
10.0720420000
11
91.3662620000
21
10.6930720000
0
LINE
5
7A0
100
AcDbEntity
8
05
100
AcDbLine
62
7
6
CONTINUOUS
10
93.5321840000
20
8.2089520000
11
92.4477960000
21
9.2933400000
0
LINE
5
7A1
100
AcDbEntity
8
05
100
AcDbLine
62
7
6
CONTINUOUS
10
91.6690940000
20
10.0720420000
11
91.1769590000
21
10.5641770000
0
LINE
5
7A2
100
AcDbEntity
8
05
100
AcDbLine
62
7
6
CONTINUOUS
10
93.2139860000
20
8.2089520000
11
92.3900540000
21
9.0328840000
0
LINE
5
7A3
100
AcDbEntity
8
05
100
AcDbLine
62
7
6
CONTINUOUS
10
90.7492670000
20
10.6736710000
11
90.7298660000
21
10.6930720000
0
LINE
5
7A4
100
AcDbEntity
8
05
100
AcDbLine
62
7
6
CONTINUOUS
10
91.3508960000
20
10.0720420000
11
91.1192170000
21
10.3037210000
0
LINE
5
7A5
100
AcDbEntity
8
05
100
AcDbLine
62
7
6
CONTINUOUS
10
92.8957880000
20
8.2089520000
11
92.3323120000
21
8.7724280000
0
LINE
5
7A6
100
AcDbEntity
8
05
100
AcDbLine
62
7
6
CONTINUOUS
10
90.6915250000
20
10.4132140000
11
90.4116680000
21
10.6930720000
0
LINE
5
7A7
100
AcDbEntity
8
05
100
AcDbLine
62
7
6
CONTINUOUS
10
92.5775900000
20
8.2089520000
11
92.2745700000
21
8.5119710000
0
LINE
5
7A8
100
AcDbEntity
8
05
100
AcDbLine
62
7
6
CONTINUOUS
10
90.6337840000
20
10.1527580000
11
90.0934700000
21
10.6930720000
0
LINE
5
7A9
100
AcDbEntity
8
05
100
AcDbLine
62
7
6
CONTINUOUS
10
92.2593920000
20
8.2089520000
11
92.2168290000
21
8.2515150000
0
LINE
5
7AA
100
AcDbEntity
8
05
100
AcDbLine
62
7
6
CONTINUOUS
10
90.5760420000
20
9.8923020000
11
89.7752720000
21
10.6930720000
0
LINE
5
7AB
100
AcDbEntity
8
05
100
AcDbLine
62
7
6
CONTINUOUS
10
90.5183000000
20
9.6318460000
11
89.4570740000
21
10.6930720000
0
LINE
5
7AC
100
AcDbEntity
8
05
100
AcDbLine
62
7
6
CONTINUOUS
10
90.4605580000
20
9.3713890000
11
89.1388760000
21
10.6930720000
0
LINE
5
7AD
100
AcDbEntity
8
05
100
AcDbLine
62
7
6
CONTINUOUS
10
90.4028170000
20
9.1109330000
11
89.0084280000
21
10.5053220000
0
LINE
5
7AE
100
AcDbEntity
8
05
100
AcDbLine
62
7
6
CONTINUOUS
10
90.3450750000
20
8.8504770000
11
88.9506860000
21
10.2448650000
0
LINE
5
7AF
100
AcDbEntity
8
05
100
AcDbLine
62
7
6
CONTINUOUS
10
90.2138080000
20
8.6635450000
11
88.8929450000
21
9.9844090000
0
LINE
5
7B0
100
AcDbEntity
8
05
100
AcDbLine
62
7
6
CONTINUOUS
10
90.0174480000
20
8.5417070000
11
88.8352030000
21
9.7239530000
0
LINE
5
7B1
100
AcDbEntity
8
05
100
AcDbLine
62
7
6
CONTINUOUS
10
89.8026520000
20
8.4383050000
11
88.7774610000
21
9.4634960000
0
LINE
5
7B2
100
AcDbEntity
8
05
100
AcDbLine
62
7
6
CONTINUOUS
10
89.5671730000
20
8.3555860000
11
88.7197190000
21
9.2030400000
0
LINE
5
7B3
100
AcDbEntity
8
05
100
AcDbLine
62
7
6
CONTINUOUS
10
89.3151830000
20
8.2893790000
11
88.6187120000
21
8.9858500000
0
LINE
5
7B4
100
AcDbEntity
8
05
100
AcDbLine
62
7
6
CONTINUOUS
10
87.1186190000
20
10.4859430000
11
86.9114890000
21
10.6930720000
0
LINE
5
7B5
100
AcDbEntity
8
05
100
AcDbLine
62
7
6
CONTINUOUS
10
89.0511440000
20
8.2352190000
11
88.4221760000
21
8.8641880000
0
LINE
5
7B6
100
AcDbEntity
8
05
100
AcDbLine
62
7
6
CONTINUOUS
10
87.0608770000
20
10.2254860000
11
86.5932910000
21
10.6930720000
0
LINE
5
7B7
100
AcDbEntity
8
05
100
AcDbLine
62
7
6
CONTINUOUS
10
88.7736700000
20
8.1944950000
11
88.1774040000
21
8.7907610000
0
LINE
5
7B8
100
AcDbEntity
8
05
100
AcDbLine
62
7
6
CONTINUOUS
10
87.0031350000
20
9.9650300000
11
86.2750930000
21
10.6930720000
0
LINE
5
7B9
100
AcDbEntity
8
05
100
AcDbLine
62
7
6
CONTINUOUS
10
88.4851820000
20
8.1647850000
11
87.8938350000
21
8.7561320000
0
LINE
5
7BA
100
AcDbEntity
8
05
100
AcDbLine
62
7
6
CONTINUOUS
10
86.9453930000
20
9.7045740000
11
85.9568950000
21
10.6930720000
0
LINE
5
7BB
100
AcDbEntity
8
05
100
AcDbLine
62
7
6
CONTINUOUS
10
88.1877790000
20
8.1439900000
11
87.5712750000
21
8.7604950000
0
LINE
5
7BC
100
AcDbEntity
8
05
100
AcDbLine
62
7
6
CONTINUOUS
10
86.8876520000
20
9.4441170000
11
85.6386970000
21
10.6930720000
0
LINE
5
7BD
100
AcDbEntity
8
05
100
AcDbLine
62
7
6
CONTINUOUS
10
87.8806500000
20
8.1329210000
11
87.1766500000
21
8.8369210000
0
LINE
5
7BE
100
AcDbEntity
8
05
100
AcDbLine
62
7
6
CONTINUOUS
10
86.8299100000
20
9.1836610000
11
85.4355100000
21
10.5780610000
0
LINE
5
7BF
100
AcDbEntity
8
05
100
AcDbLine
62
7
6
CONTINUOUS
10
87.5628170000
20
8.1325560000
11
85.3777680000
21
10.3176050000
0
LINE
5
7C0
100
AcDbEntity
8
05
100
AcDbLine
62
7
6
CONTINUOUS
10
87.2330740000
20
8.1441010000
11
85.3200260000
21
10.0571490000
0
LINE
5
7C1
100
AcDbEntity
8
05
100
AcDbLine
62
7
6
CONTINUOUS
10
84.6846080000
20
10.6925670000
11
84.6841030000
21
10.6930720000
0
LINE
5
7C2
100
AcDbEntity
8
05
100
AcDbLine
62
7
6
CONTINUOUS
10
86.8899190000
20
8.1690580000
11
85.2622840000
21
9.7966920000
0
LINE
5
7C3
100
AcDbEntity
8
05
100
AcDbLine
62
7
6
CONTINUOUS
10
84.6268660000
20
10.4321110000
11
84.3659050000
21
10.6930720000
0
LINE
5
7C4
100
AcDbEntity
8
05
100
AcDbLine
62
7
6
CONTINUOUS
10
86.5309040000
20
8.2098750000
11
85.2045430000
21
9.5362360000
0
LINE
5
7C5
100
AcDbEntity
8
05
100
AcDbLine
62
7
6
CONTINUOUS
10
84.4876850000
20
10.2530940000
11
84.0477070000
21
10.6930720000
0
LINE
5
7C6
100
AcDbEntity
8
05
100
AcDbLine
62
7
6
CONTINUOUS
10
86.1408320000
20
8.2817490000
11
85.1468010000
21
9.2757800000
0
LINE
5
7C7
100
AcDbEntity
8
05
100
AcDbLine
62
7
6
CONTINUOUS
10
84.1694870000
20
10.2530940000
11
83.7295090000
21
10.6930720000
0
LINE
5
7C8
100
AcDbEntity
8
05
100
AcDbLine
62
7
6
CONTINUOUS
10
85.6959590000
20
8.4084240000
11
85.0890590000
21
9.0153240000
0
LINE
5
7C9
100
AcDbEntity
8
05
100
AcDbLine
62
7
6
CONTINUOUS
10
83.8512890000
20
10.2530940000
11
83.4113110000
21
10.6930720000
0
LINE
5
7CA
100
AcDbEntity
8
05
100
AcDbLine
62
7
6
CONTINUOUS
10
84.2052730000
20
9.5809110000
11
84.1901830000
21
9.5960010000
0
LINE
5
7CB
100
AcDbEntity
8
05
100
AcDbLine
62
7
6
CONTINUOUS
10
83.5330910000
20
10.2530940000
11
83.0931130000
21
10.6930720000
0
LINE
5
7CC
100
AcDbEntity
8
05
100
AcDbLine
62
7
6
CONTINUOUS
10
84.1475320000
20
9.3204550000
11
83.8719850000
21
9.5960010000
0
LINE
5
7CD
100
AcDbEntity
8
05
100
AcDbLine
62
7
6
CONTINUOUS
10
83.2148930000
20
10.2530940000
11
82.7749150000
21
10.6930720000
0
LINE
5
7CE
100
AcDbEntity
8
05
100
AcDbLine
62
7
6
CONTINUOUS
10
83.8437660000
20
9.3060230000
11
83.5537870000
21
9.5960010000
0
LINE
5
7CF
100
AcDbEntity
8
05
100
AcDbLine
62
7
6
CONTINUOUS
10
82.8966950000
20
10.2530940000
11
82.4567170000
21
10.6930720000
0
LINE
5
7D0
100
AcDbEntity
8
05
100
AcDbLine
62
7
6
CONTINUOUS
10
84.2226740000
20
8.6089170000
11
84.1826600000
21
8.6489310000
0
LINE
5
7D1
100
AcDbEntity
8
05
100
AcDbLine
62
7
6
CONTINUOUS
10
82.5784970000
20
10.2530940000
11
82.1385190000
21
10.6930720000
0
LINE
5
7D2
100
AcDbEntity
8
05
100
AcDbLine
62
7
6
CONTINUOUS
10
83.5255680000
20
9.3060230000
11
83.2355890000
21
9.5960010000
0
LINE
5
7D3
100
AcDbEntity
8
05
100
AcDbLine
62
7
6
CONTINUOUS
10
84.1649320000
20
8.3484610000
11
83.8644620000
21
8.6489310000
0
LINE
5
7D4
100
AcDbEntity
8
05
100
AcDbLine
62
7
6
CONTINUOUS
10
82.2602990000
20
10.2530940000
11
81.8203210000
21
10.6930720000
0
LINE
5
7D5
100
AcDbEntity
8
05
100
AcDbLine
62
7
6
CONTINUOUS
10
83.2073700000
20
9.3060230000
11
82.9173910000
21
9.5960010000
0
LINE
5
7D6
100
AcDbEntity
8
05
100
AcDbLine
62
7
6
CONTINUOUS
10
83.9862420000
20
8.2089520000
11
83.5462640000
21
8.6489310000
0
LINE
5
7D7
100
AcDbEntity
8
05
100
AcDbLine
62
7
6
CONTINUOUS
10
81.9421010000
20
10.2530940000
11
81.5021230000
21
10.6930720000
0
LINE
5
7D8
100
AcDbEntity
8
05
100
AcDbLine
62
7
6
CONTINUOUS
10
82.8891720000
20
9.3060230000
11
82.5991930000
21
9.5960010000
0
LINE
5
7D9
100
AcDbEntity
8
05
100
AcDbLine
62
7
6
CONTINUOUS
10
83.6680440000
20
8.2089520000
11
83.2280660000
21
8.6489310000
0
LINE
5
7DA
100
AcDbEntity
8
05
100
AcDbLine
62
7
6
CONTINUOUS
10
81.6348580000
20
10.2421380000
11
81.1839240000
21
10.6930720000
0
LINE
5
7DB
100
AcDbEntity
8
05
100
AcDbLine
62
7
6
CONTINUOUS
10
82.5709740000
20
9.3060230000
11
82.2809950000
21
9.5960010000
0
LINE
5
7DC
100
AcDbEntity
8
05
100
AcDbLine
62
7
6
CONTINUOUS
10
83.3498460000
20
8.2089520000
11
82.9098680000
21
8.6489310000
0
LINE
5
7DD
100
AcDbEntity
8
05
100
AcDbLine
62
7
6
CONTINUOUS
10
81.5771160000
20
9.9816820000
11
80.8657260000
21
10.6930720000
0
LINE
5
7DE
100
AcDbEntity
8
05
100
AcDbLine
62
7
6
CONTINUOUS
10
82.2527750000
20
9.3060230000
11
81.9627970000
21
9.5960010000
0
LINE
5
7DF
100
AcDbEntity
8
05
100
AcDbLine
62
7
6
CONTINUOUS
10
83.0316480000
20
8.2089520000
11
82.5916700000
21
8.6489310000
0
LINE
5
7E0
100
AcDbEntity
8
05
100
AcDbLine
62
7
6
CONTINUOUS
10
81.5193740000
20
9.7212260000
11
80.5475280000
21
10.6930720000
0
LINE
5
7E1
100
AcDbEntity
8
05
100
AcDbLine
62
7
6
CONTINUOUS
10
81.9345770000
20
9.3060230000
11
81.6445990000
21
9.5960010000
0
LINE
5
7E2
100
AcDbEntity
8
05
100
AcDbLine
62
7
6
CONTINUOUS
10
82.7134500000
20
8.2089520000
11
82.2734720000
21
8.6489310000
0
LINE
5
7E3
100
AcDbEntity
8
05
100
AcDbLine
62
7
6
CONTINUOUS
10
81.6163790000
20
9.3060230000
11
80.2293300000
21
10.6930720000
0
LINE
5
7E4
100
AcDbEntity
8
05
100
AcDbLine
62
7
6
CONTINUOUS
10
82.3952520000
20
8.2089520000
11
81.9552740000
21
8.6489310000
0
LINE
5
7E5
100
AcDbEntity
8
05
100
AcDbLine
62
7
6
CONTINUOUS
10
81.4038910000
20
9.2003130000
11
80.0059700000
21
10.5982340000
0
LINE
5
7E6
100
AcDbEntity
8
05
100
AcDbLine
62
7
6
CONTINUOUS
10
82.0770540000
20
8.2089520000
11
81.6370750000
21
8.6489310000
0
LINE
5
7E7
100
AcDbEntity
8
05
100
AcDbLine
62
7
6
CONTINUOUS
10
81.3461490000
20
8.9398570000
11
79.9482280000
21
10.3377780000
0
LINE
5
7E8
100
AcDbEntity
8
05
100
AcDbLine
62
7
6
CONTINUOUS
10
81.7588560000
20
8.2089520000
11
81.3188770000
21
8.6489310000
0
LINE
5
7E9
100
AcDbEntity
8
05
100
AcDbLine
62
7
6
CONTINUOUS
10
81.2884070000
20
8.6794010000
11
79.8904870000
21
10.0773220000
0
LINE
5
7EA
100
AcDbEntity
8
05
100
AcDbLine
62
7
6
CONTINUOUS
10
81.4406580000
20
8.2089520000
11
79.8327450000
21
9.8168650000
0
LINE
5
7EB
100
AcDbEntity
8
05
100
AcDbLine
62
7
6
CONTINUOUS
10
79.1337840000
20
10.5158260000
11
78.9565380000
21
10.6930720000
0
LINE
5
7EC
100
AcDbEntity
8
05
100
AcDbLine
62
7
6
CONTINUOUS
10
81.1224600000
20
8.2089520000
11
79.7750030000
21
9.5564090000
0
LINE
5
7ED
100
AcDbEntity
8
05
100
AcDbLine
62
7
6
CONTINUOUS
10
79.0760430000
20
10.2553690000
11
78.6383400000
21
10.6930720000
0
LINE
5
7EE
100
AcDbEntity
8
05
100
AcDbLine
62
7
6
CONTINUOUS
10
80.8042620000
20
8.2089520000
11
79.7172610000
21
9.2959530000
0
LINE
5
7EF
100
AcDbEntity
8
05
100
AcDbLine
62
7
6
CONTINUOUS
10
79.0183010000
20
9.9949130000
11
78.3201420000
21
10.6930720000
0
LINE
5
7F0
100
AcDbEntity
8
05
100
AcDbLine
62
7
6
CONTINUOUS
10
80.4860640000
20
8.2089520000
11
79.6595200000
21
9.0354960000
0
LINE
5
7F1
100
AcDbEntity
8
05
100
AcDbLine
62
7
6
CONTINUOUS
10
78.9605590000
20
9.7344570000
11
78.0019440000
21
10.6930720000
0
LINE
5
7F2
100
AcDbEntity
8
05
100
AcDbLine
62
7
6
CONTINUOUS
10
80.1678660000
20
8.2089520000
11
79.6017780000
21
8.7750400000
0
LINE
5
7F3
100
AcDbEntity
8
05
100
AcDbLine
62
7
6
CONTINUOUS
10
78.9028170000
20
9.4740000000
11
77.6837460000
21
10.6930720000
0
LINE
5
7F4
100
AcDbEntity
8
05
100
AcDbLine
62
7
6
CONTINUOUS
10
79.8496680000
20
8.2089520000
11
79.5440360000
21
8.5145840000
0
LINE
5
7F5
100
AcDbEntity
8
05
100
AcDbLine
62
7
6
CONTINUOUS
10
78.8450760000
20
9.2135440000
11
77.4471550000
21
10.6114650000
0
LINE
5
7F6
100
AcDbEntity
8
05
100
AcDbLine
62
7
6
CONTINUOUS
10
79.5314700000
20
8.2089520000
11
79.4862940000
21
8.2541280000
0
LINE
5
7F7
100
AcDbEntity
8
05
100
AcDbLine
62
7
6
CONTINUOUS
10
78.7873340000
20
8.9530880000
11
77.3894130000
21
10.3510090000
0
LINE
5
7F8
100
AcDbEntity
8
05
100
AcDbLine
62
7
6
CONTINUOUS
10
78.7295920000
20
8.6926320000
11
77.3316710000
21
10.0905520000
0
LINE
5
7F9
100
AcDbEntity
8
05
100
AcDbLine
62
7
6
CONTINUOUS
10
78.6718500000
20
8.4321750000
11
77.2739300000
21
9.8300960000
0
LINE
5
7FA
100
AcDbEntity
8
05
100
AcDbLine
62
7
6
CONTINUOUS
10
78.5768750000
20
8.2089520000
11
77.0733040000
21
9.7125240000
0
LINE
5
7FB
100
AcDbEntity
8
05
100
AcDbLine
62
7
6
CONTINUOUS
10
78.2586770000
20
8.2089520000
11
75.9995820000
21
10.4680470000
0
LINE
5
7FC
100
AcDbEntity
8
05
100
AcDbLine
62
7
6
CONTINUOUS
10
77.9404790000
20
8.2089520000
11
75.4563600000
21
10.6930720000
0
LINE
5
7FD
100
AcDbEntity
8
05
100
AcDbLine
62
7
6
CONTINUOUS
10
77.6222810000
20
8.2089520000
11
75.1381610000
21
10.6930720000
0
LINE
5
7FE
100
AcDbEntity
8
05
100
AcDbLine
62
7
6
CONTINUOUS
10
77.3040830000
20
8.2089520000
11
74.8199630000
21
10.6930720000
0
LINE
5
7FF
100
AcDbEntity
8
05
100
AcDbLine
62
7
6
CONTINUOUS
10
76.9858850000
20
8.2089520000
11
74.5017650000
21
10.6930720000
0
LINE
5
800
100
AcDbEntity
8
05
100
AcDbLine
62
7
6
CONTINUOUS
10
76.5426650000
20
8.3339750000
11
74.1835670000
21
10.6930720000
0
LINE
5
801
100
AcDbEntity
8
05
100
AcDbLine
62
7
6
CONTINUOUS
10
75.0963650000
20
9.4620760000
11
73.8653690000
21
10.6930720000
0
LINE
5
802
100
AcDbEntity
8
05
100
AcDbLine
62
7
6
CONTINUOUS
10
75.0386240000
20
9.2016200000
11
73.6407030000
21
10.5995400000
0
LINE
5
803
100
AcDbEntity
8
05
100
AcDbLine
62
7
6
CONTINUOUS
10
74.9808820000
20
8.9411630000
11
73.5829610000
21
10.3390840000
0
LINE
5
804
100
AcDbEntity
8
05
100
AcDbLine
62
7
6
CONTINUOUS
10
74.9231400000
20
8.6807070000
11
73.5252190000
21
10.0786280000
0
LINE
5
805
100
AcDbEntity
8
05
100
AcDbLine
62
7
6
CONTINUOUS
10
74.8653980000
20
8.4202510000
11
73.4674780000
21
9.8181710000
0
LINE
5
806
100
AcDbEntity
8
05
100
AcDbLine
62
7
6
CONTINUOUS
10
74.7584990000
20
8.2089520000
11
73.4097360000
21
9.5577150000
0
LINE
5
807
100
AcDbEntity
8
05
100
AcDbLine
62
7
6
CONTINUOUS
10
74.4403010000
20
8.2089520000
11
73.3519940000
21
9.2972590000
0
LINE
5
808
100
AcDbEntity
8
05
100
AcDbLine
62
7
6
CONTINUOUS
10
74.1221030000
20
8.2089520000
11
73.2942520000
21
9.0368030000
0
LINE
5
809
100
AcDbEntity
8
05
100
AcDbLine
62
7
6
CONTINUOUS
10
73.8039050000
20
8.2089520000
11
73.2365110000
21
8.7763460000
0
LINE
5
80A
100
AcDbEntity
8
05
100
AcDbLine
62
7
6
CONTINUOUS
10
73.4857070000
20
8.2089520000
11
73.1787690000
21
8.5158900000
0
LINE
5
80B
100
AcDbEntity
8
05
100
AcDbLine
62
7
6
CONTINUOUS
10
73.1675080000
20
8.2089520000
11
73.1210270000
21
8.2554340000
0
LINE
5
80C
100
AcDbEntity
8
05
100
AcDbLine
62
7
6
CONTINUOUS
10
100.2143430000
20
8.2089520000
11
99.6229950000
21
8.8003000000
0
LINE
5
80D
100
AcDbEntity
8
05
100
AcDbLine
62
7
6
CONTINUOUS
10
98.2353860000
20
10.1879090000
11
97.7302230000
21
10.6930720000
0
LINE
5
80E
100
AcDbEntity
8
05
100
AcDbLine
62
7
6
CONTINUOUS
10
99.2880550000
20
9.1352400000
11
98.9980770000
21
9.4252180000
0
LINE
5
80F
100
AcDbEntity
8
05
100
AcDbLine
62
7
6
CONTINUOUS
10
100.5325410000
20
8.2089520000
11
99.3162750000
21
9.4252180000
0
LINE
5
810
100
AcDbEntity
8
05
100
AcDbLine
62
7
6
CONTINUOUS
10
98.4884000000
20
10.2530940000
11
98.0484210000
21
10.6930720000
0
LINE
5
811
100
AcDbEntity
8
05
100
AcDbLine
62
7
6
CONTINUOUS
10
100.8507390000
20
8.2089520000
11
99.5865410000
21
9.4731500000
0
LINE
5
812
100
AcDbEntity
8
05
100
AcDbLine
62
7
6
CONTINUOUS
10
98.8065980000
20
10.2530940000
11
98.3666190000
21
10.6930720000
0
LINE
5
813
100
AcDbEntity
8
05
100
AcDbLine
62
7
6
CONTINUOUS
10
101.1689370000
20
8.2089520000
11
99.7895650000
21
9.5883250000
0
LINE
5
814
100
AcDbEntity
8
05
100
AcDbLine
62
7
6
CONTINUOUS
10
99.1247960000
20
10.2530940000
11
98.6848170000
21
10.6930720000
0
LINE
5
815
100
AcDbEntity
8
05
100
AcDbLine
62
7
6
CONTINUOUS
10
101.3114220000
20
8.3846650000
11
99.9276840000
21
9.7684040000
0
LINE
5
816
100
AcDbEntity
8
05
100
AcDbLine
62
7
6
CONTINUOUS
10
99.4429940000
20
10.2530940000
11
99.0030150000
21
10.6930720000
0
LINE
5
817
100
AcDbEntity
8
05
100
AcDbLine
62
7
6
CONTINUOUS
10
101.3236390000
20
8.6906470000
11
99.9146710000
21
10.0996140000
0
LINE
5
818
100
AcDbEntity
8
05
100
AcDbLine
62
7
6
CONTINUOUS
10
99.7916150000
20
10.2226700000
11
99.3212130000
21
10.6930720000
0
LINE
5
819
100
AcDbEntity
8
05
100
AcDbLine
62
7
6
CONTINUOUS
10
101.3444350000
20
8.9880480000
11
99.6394110000
21
10.6930720000
0
LINE
5
81A
100
AcDbEntity
8
05
100
AcDbLine
62
7
6
CONTINUOUS
10
102.4417290000
20
8.2089520000
11
102.1979220000
21
8.4527590000
0
LINE
5
81B
100
AcDbEntity
8
05
100
AcDbLine
62
7
6
CONTINUOUS
10
101.2866150000
20
9.3640660000
11
99.9576100000
21
10.6930720000
0
LINE
5
81C
100
AcDbEntity
8
05
100
AcDbLine
62
7
6
CONTINUOUS
10
102.7599270000
20
8.2089520000
11
102.2556640000
21
8.7132160000
0
LINE
5
81D
100
AcDbEntity
8
05
100
AcDbLine
62
7
6
CONTINUOUS
10
101.4817000000
20
9.4871790000
11
100.2758080000
21
10.6930720000
0
LINE
5
81E
100
AcDbEntity
8
05
100
AcDbLine
62
7
6
CONTINUOUS
10
103.0781250000
20
8.2089520000
11
102.3134060000
21
8.9736720000
0
LINE
5
81F
100
AcDbEntity
8
05
100
AcDbLine
62
7
6
CONTINUOUS
10
101.6502860000
20
9.6367910000
11
100.5940060000
21
10.6930720000
0
LINE
5
820
100
AcDbEntity
8
05
100
AcDbLine
62
7
6
CONTINUOUS
10
103.3963230000
20
8.2089520000
11
102.3711480000
21
9.2341280000
0
LINE
5
821
100
AcDbEntity
8
05
100
AcDbLine
62
7
6
CONTINUOUS
10
101.7853460000
20
9.8199300000
11
100.9122040000
21
10.6930720000
0
LINE
5
822
100
AcDbEntity
8
05
100
AcDbLine
62
7
6
CONTINUOUS
10
103.7145210000
20
8.2089520000
11
102.4288890000
21
9.4945840000
0
LINE
5
823
100
AcDbEntity
8
05
100
AcDbLine
62
7
6
CONTINUOUS
10
101.8709020000
20
10.0525710000
11
101.2554280000
21
10.6680460000
0
LINE
5
824
100
AcDbEntity
8
05
100
AcDbLine
62
7
6
CONTINUOUS
10
103.8845520000
20
8.3571200000
11
102.4866310000
21
9.7550410000
0
LINE
5
825
100
AcDbEntity
8
05
100
AcDbLine
62
7
6
CONTINUOUS
10
103.9422940000
20
8.6175760000
11
102.5443730000
21
10.0154970000
0
LINE
5
826
100
AcDbEntity
8
05
100
AcDbLine
62
7
6
CONTINUOUS
10
104.0000350000
20
8.8780330000
11
102.6021150000
21
10.2759530000
0
LINE
5
827
100
AcDbEntity
8
05
100
AcDbLine
62
7
6
CONTINUOUS
10
104.9873140000
20
8.2089520000
11
104.8838210000
21
8.3124450000
0
LINE
5
828
100
AcDbEntity
8
05
100
AcDbLine
62
7
6
CONTINUOUS
10
104.0577770000
20
9.1384890000
11
102.6598560000
21
10.5364100000
0
LINE
5
829
100
AcDbEntity
8
05
100
AcDbLine
62
7
6
CONTINUOUS
10
105.3055120000
20
8.2089520000
11
104.9415630000
21
8.5729010000
0
LINE
5
82A
100
AcDbEntity
8
05
100
AcDbLine
62
7
6
CONTINUOUS
10
104.1155190000
20
9.3989450000
11
102.8213920000
21
10.6930720000
0
LINE
5
82B
100
AcDbEntity
8
05
100
AcDbLine
62
7
6
CONTINUOUS
10
105.6237100000
20
8.2089520000
11
104.9993050000
21
8.8333570000
0
LINE
5
82C
100
AcDbEntity
8
05
100
AcDbLine
62
7
6
CONTINUOUS
10
104.1732610000
20
9.6594010000
11
103.1395900000
21
10.6930720000
0
LINE
5
82D
100
AcDbEntity
8
05
100
AcDbLine
62
7
6
CONTINUOUS
10
105.9419080000
20
8.2089520000
11
105.0570460000
21
9.0938140000
0
LINE
5
82E
100
AcDbEntity
8
05
100
AcDbLine
62
7
6
CONTINUOUS
10
104.2310020000
20
9.9198580000
11
103.4577880000
21
10.6930720000
0
LINE
5
82F
100
AcDbEntity
8
05
100
AcDbLine
62
7
6
CONTINUOUS
10
106.2601060000
20
8.2089520000
11
105.1147880000
21
9.3542700000
0
LINE
5
830
100
AcDbEntity
8
05
100
AcDbLine
62
7
6
CONTINUOUS
10
104.2887440000
20
10.1803140000
11
103.7759860000
21
10.6930720000
0
LINE
5
831
100
AcDbEntity
8
05
100
AcDbLine
62
7
6
CONTINUOUS
10
106.5069090000
20
8.2803470000
11
105.1725300000
21
9.6147260000
0
LINE
5
832
100
AcDbEntity
8
05
100
AcDbLine
62
7
6
CONTINUOUS
10
104.3464860000
20
10.4407700000
11
104.0941840000
21
10.6930720000
0
LINE
5
833
100
AcDbEntity
8
05
100
AcDbLine
62
7
6
CONTINUOUS
10
106.5646510000
20
8.5408040000
11
105.2302720000
21
9.8751820000
0
LINE
5
834
100
AcDbEntity
8
05
100
AcDbLine
62
7
6
CONTINUOUS
10
106.6223920000
20
8.8012600000
11
105.2880140000
21
10.1356390000
0
LINE
5
835
100
AcDbEntity
8
05
100
AcDbLine
62
7
6
CONTINUOUS
10
106.8272750000
20
8.9145760000
11
105.3457550000
21
10.3960950000
0
LINE
5
836
100
AcDbEntity
8
05
100
AcDbLine
62
7
6
CONTINUOUS
10
107.0503950000
20
9.0096540000
11
105.4034970000
21
10.6565510000
0
LINE
5
837
100
AcDbEntity
8
05
100
AcDbLine
62
7
6
CONTINUOUS
10
107.2735140000
20
9.1047320000
11
105.6851740000
21
10.6930720000
0
LINE
5
838
100
AcDbEntity
8
05
100
AcDbLine
62
7
6
CONTINUOUS
10
108.4874920000
20
8.2089520000
11
106.0033720000
21
10.6930720000
0
LINE
5
839
100
AcDbEntity
8
05
100
AcDbLine
62
7
6
CONTINUOUS
10
108.8056900000
20
8.2089520000
11
107.0702760000
21
9.9443670000
0
LINE
5
83A
100
AcDbEntity
8
05
100
AcDbLine
62
7
6
CONTINUOUS
10
106.9111010000
20
10.1035410000
11
106.3215710000
21
10.6930720000
0
LINE
5
83B
100
AcDbEntity
8
05
100
AcDbLine
62
7
6
CONTINUOUS
10
109.1238880000
20
8.2089520000
11
107.2933950000
21
10.0394450000
0
LINE
5
83C
100
AcDbEntity
8
05
100
AcDbLine
62
7
6
CONTINUOUS
10
106.9688430000
20
10.3639980000
11
106.6397690000
21
10.6930720000
0
LINE
5
83D
100
AcDbEntity
8
05
100
AcDbLine
62
7
6
CONTINUOUS
10
109.4420860000
20
8.2089520000
11
107.5165150000
21
10.1345230000
0
LINE
5
83E
100
AcDbEntity
8
05
100
AcDbLine
62
7
6
CONTINUOUS
10
107.0265850000
20
10.6244540000
11
106.9579670000
21
10.6930720000
0
LINE
5
83F
100
AcDbEntity
8
05
100
AcDbLine
62
7
6
CONTINUOUS
10
109.7602840000
20
8.2089520000
11
107.7396350000
21
10.2296020000
0
LINE
5
840
100
AcDbEntity
8
05
100
AcDbLine
62
7
6
CONTINUOUS
10
110.0784820000
20
8.2089520000
11
107.9627550000
21
10.3246800000
0
LINE
5
841
100
AcDbEntity
8
05
100
AcDbLine
62
7
6
CONTINUOUS
10
110.3966810000
20
8.2089520000
11
108.1858740000
21
10.4197580000
0
LINE
5
842
100
AcDbEntity
8
05
100
AcDbLine
62
7
6
CONTINUOUS
10
109.0584720000
20
9.8653590000
11
108.4089940000
21
10.5148370000
0
LINE
5
843
100
AcDbEntity
8
05
100
AcDbLine
62
7
6
CONTINUOUS
10
109.2815920000
20
9.9604370000
11
108.6321140000
21
10.6099150000
0
LINE
5
844
100
AcDbEntity
8
05
100
AcDbLine
62
7
6
CONTINUOUS
10
109.5047120000
20
10.0555150000
11
108.8671550000
21
10.6930720000
0
LINE
5
845
100
AcDbEntity
8
05
100
AcDbLine
62
7
6
CONTINUOUS
10
109.7278310000
20
10.1505930000
11
109.1853530000
21
10.6930720000
0
LINE
5
846
100
AcDbEntity
8
05
100
AcDbLine
62
7
6
CONTINUOUS
10
109.9509510000
20
10.2456720000
11
109.5035510000
21
10.6930720000
0
LINE
5
847
100
AcDbEntity
8
05
100
AcDbLine
62
7
6
CONTINUOUS
10
110.1740710000
20
10.3407500000
11
109.8217490000
21
10.6930720000
0
LINE
5
848
100
AcDbEntity
8
05
100
AcDbLine
62
7
6
CONTINUOUS
10
110.3971910000
20
10.4358280000
11
110.1399470000
21
10.6930720000
0
LINE
5
849
100
AcDbEntity
8
05
100
AcDbLine
62
7
6
CONTINUOUS
10
110.6203100000
20
10.5309070000
11
110.4581450000
21
10.6930720000
0
LINE
5
84A
100
AcDbEntity
8
05
100
AcDbLine
62
7
6
CONTINUOUS
10
110.8434300000
20
10.6259850000
11
110.7763430000
21
10.6930720000
0
LINE
5
84B
100
AcDbEntity
8
05
100
AcDbLine
62
7
6
CONTINUOUS
10
113.5786610000
20
8.2089520000
11
113.5132270000
21
8.2743870000
0
LINE
5
84C
100
AcDbEntity
8
05
100
AcDbLine
62
7
6
CONTINUOUS
10
113.8968590000
20
8.2089520000
11
113.6495970000
21
8.4562140000
0
LINE
5
84D
100
AcDbEntity
8
05
100
AcDbLine
62
7
6
CONTINUOUS
10
114.2150570000
20
8.2089520000
11
113.7859680000
21
8.6380420000
0
LINE
5
84E
100
AcDbEntity
8
05
100
AcDbLine
62
7
6
CONTINUOUS
10
114.5332550000
20
8.2089520000
11
113.9223380000
21
8.8198690000
0
LINE
5
84F
100
AcDbEntity
8
05
100
AcDbLine
62
7
6
CONTINUOUS
10
114.8514530000
20
8.2089520000
11
114.0587090000
21
9.0016960000
0
LINE
5
850
100
AcDbEntity
8
05
100
AcDbLine
62
7
6
CONTINUOUS
10
115.1528720000
20
8.2257320000
11
114.1950800000
21
9.1835240000
0
LINE
5
851
100
AcDbEntity
8
05
100
AcDbLine
62
7
6
CONTINUOUS
10
115.2892420000
20
8.4075590000
11
114.3314500000
21
9.3653510000
0
LINE
5
852
100
AcDbEntity
8
05
100
AcDbLine
62
7
6
CONTINUOUS
10
115.4256130000
20
8.5893870000
11
114.4678210000
21
9.5471790000
0
LINE
5
853
100
AcDbEntity
8
05
100
AcDbLine
62
7
6
CONTINUOUS
10
115.6442140000
20
8.6889840000
11
114.6041910000
21
9.7290060000
0
LINE
5
854
100
AcDbEntity
8
05
100
AcDbLine
62
7
6
CONTINUOUS
10
115.9624120000
20
8.6889840000
11
114.7405620000
21
9.9108340000
0
LINE
5
855
100
AcDbEntity
8
05
100
AcDbLine
62
7
6
CONTINUOUS
10
116.2806100000
20
8.6889840000
11
115.9074220000
21
9.0621710000
0
LINE
5
856
100
AcDbEntity
8
05
100
AcDbLine
62
7
6
CONTINUOUS
10
115.8347250000
20
9.1348690000
11
114.8769330000
21
10.0926610000
0
LINE
5
857
100
AcDbEntity
8
05
100
AcDbLine
62
7
6
CONTINUOUS
10
116.5988080000
20
8.6889840000
11
116.2256200000
21
9.0621710000
0
LINE
5
858
100
AcDbEntity
8
05
100
AcDbLine
62
7
6
CONTINUOUS
10
115.9710950000
20
9.3166960000
11
115.0133030000
21
10.2744890000
0
LINE
5
859
100
AcDbEntity
8
05
100
AcDbLine
62
7
6
CONTINUOUS
10
117.3970380000
20
8.2089520000
11
117.3290410000
21
8.2769490000
0
LINE
5
85A
100
AcDbEntity
8
05
100
AcDbLine
62
7
6
CONTINUOUS
10
116.1074660000
20
9.4985240000
11
115.1496740000
21
10.4563160000
0
LINE
5
85B
100
AcDbEntity
8
05
100
AcDbLine
62
7
6
CONTINUOUS
10
116.9170060000
20
8.6889840000
11
116.5438180000
21
9.0621710000
0
LINE
5
85C
100
AcDbEntity
8
05
100
AcDbLine
62
7
6
CONTINUOUS
10
117.7152360000
20
8.2089520000
11
116.8620160000
21
9.0621710000
0
LINE
5
85D
100
AcDbEntity
8
05
100
AcDbLine
62
7
6
CONTINUOUS
10
116.2438370000
20
9.6803510000
11
115.2860440000
21
10.6381440000
0
LINE
5
85E
100
AcDbEntity
8
05
100
AcDbLine
62
7
6
CONTINUOUS
10
118.0334340000
20
8.2089520000
11
117.1169090000
21
9.1254770000
0
LINE
5
85F
100
AcDbEntity
8
05
100
AcDbLine
62
7
6
CONTINUOUS
10
116.3802070000
20
9.8621790000
11
115.5485850000
21
10.6938010000
0
LINE
5
860
100
AcDbEntity
8
05
100
AcDbLine
62
7
6
CONTINUOUS
10
118.3516320000
20
8.2089520000
11
117.0108430000
21
9.5497410000
0
LINE
5
861
100
AcDbEntity
8
05
100
AcDbLine
62
7
6
CONTINUOUS
10
116.5165780000
20
10.0440060000
11
115.8667830000
21
10.6938010000
0
LINE
5
862
100
AcDbEntity
8
05
100
AcDbLine
62
7
6
CONTINUOUS
10
118.6698300000
20
8.2089520000
11
116.9047770000
21
9.9740050000
0
LINE
5
863
100
AcDbEntity
8
05
100
AcDbLine
62
7
6
CONTINUOUS
10
116.6529480000
20
10.2258340000
11
116.1849810000
21
10.6938010000
0
LINE
5
864
100
AcDbEntity
8
05
100
AcDbLine
62
7
6
CONTINUOUS
10
118.8755950000
20
8.3213850000
11
116.7987110000
21
10.3982690000
0
LINE
5
865
100
AcDbEntity
8
05
100
AcDbLine
62
7
6
CONTINUOUS
10
116.7893190000
20
10.4076610000
11
116.5031790000
21
10.6938010000
0
LINE
5
866
100
AcDbEntity
8
05
100
AcDbLine
62
7
6
CONTINUOUS
10
118.7695290000
20
8.7456490000
11
116.8213770000
21
10.6938010000
0
LINE
5
867
100
AcDbEntity
8
05
100
AcDbLine
62
7
6
CONTINUOUS
10
118.6634630000
20
9.1699130000
11
117.1395760000
21
10.6938010000
0
LINE
5
868
100
AcDbEntity
8
05
100
AcDbLine
62
7
6
CONTINUOUS
10
119.7324920000
20
8.4190820000
11
119.6739720000
21
8.4776020000
0
LINE
5
869
100
AcDbEntity
8
05
100
AcDbLine
62
7
6
CONTINUOUS
10
118.5573970000
20
9.5941770000
11
117.4577740000
21
10.6938010000
0
LINE
5
86A
100
AcDbEntity
8
05
100
AcDbLine
62
7
6
CONTINUOUS
10
120.1492980000
20
8.3204740000
11
119.6352250000
21
8.8345480000
0
LINE
5
86B
100
AcDbEntity
8
05
100
AcDbLine
62
7
6
CONTINUOUS
10
118.4513310000
20
10.0184410000
11
117.7759720000
21
10.6938010000
0
LINE
5
86C
100
AcDbEntity
8
05
100
AcDbLine
62
7
6
CONTINUOUS
10
120.5092820000
20
8.2786890000
11
119.6829220000
21
9.1050490000
0
LINE
5
86D
100
AcDbEntity
8
05
100
AcDbLine
62
7
6
CONTINUOUS
10
118.3452650000
20
10.4427050000
11
118.0941700000
21
10.6938010000
0
LINE
5
86E
100
AcDbEntity
8
05
100
AcDbLine
62
7
6
CONTINUOUS
10
120.8588570000
20
8.2473120000
11
119.7306180000
21
9.3755500000
0
LINE
5
86F
100
AcDbEntity
8
05
100
AcDbLine
62
7
6
CONTINUOUS
10
121.1989400000
20
8.2254260000
11
119.7783150000
21
9.6460520000
0
LINE
5
870
100
AcDbEntity
8
05
100
AcDbLine
62
7
6
CONTINUOUS
10
121.5303060000
20
8.2122580000
11
119.8260120000
21
9.9165530000
0
LINE
5
871
100
AcDbEntity
8
05
100
AcDbLine
62
7
6
CONTINUOUS
10
121.8536160000
20
8.2071470000
11
119.8737080000
21
10.1870540000
0
LINE
5
872
100
AcDbEntity
8
05
100
AcDbLine
62
7
6
CONTINUOUS
10
122.1694370000
20
8.2095230000
11
121.7175430000
21
8.6614180000
0
LINE
5
873
100
AcDbEntity
8
05
100
AcDbLine
62
7
6
CONTINUOUS
10
121.2416420000
20
9.1373190000
11
119.9704990000
21
10.4084620000
0
LINE
5
874
100
AcDbEntity
8
05
100
AcDbLine
62
7
6
CONTINUOUS
10
122.4782650000
20
8.2188940000
11
122.0476490000
21
8.6495100000
0
LINE
5
875
100
AcDbEntity
8
05
100
AcDbLine
62
7
6
CONTINUOUS
10
121.2893390000
20
9.4078200000
11
120.1933910000
21
10.5037670000
0
LINE
5
876
100
AcDbEntity
8
05
100
AcDbLine
62
7
6
CONTINUOUS
10
122.7805300000
20
8.2348260000
11
122.3498670000
21
8.6654900000
0
LINE
5
877
100
AcDbEntity
8
05
100
AcDbLine
62
7
6
CONTINUOUS
10
121.3370350000
20
9.6783210000
11
120.4681720000
21
10.5471850000
0
LINE
5
878
100
AcDbEntity
8
05
100
AcDbLine
62
7
6
CONTINUOUS
10
123.1246030000
20
8.2089520000
11
122.6300090000
21
8.7035460000
0
LINE
5
879
100
AcDbEntity
8
05
100
AcDbLine
62
7
6
CONTINUOUS
10
121.3847320000
20
9.9488230000
11
120.7480050000
21
10.5855500000
0
LINE
5
87A
100
AcDbEntity
8
05
100
AcDbLine
62
7
6
CONTINUOUS
10
123.4428010000
20
8.2089520000
11
122.8555260000
21
8.7962270000
0
LINE
5
87B
100
AcDbEntity
8
05
100
AcDbLine
62
7
6
CONTINUOUS
10
121.5029990000
20
10.1487530000
11
121.0331350000
21
10.6186170000
0
LINE
5
87C
100
AcDbEntity
8
05
100
AcDbLine
62
7
6
CONTINUOUS
10
122.5731040000
20
9.0786490000
11
122.3801960000
21
9.2715570000
0
LINE
5
87D
100
AcDbEntity
8
05
100
AcDbLine
62
7
6
CONTINUOUS
10
123.7609990000
20
8.2089520000
11
122.9559880000
21
9.0139630000
0
LINE
5
87E
100
AcDbEntity
8
05
100
AcDbLine
62
7
6
CONTINUOUS
10
121.7450410000
20
10.2249100000
11
121.3238330000
21
10.6461180000
0
LINE
5
87F
100
AcDbEntity
8
05
100
AcDbLine
62
7
6
CONTINUOUS
10
122.8913020000
20
9.0786490000
11
122.6685740000
21
9.3013760000
0
LINE
5
880
100
AcDbEntity
8
05
100
AcDbLine
62
7
6
CONTINUOUS
10
124.0791970000
20
8.2089520000
11
122.9867720000
21
9.3013760000
0
LINE
5
881
100
AcDbEntity
8
05
100
AcDbLine
62
7
6
CONTINUOUS
10
122.0342750000
20
10.2538740000
11
121.6204010000
21
10.6677480000
0
LINE
5
882
100
AcDbEntity
8
05
100
AcDbLine
62
7
6
CONTINUOUS
10
124.3716180000
20
8.2347290000
11
123.3049710000
21
9.3013760000
0
LINE
5
883
100
AcDbEntity
8
05
100
AcDbLine
62
7
6
CONTINUOUS
10
122.3477810000
20
10.2585660000
11
121.9231780000
21
10.6831690000
0
LINE
5
884
100
AcDbEntity
8
05
100
AcDbLine
62
7
6
CONTINUOUS
10
124.4193150000
20
8.5052300000
11
123.6231690000
21
9.3013760000
0
LINE
5
885
100
AcDbEntity
8
05
100
AcDbLine
62
7
6
CONTINUOUS
10
122.6928320000
20
10.2317130000
11
122.2325510000
21
10.6919940000
0
LINE
5
886
100
AcDbEntity
8
05
100
AcDbLine
62
7
6
CONTINUOUS
10
124.4670110000
20
8.7757320000
11
123.9413670000
21
9.3013760000
0
LINE
5
887
100
AcDbEntity
8
05
100
AcDbLine
62
7
6
CONTINUOUS
10
123.2787500000
20
9.9639930000
11
122.5489540000
21
10.6937890000
0
LINE
5
888
100
AcDbEntity
8
05
100
AcDbLine
62
7
6
CONTINUOUS
10
124.5147080000
20
9.0462330000
11
124.2595650000
21
9.3013760000
0
LINE
5
889
100
AcDbEntity
8
05
100
AcDbLine
62
7
6
CONTINUOUS
10
123.5969480000
20
9.9639930000
11
122.8728890000
21
10.6880520000
0
LINE
5
88A
100
AcDbEntity
8
05
100
AcDbLine
62
7
6
CONTINUOUS
10
123.9151460000
20
9.9639930000
11
123.2049290000
21
10.6742100000
0
LINE
5
88B
100
AcDbEntity
8
05
100
AcDbLine
62
7
6
CONTINUOUS
10
124.2333440000
20
9.9639930000
11
123.5457450000
21
10.6515930000
0
LINE
5
88C
100
AcDbEntity
8
05
100
AcDbLine
62
7
6
CONTINUOUS
10
124.5515420000
20
9.9639930000
11
123.8961190000
21
10.6194160000
0
LINE
5
88D
100
AcDbEntity
8
05
100
AcDbLine
62
7
6
CONTINUOUS
10
124.7054950000
20
10.1282390000
11
124.2569840000
21
10.5767500000
0
LINE
5
88E
100
AcDbEntity
8
035
100
AcDbLine
62
3
6
CONTINUOUS
10
73.1107220000
20
8.2089520000
11
74.8185550000
21
8.2089520000
0
LINE
5
88F
100
AcDbEntity
8
035
100
AcDbLine
62
3
6
CONTINUOUS
10
73.6614380000
20
10.6930720000
11
75.6797860000
21
10.6930720000
0
LINE
5
890
100
AcDbEntity
8
035
100
AcDbLine
62
3
6
CONTINUOUS
10
73.1107220000
20
8.2089520000
11
73.6614380000
21
10.6930720000
0
LINE
5
891
100
AcDbEntity
8
035
100
AcDbLine
62
3
6
CONTINUOUS
10
74.8185550000
20
8.2089520000
11
75.1283320000
21
9.6062700000
0
LINE
5
892
100
AcDbEntity
8
035
100
AcDbLine
62
3
6
CONTINUOUS
10
78.6223630000
20
8.2089520000
11
79.1730790000
21
10.6930720000
0
LINE
5
893
100
AcDbEntity
8
035
100
AcDbLine
62
3
6
CONTINUOUS
10
77.2243080000
20
9.6062700000
11
77.4652470000
21
10.6930720000
0
LINE
5
894
100
AcDbEntity
8
035
100
AcDbLine
62
3
6
CONTINUOUS
10
75.1283320000
20
9.6062700000
11
76.6816440000
21
8.2089520000
0
LINE
5
895
100
AcDbEntity
8
035
100
AcDbLine
62
3
6
CONTINUOUS
10
75.6797860000
20
10.6930720000
11
77.2243080000
21
9.6062700000
0
LINE
5
896
100
AcDbEntity
8
035
100
AcDbLine
62
3
6
CONTINUOUS
10
77.4652470000
20
10.6930720000
11
79.1730790000
21
10.6930720000
0
LINE
5
897
100
AcDbEntity
8
035
100
AcDbLine
62
3
6
CONTINUOUS
10
76.6816440000
20
8.2089520000
11
78.6223630000
21
8.2089520000
0
LINE
5
898
100
AcDbEntity
8
035
100
AcDbLine
62
3
6
CONTINUOUS
10
79.4762790000
20
8.2089520000
11
80.0269950000
21
10.6930720000
0
LINE
5
899
100
AcDbEntity
8
035
100
AcDbLine
62
3
6
CONTINUOUS
10
81.2816520000
20
8.6489310000
11
81.4273260000
21
9.3060230000
0
LINE
5
89A
100
AcDbEntity
8
035
100
AcDbLine
62
3
6
CONTINUOUS
10
84.1443320000
20
9.3060230000
11
84.2086190000
21
9.5960010000
0
LINE
5
89B
100
AcDbEntity
8
035
100
AcDbLine
62
3
6
CONTINUOUS
10
84.1340040000
20
8.2089520000
11
84.2315440000
21
8.6489310000
0
LINE
5
89C
100
AcDbEntity
8
035
100
AcDbLine
62
3
6
CONTINUOUS
10
79.4762790000
20
8.2089520000
11
84.1340040000
21
8.2089520000
0
LINE
5
89D
100
AcDbEntity
8
035
100
AcDbLine
62
3
6
CONTINUOUS
10
80.0269950000
20
10.6930720000
11
84.6847200000
21
10.6930720000
0
LINE
5
89E
100
AcDbEntity
8
035
100
AcDbLine
62
3
6
CONTINUOUS
10
81.4916130000
20
9.5960010000
11
81.6372870000
21
10.2530940000
0
LINE
5
89F
100
AcDbEntity
8
035
100
AcDbLine
62
3
6
CONTINUOUS
10
84.5871790000
20
10.2530940000
11
84.6847200000
21
10.6930720000
0
LINE
5
8A0
100
AcDbEntity
8
035
100
AcDbLine
62
3
6
CONTINUOUS
10
85.0785120000
20
8.9677470000
11
85.4610070000
21
10.6930720000
0
LINE
5
8A1
100
AcDbEntity
8
035
100
AcDbLine
62
3
6
CONTINUOUS
10
86.8294160000
20
9.1814320000
11
87.1645380000
21
10.6930720000
0
LINE
5
8A2
100
AcDbEntity
8
035
100
AcDbLine
62
3
6
CONTINUOUS
10
88.6970730000
20
9.1008870000
11
89.0500510000
21
10.6930720000
0
LINE
5
8A3
100
AcDbEntity
8
035
100
AcDbLine
62
3
6
CONTINUOUS
10
90.3443260000
20
8.8470990000
11
90.7535680000
21
10.6930720000
0
LINE
5
8A4
100
AcDbEntity
8
035
100
AcDbLine
62
3
6
CONTINUOUS
10
85.4610070000
20
10.6930720000
11
87.1645380000
21
10.6930720000
0
ARC
5
8A5
100
AcDbEntity
8
035
100
AcDbCircle
62
3
6
CONTINUOUS
10
85.3565382511
20
8.9076074747
40
0.2844562511
100
AcDbArc
50
167.7944635173
51
179.9992899294
0
ARC
5
8A6
100
AcDbEntity
8
035
100
AcDbCircle
62
3
6
CONTINUOUS
10
85.3565385413
20
8.9076113390
40
0.2844565413
100
AcDbArc
50
180.0000682898
51
234.6229224813
0
ARC
5
8A7
100
AcDbEntity
8
035
100
AcDbCircle
62
3
6
CONTINUOUS
10
86.4662366591
20
10.4704306902
40
2.2011814138
100
AcDbArc
50
234.6229020698
51
253.6104761870
0
ARC
5
8A8
100
AcDbEntity
8
035
100
AcDbCircle
62
3
6
CONTINUOUS
10
87.2145988754
20
13.0148393689
40
4.8533619377
100
AcDbArc
50
253.6103910211
51
263.0540333551
0
ARC
5
8A9
100
AcDbEntity
8
035
100
AcDbCircle
62
3
6
CONTINUOUS
10
87.7114581813
20
17.0931766141
40
8.9618536141
100
AcDbArc
50
263.0539945915
51
270.0000116273
0
ARC
5
8AA
100
AcDbEntity
8
035
100
AcDbCircle
62
3
6
CONTINUOUS
10
87.7114613187
20
17.0931683755
40
8.9618453755
100
AcDbArc
50
269.9999915694
51
276.9460086052
0
ARC
5
8AB
100
AcDbEntity
8
035
100
AcDbCircle
62
3
6
CONTINUOUS
10
88.2083201246
20
13.0148393689
40
4.8533619377
100
AcDbArc
50
276.9459666449
51
286.3896089789
0
ARC
5
8AC
100
AcDbEntity
8
035
100
AcDbCircle
62
3
6
CONTINUOUS
10
88.9566823409
20
10.4704306902
40
2.2011814138
100
AcDbArc
50
286.3895238130
51
305.3770979302
0
ARC
5
8AD
100
AcDbEntity
8
035
100
AcDbCircle
62
3
6
CONTINUOUS
10
90.0663810713
20
8.9076107687
40
0.2844557216
100
AcDbArc
50
305.3770434265
51
347.7177170673
0
ARC
5
8AE
100
AcDbEntity
8
035
100
AcDbCircle
62
3
6
CONTINUOUS
10
87.0025297663
20
9.1404964568
40
0.1778877663
100
AcDbArc
50
179.9998250514
51
225.0422913416
0
ARC
5
8AF
100
AcDbEntity
8
035
100
AcDbCircle
62
3
6
CONTINUOUS
10
87.3618635061
20
9.5003622419
40
0.6864387665
100
AcDbArc
50
225.0423614170
51
247.5300128082
0
ARC
5
8B0
100
AcDbEntity
8
035
100
AcDbCircle
62
3
6
CONTINUOUS
10
87.6034918176
20
10.0845620937
40
1.3186362892
100
AcDbArc
50
247.5298821870
51
260.2785491795
0
ARC
5
8B1
100
AcDbEntity
8
035
100
AcDbCircle
62
3
6
CONTINUOUS
10
87.7630903846
20
11.0161117087
40
2.2637587087
100
AcDbArc
50
260.2783770082
51
269.9999902662
0
ARC
5
8B2
100
AcDbEntity
8
035
100
AcDbCircle
62
3
6
CONTINUOUS
10
87.7630896154
20
11.0161117087
40
2.2637587087
100
AcDbArc
50
270.0000097338
51
279.7216229918
0
ARC
5
8B3
100
AcDbEntity
8
035
100
AcDbCircle
62
3
6
CONTINUOUS
10
87.9226881824
20
10.0845620937
40
1.3186362892
100
AcDbArc
50
279.7214508205
51
292.4701178130
0
ARC
5
8B4
100
AcDbEntity
8
035
100
AcDbCircle
62
3
6
CONTINUOUS
10
88.1643164939
20
9.5003622419
40
0.6864387665
100
AcDbArc
50
292.4699871918
51
314.9576385830
0
ARC
5
8B5
100
AcDbEntity
8
035
100
AcDbCircle
62
3
6
CONTINUOUS
10
88.5236507293
20
9.1404979651
40
0.1778884834
100
AcDbArc
50
314.9572524508
51
347.1339192357
0
ARC
5
8B6
100
AcDbEntity
8
035
100
AcDbCircle
62
3
6
CONTINUOUS
10
87.0025290776
20
9.1404969937
40
0.1778870776
100
AcDbArc
50
166.6959850486
51
179.9999979692
0
LINE
5
8B7
100
AcDbEntity
8
035
100
AcDbLine
62
3
6
CONTINUOUS
10
89.0500510000
20
10.6930720000
11
90.7535680000
21
10.6930720000
0
LINE
5
8B8
100
AcDbEntity
8
035
100
AcDbLine
62
3
6
CONTINUOUS
10
91.0678550000
20
10.0720420000
11
91.2055340000
21
10.6930720000
0
LINE
5
8B9
100
AcDbEntity
8
035
100
AcDbLine
62
3
6
CONTINUOUS
10
92.2073930000
20
8.2089520000
11
92.6204300000
21
10.0720420000
0
LINE
5
8BA
100
AcDbEntity
8
035
100
AcDbLine
62
3
6
CONTINUOUS
10
93.9152250000
20
8.2089520000
11
94.3282620000
21
10.0720420000
0
LINE
5
8BB
100
AcDbEntity
8
035
100
AcDbLine
62
3
6
CONTINUOUS
10
95.9584660000
20
10.0720420000
11
96.0961450000
21
10.6930720000
0
LINE
5
8BC
100
AcDbEntity
8
035
100
AcDbLine
62
3
6
CONTINUOUS
10
91.0678550000
20
10.0720420000
11
92.6204300000
21
10.0720420000
0
LINE
5
8BD
100
AcDbEntity
8
035
100
AcDbLine
62
3
6
CONTINUOUS
10
92.2073930000
20
8.2089520000
11
93.9152250000
21
8.2089520000
0
LINE
5
8BE
100
AcDbEntity
8
035
100
AcDbLine
62
3
6
CONTINUOUS
10
91.2055340000
20
10.6930720000
11
96.0961450000
21
10.6930720000
0
LINE
5
8BF
100
AcDbEntity
8
035
100
AcDbLine
62
3
6
CONTINUOUS
10
94.3282620000
20
10.0720420000
11
95.9584660000
21
10.0720420000
0
LINE
5
8C0
100
AcDbEntity
8
035
100
AcDbLine
62
3
6
CONTINUOUS
10
96.0888300000
20
8.2089520000
11
96.6395460000
21
10.6930720000
0
LINE
5
8C1
100
AcDbEntity
8
035
100
AcDbLine
62
3
6
CONTINUOUS
10
97.7966620000
20
8.2089520000
11
98.0020150000
21
9.1352400000
0
LINE
5
8C2
100
AcDbEntity
8
035
100
AcDbLine
62
3
6
CONTINUOUS
10
96.0888300000
20
8.2089520000
11
97.7966620000
21
8.2089520000
0
LINE
5
8C3
100
AcDbEntity
8
035
100
AcDbLine
62
3
6
CONTINUOUS
10
96.6395460000
20
10.6930720000
11
100.9979220000
21
10.6930720000
0
LINE
5
8C4
100
AcDbEntity
8
035
100
AcDbLine
62
3
6
CONTINUOUS
10
101.3081340000
20
8.4689140000
11
101.3485860000
21
9.0474050000
0
LINE
5
8C5
100
AcDbEntity
8
035
100
AcDbLine
62
3
6
CONTINUOUS
10
99.5959630000
20
8.4068680000
11
99.6272290000
21
8.8619210000
0
LINE
5
8C6
100
AcDbEntity
8
035
100
AcDbLine
62
3
6
CONTINUOUS
10
98.0663020000
20
9.4252180000
11
98.2498370000
21
10.2530940000
0
ARC
5
8C7
100
AcDbEntity
8
035
100
AcDbCircle
62
3
6
CONTINUOUS
10
101.6953320000
20
8.4418380000
40
0.3881440000
100
AcDbArc
50
176.0000000000
51
216.8698980000
0
ARC
5
8C8
100
AcDbEntity
8
035
100
AcDbCircle
62
3
6
CONTINUOUS
10
99.9697530000
20
8.4119050000
40
0.3738240000
100
AcDbArc
50
180.7720050000
51
212.8818750000
0
LINE
5
8C9
100
AcDbEntity
8
035
100
AcDbLine
62
3
6
CONTINUOUS
10
99.6558180000
20
8.2089520000
11
101.3848170000
21
8.2089520000
0
ARC
5
8CA
100
AcDbEntity
8
035
100
AcDbCircle
62
3
6
CONTINUOUS
10
101.0645091256
20
9.0692414046
40
0.2849148980
100
AcDbArc
50
355.6044351018
51
14.9998321139
0
ARC
5
8CB
100
AcDbEntity
8
035
100
AcDbCircle
62
3
6
CONTINUOUS
10
101.0645115927
20
9.0692393407
40
0.2849130492
100
AcDbArc
50
15.0003614107
51
49.8062951149
0
ARC
5
8CC
100
AcDbEntity
8
035
100
AcDbCircle
62
3
6
CONTINUOUS
10
100.8802286242
20
8.8511285638
40
0.5704520544
100
AcDbArc
50
49.8058236467
51
55.6063554031
0
ARC
5
8CD
100
AcDbEntity
8
035
100
AcDbCircle
62
3
6
CONTINUOUS
10
100.3132482994
20
11.1994672129
40
2.0775325922
100
AcDbArc
50
295.3416402972
51
298.8636783469
0
ARC
5
8CE
100
AcDbEntity
8
035
100
AcDbCircle
62
3
6
CONTINUOUS
10
100.6415395293
20
10.6038639832
40
1.3974455839
100
AcDbArc
50
298.8639281557
51
315.7882926038
0
ARC
5
8CF
100
AcDbEntity
8
035
100
AcDbCircle
62
3
6
CONTINUOUS
10
100.9889757242
20
10.2658585190
40
0.9127192659
100
AcDbArc
50
315.7883093494
51
340.1939355680
0
ARC
5
8D0
100
AcDbEntity
8
035
100
AcDbCircle
62
3
6
CONTINUOUS
10
101.4188091494
20
10.1110581593
40
0.4558605079
100
AcDbArc
50
340.1938658204
51
14.9997995246
0
ARC
5
8D1
100
AcDbEntity
8
035
100
AcDbCircle
62
3
6
CONTINUOUS
10
101.4188087341
20
10.1110565785
40
0.4558613183
100
AcDbArc
50
14.9999779363
51
49.8059116405
0
ARC
5
8D2
100
AcDbEntity
8
035
100
AcDbCircle
62
3
6
CONTINUOUS
10
101.1239631890
20
9.7620752320
40
0.9127222113
100
AcDbArc
50
49.8061438314
51
74.2117700500
0
ARC
5
8D3
100
AcDbEntity
8
035
100
AcDbCircle
62
3
6
CONTINUOUS
10
100.9920781414
20
9.2956381767
40
1.3974460423
100
AcDbArc
50
74.2117641360
51
89.7603990413
0
LINE
5
8D4
100
AcDbEntity
8
035
100
AcDbLine
62
3
6
CONTINUOUS
10
102.1438710000
20
8.2089520000
11
102.6945880000
21
10.6930720000
0
LINE
5
8D5
100
AcDbEntity
8
035
100
AcDbLine
62
3
6
CONTINUOUS
10
103.8517040000
20
8.2089520000
11
104.4024200000
21
10.6930720000
0
LINE
5
8D6
100
AcDbEntity
8
035
100
AcDbLine
62
3
6
CONTINUOUS
10
102.1438710000
20
8.2089520000
11
103.8517040000
21
8.2089520000
0
LINE
5
8D7
100
AcDbEntity
8
035
100
AcDbLine
62
3
6
CONTINUOUS
10
102.6945880000
20
10.6930720000
11
104.4024200000
21
10.6930720000
0
LINE
5
8D8
100
AcDbEntity
8
035
100
AcDbLine
62
3
6
CONTINUOUS
10
104.8608770000
20
8.2089520000
11
105.4115940000
21
10.6930720000
0
LINE
5
8D9
100
AcDbEntity
8
035
100
AcDbLine
62
3
6
CONTINUOUS
10
106.4910810000
20
8.2089520000
11
106.6287600000
21
8.8299820000
0
LINE
5
8DA
100
AcDbEntity
8
035
100
AcDbLine
62
3
6
CONTINUOUS
10
105.4115940000
20
10.6930720000
11
107.0417970000
21
10.6930720000
0
LINE
5
8DB
100
AcDbEntity
8
035
100
AcDbLine
62
3
6
CONTINUOUS
10
104.8608770000
20
8.2089520000
11
106.4910810000
21
8.2089520000
0
LINE
5
8DC
100
AcDbEntity
8
035
100
AcDbLine
62
3
6
CONTINUOUS
10
106.6287600000
20
8.8299820000
11
107.3574440000
21
9.1404970000
0
LINE
5
8DD
100
AcDbEntity
8
035
100
AcDbLine
62
3
6
CONTINUOUS
10
106.8555250000
20
9.8528550000
11
108.8272580000
21
10.6930720000
0
LINE
5
8DE
100
AcDbEntity
8
035
100
AcDbLine
62
3
6
CONTINUOUS
10
108.8272580000
20
10.6930720000
11
111.0008630000
21
10.6930720000
0
LINE
5
8DF
100
AcDbEntity
8
035
100
AcDbLine
62
3
6
CONTINUOUS
10
107.3574440000
20
9.1404970000
11
108.2765420000
21
8.2089520000
0
LINE
5
8E0
100
AcDbEntity
8
035
100
AcDbLine
62
3
6
CONTINUOUS
10
108.9969820000
20
9.8391560000
11
110.6054040000
21
8.2089520000
0
LINE
5
8E1
100
AcDbEntity
8
035
100
AcDbLine
62
3
6
CONTINUOUS
10
108.9969820000
20
9.8391560000
11
111.0008630000
21
10.6930720000
0
LINE
5
8E2
100
AcDbEntity
8
035
100
AcDbLine
62
3
6
CONTINUOUS
10
106.8555250000
20
9.8528550000
11
107.0417970000
21
10.6930720000
0
LINE
5
8E3
100
AcDbEntity
8
035
100
AcDbLine
62
3
6
CONTINUOUS
10
108.2765420000
20
8.2089520000
11
110.6054040000
21
8.2089520000
0
LINE
5
8E4
100
AcDbEntity
8
035
100
AcDbLine
62
3
6
CONTINUOUS
10
113.4641510000
20
8.2089520000
11
115.1402870000
21
8.2089520000
0
LINE
5
8E5
100
AcDbEntity
8
035
100
AcDbLine
62
3
6
CONTINUOUS
10
115.3277870000
20
10.6938010000
11
118.2824910000
21
10.6938010000
0
LINE
5
8E6
100
AcDbEntity
8
035
100
AcDbLine
62
3
6
CONTINUOUS
10
113.4641510000
20
8.2089520000
11
115.3277870000
21
10.6938010000
0
LINE
5
8E7
100
AcDbEntity
8
035
100
AcDbLine
62
3
6
CONTINUOUS
10
118.2824910000
20
10.6938010000
11
118.9037030000
21
8.2089520000
0
LINE
5
8E8
100
AcDbEntity
8
035
100
AcDbLine
62
3
6
CONTINUOUS
10
115.5003110000
20
8.6889840000
11
117.2260320000
21
8.6889840000
0
LINE
5
8E9
100
AcDbEntity
8
035
100
AcDbLine
62
3
6
CONTINUOUS
10
115.7802020000
20
9.0621710000
11
117.1327350000
21
9.0621710000
0
LINE
5
8EA
100
AcDbEntity
8
035
100
AcDbLine
62
3
6
CONTINUOUS
10
119.6150190000
20
8.7199520000
11
119.8833800000
21
10.2419070000
0
LINE
5
8EB
100
AcDbEntity
8
035
100
AcDbLine
62
3
6
CONTINUOUS
10
124.3670730000
20
8.2089520000
11
124.5596970000
21
9.3013760000
0
LINE
5
8EC
100
AcDbEntity
8
035
100
AcDbLine
62
3
6
CONTINUOUS
10
121.2261250000
20
9.0493180000
11
121.3860210000
21
9.9561340000
0
LINE
5
8ED
100
AcDbEntity
8
035
100
AcDbLine
62
3
6
CONTINUOUS
10
122.8140420000
20
8.2089520000
11
122.8190480000
21
8.2373380000
0
LINE
5
8EE
100
AcDbEntity
8
035
100
AcDbLine
62
3
6
CONTINUOUS
10
122.3461810000
20
9.0786490000
11
122.3854540000
21
9.3013760000
0
LINE
5
8EF
100
AcDbEntity
8
035
100
AcDbLine
62
3
6
CONTINUOUS
10
122.3461810000
20
9.0786490000
11
122.9673930000
21
9.0786490000
0
ARC
5
8F0
100
AcDbEntity
8
035
100
AcDbCircle
62
3
6
CONTINUOUS
10
122.4684270000
20
-3.0031280000
40
13.6971530000
100
AcDbArc
50
81.6598950000
51
99.8027900000
0
ARC
5
8F1
100
AcDbEntity
8
035
100
AcDbCircle
62
3
6
CONTINUOUS
10
121.9084660000
20
21.9041900000
40
13.6971530000
100
AcDbArc
50
261.4614730000
51
273.8118150000
0
ARC
5
8F2
100
AcDbEntity
8
035
100
AcDbCircle
62
3
6
CONTINUOUS
10
120.1892670000
20
10.1879710000
40
0.3106060000
100
AcDbArc
50
99.8027900000
51
170.0000000000
0
ARC
5
8F3
100
AcDbEntity
8
035
100
AcDbCircle
62
3
6
CONTINUOUS
10
119.9209060000
20
8.6660160000
40
0.3106060000
100
AcDbArc
50
170.0000000000
51
261.4614730000
0
ARC
5
8F4
100
AcDbEntity
8
035
100
AcDbCircle
62
3
6
CONTINUOUS
10
124.4101300000
20
10.2418500000
40
0.3106060000
100
AcDbArc
50
350.0000000000
51
81.6598950000
0
LINE
5
8F5
100
AcDbEntity
8
035
100
AcDbLine
62
3
6
CONTINUOUS
10
123.1015710000
20
9.9639930000
11
124.6765340000
21
9.9639930000
0
LINE
5
8F6
100
AcDbEntity
8
035
100
AcDbLine
62
3
6
CONTINUOUS
10
124.6765340000
20
9.9639930000
11
124.7160170000
21
10.1879140000
0
LINE
5
8F7
100
AcDbEntity
8
035
100
AcDbLine
62
3
6
CONTINUOUS
10
122.9478530000
20
8.9678320000
11
122.9673930000
21
9.0786490000
0
ARC
5
8F8
100
AcDbEntity
8
035
100
AcDbCircle
62
3
6
CONTINUOUS
10
122.2442760000
20
6.6982740000
40
3.5617970000
100
AcDbArc
50
80.2083390000
51
99.7818250000
0
ARC
5
8F9
100
AcDbEntity
8
035
100
AcDbCircle
62
3
6
CONTINUOUS
10
122.0108590000
20
12.2111170000
40
3.5617970000
100
AcDbArc
50
261.5304680000
51
281.1930680000
0
ARC
5
8FA
100
AcDbEntity
8
035
100
AcDbCircle
62
3
6
CONTINUOUS
10
121.6919080000
20
9.9021980000
40
0.3106060000
100
AcDbArc
50
99.7818250000
51
170.0000000000
0
ARC
5
8FB
100
AcDbEntity
8
035
100
AcDbCircle
62
3
6
CONTINUOUS
10
122.7971930000
20
9.9021030000
40
0.3106060000
100
AcDbArc
50
11.4934250000
51
80.2083390000
0
ARC
5
8FC
100
AcDbEntity
8
035
100
AcDbCircle
62
3
6
CONTINUOUS
10
121.5320120000
20
8.9953820000
40
0.3106060000
100
AcDbArc
50
170.0000000000
51
261.5304680000
0
ARC
5
8FD
100
AcDbEntity
8
035
100
AcDbCircle
62
3
6
CONTINUOUS
10
122.6419660000
20
9.0217680000
40
0.3106060000
100
AcDbArc
50
281.1930680000
51
350.0000000000
0
LINE
5
8FE
100
AcDbEntity
8
035
100
AcDbLine
62
3
6
CONTINUOUS
10
122.8140420000
20
8.2089520000
11
124.3670730000
21
8.2089520000
0
LINE
5
8FF
100
AcDbEntity
8
035
100
AcDbLine
62
3
6
CONTINUOUS
10
117.3460400000
20
8.2089520000
11
118.9037030000
21
8.2089520000
0
LINE
5
900
100
AcDbEntity
8
035
100
AcDbLine
62
3
6
CONTINUOUS
10
81.6372870000
20
10.2530940000
11
84.5871790000
21
10.2530940000
0
LINE
5
901
100
AcDbEntity
8
035
100
AcDbLine
62
3
6
CONTINUOUS
10
81.4916130000
20
9.5960010000
11
84.2086190000
21
9.5960010000
0
LINE
5
902
100
AcDbEntity
8
035
100
AcDbLine
62
3
6
CONTINUOUS
10
81.4273260000
20
9.3060230000
11
84.1443320000
21
9.3060230000
0
LINE
5
903
100
AcDbEntity
8
035
100
AcDbLine
62
3
6
CONTINUOUS
10
81.2816520000
20
8.6489310000
11
84.2315440000
21
8.6489310000
0
LINE
5
904
100
AcDbEntity
8
035
100
AcDbLine
62
3
6
CONTINUOUS
10
98.2498370000
20
10.2530940000
11
99.6563970000
21
10.2530940000
0
LINE
5
905
100
AcDbEntity
8
035
100
AcDbLine
62
3
6
CONTINUOUS
10
98.0663020000
20
9.4252180000
11
99.4266270000
21
9.4252180000
0
LINE
5
906
100
AcDbEntity
8
035
100
AcDbLine
62
3
6
CONTINUOUS
10
98.0020150000
20
9.1352400000
11
99.4509000000
21
9.1352400000
0
LINE
5
907
100
AcDbEntity
8
035
100
AcDbLine
62
3
6
CONTINUOUS
10
99.6563970000
20
10.2530940000
11
99.7674140000
21
10.2349300000
0
LINE
5
908
100
AcDbEntity
8
035
100
AcDbLine
62
3
6
CONTINUOUS
10
99.7674140000
20
10.2349300000
11
99.8636110000
21
10.1861990000
0
LINE
5
909
100
AcDbEntity
8
035
100
AcDbLine
62
3
6
CONTINUOUS
10
99.8636110000
20
10.1861990000
11
99.9097870000
21
10.1118220000
0
LINE
5
90A
100
AcDbEntity
8
035
100
AcDbLine
62
3
6
CONTINUOUS
10
99.9097870000
20
10.1118220000
11
99.9456990000
21
10.0220570000
0
LINE
5
90B
100
AcDbEntity
8
035
100
AcDbLine
62
3
6
CONTINUOUS
10
99.9456990000
20
10.0220570000
11
99.9469830000
21
9.9246000000
0
LINE
5
90C
100
AcDbEntity
8
035
100
AcDbLine
62
3
6
CONTINUOUS
10
99.9469830000
20
9.9246000000
11
99.9367220000
21
9.7835390000
0
LINE
5
90D
100
AcDbEntity
8
035
100
AcDbLine
62
3
6
CONTINUOUS
10
99.9367220000
20
9.7835390000
11
99.8854140000
21
9.6976240000
0
LINE
5
90E
100
AcDbEntity
8
035
100
AcDbLine
62
3
6
CONTINUOUS
10
99.8854140000
20
9.6976240000
11
99.7943500000
21
9.5911860000
0
LINE
5
90F
100
AcDbEntity
8
035
100
AcDbLine
62
3
6
CONTINUOUS
10
99.7943500000
20
9.5911860000
11
99.6571060000
21
9.5091160000
0
LINE
5
910
100
AcDbEntity
8
035
100
AcDbLine
62
3
6
CONTINUOUS
10
99.6571060000
20
9.5091160000
11
99.5262760000
21
9.4424340000
0
LINE
5
911
100
AcDbEntity
8
035
100
AcDbLine
62
3
6
CONTINUOUS
10
99.5262760000
20
9.4424340000
11
99.4266270000
21
9.4252180000
0
LINE
5
912
100
AcDbEntity
8
035
100
AcDbLine
62
3
6
CONTINUOUS
10
99.4509000000
20
9.1352400000
11
99.5337810000
21
9.1235790000
0
LINE
5
913
100
AcDbEntity
8
035
100
AcDbLine
62
3
6
CONTINUOUS
10
99.5337810000
20
9.1235790000
11
99.5869810000
21
9.0899330000
0
LINE
5
914
100
AcDbEntity
8
035
100
AcDbLine
62
3
6
CONTINUOUS
10
99.5869810000
20
9.0899330000
11
99.6195510000
21
9.0367450000
0
LINE
5
915
100
AcDbEntity
8
035
100
AcDbLine
62
3
6
CONTINUOUS
10
99.6195510000
20
9.0367450000
11
99.6347510000
21
8.9727040000
0
LINE
5
916
100
AcDbEntity
8
035
100
AcDbLine
62
3
6
CONTINUOUS
10
99.6347510000
20
8.9727040000
11
99.6272290000
21
8.8619210000
0
LINE
5
917
100
AcDbEntity
8
035
100
AcDbLine
62
3
6
CONTINUOUS
10
116.7946020000
20
10.4147050000
11
117.1327350000
21
9.0621710000
0
LINE
5
918
100
AcDbEntity
8
035
100
AcDbLine
62
3
6
CONTINUOUS
10
115.7802020000
20
9.0621710000
11
116.7946020000
21
10.4147050000
0
LINE
5
919
100
AcDbEntity
8
035
100
AcDbLine
62
3
6
CONTINUOUS
10
117.2260320000
20
8.6889840000
11
117.3460400000
21
8.2089520000
0
LINE
5
91A
100
AcDbEntity
8
035
100
AcDbLine
62
3
6
CONTINUOUS
10
115.1402870000
20
8.2089520000
11
115.5003110000
21
8.6889840000
0
LINE
5
91B
100
AcDbEntity
8
035
100
AcDbLine
62
3
6
CONTINUOUS
10
122.3854540000
20
9.3013760000
11
124.5596970000
21
9.3013760000
0
LINE
5
91C
100
AcDbEntity
8
035
100
AcDbLine
62
3
6
CONTINUOUS
10
84.9805370000
20
109.8768290000
11
70.9926600000
21
109.8768290000
0
LINE
5
91D
100
AcDbEntity
8
035
100
AcDbLine
62
3
6
CONTINUOUS
10
84.9805370000
20
111.0359130000
11
70.9926600000
21
111.0359130000
0
LINE
5
91E
100
AcDbEntity
8
035
100
AcDbLine
62
3
6
CONTINUOUS
10
84.9805370000
20
112.7816380000
11
70.9926600000
21
112.7816380000
0
LINE
5
91F
100
AcDbEntity
8
035
100
AcDbLine
62
3
6
CONTINUOUS
10
84.9805370000
20
115.0578950000
11
70.9926600000
21
115.0578950000
0
LINE
5
920
100
AcDbEntity
8
035
100
AcDbLine
62
3
6
CONTINUOUS
10
84.9805370000
20
117.7915240000
11
70.9926600000
21
117.7915240000
0
LINE
5
921
100
AcDbEntity
8
035
100
AcDbLine
62
3
6
CONTINUOUS
10
84.9805370000
20
120.8946640000
11
70.9926600000
21
120.8946640000
0
LINE
5
922
100
AcDbEntity
8
035
100
AcDbLine
62
3
6
CONTINUOUS
10
84.9805370000
20
124.2675760000
11
70.9926600000
21
124.2675760000
0
LINE
5
923
100
AcDbEntity
8
035
100
AcDbLine
62
3
6
CONTINUOUS
10
84.9805370000
20
127.8018540000
11
70.9926600000
21
127.8018540000
0
LINE
5
924
100
AcDbEntity
8
035
100
AcDbLine
62
3
6
CONTINUOUS
10
84.9805370000
20
131.5705260000
11
70.9926600000
21
131.5705260000
0
LINE
5
925
100
AcDbEntity
8
035
100
AcDbLine
62
3
6
CONTINUOUS
10
84.9805370000
20
135.1048030000
11
70.9926600000
21
135.1048030000
0
LINE
5
926
100
AcDbEntity
8
035
100
AcDbLine
62
3
6
CONTINUOUS
10
84.9805370000
20
138.4777150000
11
70.9926600000
21
138.4777150000
0
LINE
5
927
100
AcDbEntity
8
035
100
AcDbLine
62
3
6
CONTINUOUS
10
84.9805370000
20
141.5808550000
11
70.9926600000
21
141.5808550000
0
LINE
5
928
100
AcDbEntity
8
035
100
AcDbLine
62
3
6
CONTINUOUS
10
84.9805370000
20
144.3144840000
11
70.9926600000
21
144.3144840000
0
LINE
5
929
100
AcDbEntity
8
035
100
AcDbLine
62
3
6
CONTINUOUS
10
84.9805370000
20
146.5907410000
11
70.9926600000
21
146.5907410000
0
LINE
5
92A
100
AcDbEntity
8
035
100
AcDbLine
62
3
6
CONTINUOUS
10
84.9805370000
20
148.3364670000
11
70.9926600000
21
148.3364670000
0
LINE
5
92B
100
AcDbEntity
8
05
100
AcDbLine
62
3
6
CONTINUOUS
10
20.0316260000
20
140.1310670000
11
20.0316260000
21
129.2881330000
0
LINE
5
92C
100
AcDbEntity
8
05
100
AcDbLine
62
3
6
CONTINUOUS
10
22.0298940000
20
140.6927430000
11
22.0298940000
21
129.2881330000
0
LINE
5
92D
100
AcDbEntity
8
05
100
AcDbLine
62
3
6
CONTINUOUS
10
24.0281620000
20
140.6927430000
11
24.0281620000
21
129.2881330000
0
LINE
5
92E
100
AcDbEntity
8
05
100
AcDbLine
62
3
6
CONTINUOUS
10
26.0264300000
20
141.2544200000
11
26.0264300000
21
129.2881330000
0
LINE
5
92F
100
AcDbEntity
8
05
100
AcDbLine
62
3
6
CONTINUOUS
10
28.0246980000
20
141.2544200000
11
28.0246980000
21
129.2881330000
0
LINE
5
930
100
AcDbEntity
8
05
100
AcDbLine
62
3
6
CONTINUOUS
10
30.0229670000
20
141.8160960000
11
30.0229670000
21
129.2881330000
0
LINE
5
931
100
AcDbEntity
8
05
100
AcDbLine
62
3
6
CONTINUOUS
10
32.0212350000
20
141.8160960000
11
32.0212350000
21
129.2881330000
0
LINE
5
932
100
AcDbEntity
8
05
100
AcDbLine
62
3
6
CONTINUOUS
10
34.0195030000
20
142.3777730000
11
34.0195030000
21
129.2881330000
0
LINE
5
933
100
AcDbEntity
8
05
100
AcDbLine
62
3
6
CONTINUOUS
10
36.0177710000
20
142.3777730000
11
36.0177710000
21
129.2881330000
0
LINE
5
934
100
AcDbEntity
8
05
100
AcDbLine
62
3
6
CONTINUOUS
10
38.0160390000
20
142.9394490000
11
38.0160390000
21
129.2881330000
0
LINE
5
935
100
AcDbEntity
8
05
100
AcDbLine
62
3
6
CONTINUOUS
10
40.0143080000
20
142.9394490000
11
40.0143080000
21
129.2881330000
0
LINE
5
936
100
AcDbEntity
8
05
100
AcDbLine
62
3
6
CONTINUOUS
10
24.0281620000
20
117.8835230000
11
24.0281620000
21
129.2881330000
0
LINE
5
937
100
AcDbEntity
8
05
100
AcDbLine
62
3
6
CONTINUOUS
10
22.0298940000
20
117.8835230000
11
22.0298940000
21
129.2881330000
0
LINE
5
938
100
AcDbEntity
8
05
100
AcDbLine
62
3
6
CONTINUOUS
10
20.0316260000
20
118.4451990000
11
20.0316260000
21
129.2881330000
0
LINE
5
939
100
AcDbEntity
8
05
100
AcDbLine
62
3
6
CONTINUOUS
10
40.0143080000
20
115.6368170000
11
40.0143080000
21
129.2881330000
0
LINE
5
93A
100
AcDbEntity
8
05
100
AcDbLine
62
3
6
CONTINUOUS
10
38.0160390000
20
115.6368170000
11
38.0160390000
21
129.2881330000
0
LINE
5
93B
100
AcDbEntity
8
05
100
AcDbLine
62
3
6
CONTINUOUS
10
36.0177710000
20
116.1984930000
11
36.0177710000
21
129.2881330000
0
LINE
5
93C
100
AcDbEntity
8
05
100
AcDbLine
62
3
6
CONTINUOUS
10
34.0195030000
20
116.1984930000
11
34.0195030000
21
129.2881330000
0
LINE
5
93D
100
AcDbEntity
8
05
100
AcDbLine
62
3
6
CONTINUOUS
10
32.0212350000
20
116.7601700000
11
32.0212350000
21
129.2881330000
0
LINE
5
93E
100
AcDbEntity
8
05
100
AcDbLine
62
3
6
CONTINUOUS
10
30.0229670000
20
116.7601700000
11
30.0229670000
21
129.2881330000
0
LINE
5
93F
100
AcDbEntity
8
05
100
AcDbLine
62
3
6
CONTINUOUS
10
28.0246980000
20
117.3218460000
11
28.0246980000
21
129.2881330000
0
LINE
5
940
100
AcDbEntity
8
05
100
AcDbLine
62
3
6
CONTINUOUS
10
26.0264300000
20
117.3218460000
11
26.0264300000
21
129.2881330000
0
LINE
5
941
100
AcDbEntity
8
05
100
AcDbLine
62
3
6
CONTINUOUS
10
42.0125760000
20
143.5011260000
11
42.0125760000
21
129.2881330000
0
LINE
5
942
100
AcDbEntity
8
05
100
AcDbLine
62
3
6
CONTINUOUS
10
44.0108440000
20
143.5011260000
11
44.0108440000
21
129.2881330000
0
LINE
5
943
100
AcDbEntity
8
05
100
AcDbLine
62
3
6
CONTINUOUS
10
46.0091120000
20
144.0627970000
11
46.0091120000
21
129.2881330000
0
LINE
5
944
100
AcDbEntity
8
05
100
AcDbLine
62
3
6
CONTINUOUS
10
46.0091120000
20
114.5134690000
11
46.0091120000
21
129.2881330000
0
LINE
5
945
100
AcDbEntity
8
05
100
AcDbLine
62
3
6
CONTINUOUS
10
44.0108440000
20
115.0751400000
11
44.0108440000
21
129.2881330000
0
LINE
5
946
100
AcDbEntity
8
05
100
AcDbLine
62
3
6
CONTINUOUS
10
42.0125760000
20
115.0751400000
11
42.0125760000
21
129.2881330000
0
LINE
5
947
100
AcDbEntity
8
035
100
AcDbLine
62
3
6
CONTINUOUS
10
141.6111020000
20
126.6176200000
11
130.9796710000
21
126.6176200000
0
LINE
5
948
100
AcDbEntity
8
035
100
AcDbLine
62
3
6
CONTINUOUS
10
130.9796710000
20
132.2176200000
11
141.6111020000
21
132.2176200000
0
LINE
5
949
100
AcDbEntity
8
035
100
AcDbLine
62
3
6
CONTINUOUS
10
142.6111020000
20
131.2176200000
11
142.6111020000
21
127.6176200000
0
ARC
5
94A
100
AcDbEntity
8
035
100
AcDbCircle
62
3
6
CONTINUOUS
10
141.6111020000
20
127.6176200000
40
1.0000000000
100
AcDbArc
50
270.0000000000
51
360.0000000000
0
ARC
5
94B
100
AcDbEntity
8
035
100
AcDbCircle
62
3
6
CONTINUOUS
10
141.6111020000
20
131.2176200000
40
1.0000000000
100
AcDbArc
50
0.0000000000
51
90.0000000000
0
LINE
5
94C
100
AcDbEntity
8
035
100
AcDbLine
62
3
6
CONTINUOUS
10
85.0985380000
20
225.7955140000
11
71.1106610000
21
225.7955140000
0
LINE
5
94D
100
AcDbEntity
8
035
100
AcDbLine
62
3
6
CONTINUOUS
10
85.0985380000
20
225.1398550000
11
71.1106610000
21
225.1398550000
0
LINE
5
94E
100
AcDbEntity
8
035
100
AcDbLine
62
3
6
CONTINUOUS
10
85.0985380000
20
223.3941300000
11
71.1106610000
21
223.3941300000
0
LINE
5
94F
100
AcDbEntity
8
035
100
AcDbLine
62
3
6
CONTINUOUS
10
85.0985380000
20
221.1178720000
11
71.1106610000
21
221.1178720000
0
LINE
5
950
100
AcDbEntity
8
035
100
AcDbLine
62
3
6
CONTINUOUS
10
85.0985380000
20
218.3842430000
11
71.1106610000
21
218.3842430000
0
LINE
5
951
100
AcDbEntity
8
035
100
AcDbLine
62
3
6
CONTINUOUS
10
85.0985380000
20
215.2811040000
11
71.1106610000
21
215.2811040000
0
LINE
5
952
100
AcDbEntity
8
035
100
AcDbLine
62
3
6
CONTINUOUS
10
85.0985380000
20
211.9081910000
11
71.1106610000
21
211.9081910000
0
LINE
5
953
100
AcDbEntity
8
035
100
AcDbLine
62
3
6
CONTINUOUS
10
85.0985380000
20
208.3739140000
11
71.1106610000
21
208.3739140000
0
LINE
5
954
100
AcDbEntity
8
035
100
AcDbLine
62
3
6
CONTINUOUS
10
85.0985380000
20
204.6052420000
11
71.1106610000
21
204.6052420000
0
LINE
5
955
100
AcDbEntity
8
035
100
AcDbLine
62
3
6
CONTINUOUS
10
85.0985380000
20
201.0709650000
11
71.1106610000
21
201.0709650000
0
LINE
5
956
100
AcDbEntity
8
035
100
AcDbLine
62
3
6
CONTINUOUS
10
85.0985380000
20
197.6980520000
11
71.1106610000
21
197.6980520000
0
LINE
5
957
100
AcDbEntity
8
035
100
AcDbLine
62
3
6
CONTINUOUS
10
85.0985380000
20
194.5949130000
11
71.1106610000
21
194.5949130000
0
LINE
5
958
100
AcDbEntity
8
035
100
AcDbLine
62
3
6
CONTINUOUS
10
85.0985380000
20
191.8612840000
11
71.1106610000
21
191.8612840000
0
LINE
5
959
100
AcDbEntity
8
035
100
AcDbLine
62
3
6
CONTINUOUS
10
85.0985380000
20
189.5850260000
11
71.1106610000
21
189.5850260000
0
LINE
5
95A
100
AcDbEntity
8
035
100
AcDbLine
62
3
6
CONTINUOUS
10
85.0985380000
20
187.8393010000
11
71.1106610000
21
187.8393010000
0
LINE
5
95B
100
AcDbEntity
8
035
100
AcDbLine
62
3
6
CONTINUOUS
10
85.0985380000
20
186.6802170000
11
71.1106610000
21
186.6802170000
0
LINE
5
95C
100
AcDbEntity
8
035
100
AcDbLine
62
3
6
CONTINUOUS
10
85.0985380000
20
186.2509370000
11
71.1106610000
21
186.2509370000
0
LINE
5
95D
100
AcDbEntity
8
05
100
AcDbLine
62
3
6
CONTINUOUS
10
20.1496270000
20
195.2485880000
11
20.1496270000
21
206.0915210000
0
LINE
5
95E
100
AcDbEntity
8
05
100
AcDbLine
62
3
6
CONTINUOUS
10
22.1478950000
20
194.6869110000
11
22.1478950000
21
206.0915210000
0
LINE
5
95F
100
AcDbEntity
8
05
100
AcDbLine
62
3
6
CONTINUOUS
10
24.1461630000
20
194.6869110000
11
24.1461630000
21
206.0915210000
0
LINE
5
960
100
AcDbEntity
8
05
100
AcDbLine
62
3
6
CONTINUOUS
10
26.1444320000
20
194.1252350000
11
26.1444320000
21
206.0915210000
0
LINE
5
961
100
AcDbEntity
8
05
100
AcDbLine
62
3
6
CONTINUOUS
10
28.1427000000
20
194.1252350000
11
28.1427000000
21
206.0915210000
0
LINE
5
962
100
AcDbEntity
8
05
100
AcDbLine
62
3
6
CONTINUOUS
10
30.1409680000
20
193.5635580000
11
30.1409680000
21
206.0915210000
0
LINE
5
963
100
AcDbEntity
8
05
100
AcDbLine
62
3
6
CONTINUOUS
10
32.1392360000
20
193.5635580000
11
32.1392360000
21
206.0915210000
0
LINE
5
964
100
AcDbEntity
8
05
100
AcDbLine
62
3
6
CONTINUOUS
10
34.1375040000
20
193.0018820000
11
34.1375040000
21
206.0915210000
0
LINE
5
965
100
AcDbEntity
8
05
100
AcDbLine
62
3
6
CONTINUOUS
10
36.1357730000
20
193.0018820000
11
36.1357730000
21
206.0915210000
0
LINE
5
966
100
AcDbEntity
8
05
100
AcDbLine
62
3
6
CONTINUOUS
10
38.1340410000
20
192.4402050000
11
38.1340410000
21
206.0915210000
0
LINE
5
967
100
AcDbEntity
8
05
100
AcDbLine
62
3
6
CONTINUOUS
10
40.1323090000
20
192.4402050000
11
40.1323090000
21
206.0915210000
0
LINE
5
968
100
AcDbEntity
8
05
100
AcDbLine
62
3
6
CONTINUOUS
10
42.1305770000
20
191.8785280000
11
42.1305770000
21
206.0915210000
0
LINE
5
969
100
AcDbEntity
8
05
100
AcDbLine
62
3
6
CONTINUOUS
10
44.1288450000
20
191.8785280000
11
44.1288450000
21
206.0915210000
0
LINE
5
96A
100
AcDbEntity
8
05
100
AcDbLine
62
3
6
CONTINUOUS
10
46.1271130000
20
191.3168580000
11
46.1271130000
21
206.0915210000
0
LINE
5
96B
100
AcDbEntity
8
05
100
AcDbLine
62
3
6
CONTINUOUS
10
24.1461630000
20
217.4961310000
11
24.1461630000
21
206.0915210000
0
LINE
5
96C
100
AcDbEntity
8
05
100
AcDbLine
62
3
6
CONTINUOUS
10
22.1478950000
20
217.4961310000
11
22.1478950000
21
206.0915210000
0
LINE
5
96D
100
AcDbEntity
8
05
100
AcDbLine
62
3
6
CONTINUOUS
10
20.1496270000
20
216.9344550000
11
20.1496270000
21
206.0915210000
0
LINE
5
96E
100
AcDbEntity
8
05
100
AcDbLine
62
3
6
CONTINUOUS
10
40.1323090000
20
219.7428380000
11
40.1323090000
21
206.0915210000
0
LINE
5
96F
100
AcDbEntity
8
05
100
AcDbLine
62
3
6
CONTINUOUS
10
38.1340410000
20
219.7428380000
11
38.1340410000
21
206.0915210000
0
LINE
5
970
100
AcDbEntity
8
05
100
AcDbLine
62
3
6
CONTINUOUS
10
36.1357730000
20
219.1811610000
11
36.1357730000
21
206.0915210000
0
LINE
5
971
100
AcDbEntity
8
05
100
AcDbLine
62
3
6
CONTINUOUS
10
34.1375040000
20
219.1811610000
11
34.1375040000
21
206.0915210000
0
LINE
5
972
100
AcDbEntity
8
05
100
AcDbLine
62
3
6
CONTINUOUS
10
32.1392360000
20
218.6194850000
11
32.1392360000
21
206.0915210000
0
LINE
5
973
100
AcDbEntity
8
05
100
AcDbLine
62
3
6
CONTINUOUS
10
30.1409680000
20
218.6194850000
11
30.1409680000
21
206.0915210000
0
LINE
5
974
100
AcDbEntity
8
05
100
AcDbLine
62
3
6
CONTINUOUS
10
28.1427000000
20
218.0578080000
11
28.1427000000
21
206.0915210000
0
LINE
5
975
100
AcDbEntity
8
05
100
AcDbLine
62
3
6
CONTINUOUS
10
26.1444320000
20
218.0578080000
11
26.1444320000
21
206.0915210000
0
LINE
5
976
100
AcDbEntity
8
05
100
AcDbLine
62
3
6
CONTINUOUS
10
46.1271130000
20
220.8661850000
11
46.1271130000
21
206.0915210000
0
LINE
5
977
100
AcDbEntity
8
05
100
AcDbLine
62
3
6
CONTINUOUS
10
44.1288450000
20
220.3045140000
11
44.1288450000
21
206.0915210000
0
LINE
5
978
100
AcDbEntity
8
05
100
AcDbLine
62
3
6
CONTINUOUS
10
42.1305770000
20
220.3045140000
11
42.1305770000
21
206.0915210000
0
LINE
5
979
100
AcDbEntity
8
035
100
AcDbLine
62
3
6
CONTINUOUS
10
131.0976720000
20
220.3003880000
11
151.5874950000
21
220.2826920000
0
LINE
5
97A
100
AcDbEntity
8
035
100
AcDbLine
62
3
6
CONTINUOUS
10
179.0627710000
20
224.5741120000
11
178.5627710000
21
221.9160180000
0
LINE
5
97B
100
AcDbEntity
8
035
100
AcDbLine
62
3
6
CONTINUOUS
10
184.0627710000
20
224.5741120000
11
184.5627710000
21
221.9160180000
0
LINE
5
97C
100
AcDbEntity
8
035
100
AcDbLine
62
3
6
CONTINUOUS
10
177.1627710000
20
218.4537520000
11
177.1627710000
21
211.2210090000
0
LINE
5
97D
100
AcDbEntity
8
035
100
AcDbLine
62
3
6
CONTINUOUS
10
185.9627710000
20
211.2210090000
11
185.9627710000
21
218.4537520000
0
LINE
5
97E
100
AcDbEntity
8
035
100
AcDbLine
62
3
6
CONTINUOUS
10
186.0627710000
20
211.0210090000
11
186.0627710000
21
218.4173200000
0
LINE
5
97F
100
AcDbEntity
8
035
100
AcDbLine
62
3
6
CONTINUOUS
10
177.0627710000
20
211.0210090000
11
177.0627710000
21
218.4173200000
0
LINE
5
980
100
AcDbEntity
8
035
100
AcDbLine
62
3
6
CONTINUOUS
10
177.1627710000
20
211.2210090000
11
185.9627710000
21
211.2210090000
0
LINE
5
981
100
AcDbEntity
8
035
100
AcDbLine
62
3
6
CONTINUOUS
10
177.0627710000
20
211.0210090000
11
186.0627710000
21
211.0210090000
0
LINE
5
982
100
AcDbEntity
8
035
100
AcDbLine
62
3
6
CONTINUOUS
10
179.0627710000
20
222.6741120000
11
184.0627710000
21
222.6741120000
0
ARC
5
983
100
AcDbEntity
8
035
100
AcDbCircle
62
3
6
CONTINUOUS
10
176.4627710000
20
217.4138640000
40
0.6000000000
100
AcDbArc
50
0.0000000000
51
114.4962780000
0
LINE
5
984
100
AcDbEntity
8
035
100
AcDbLine
62
3
6
CONTINUOUS
10
178.5627710000
20
221.9160180000
11
178.5627710000
21
221.6826550000
0
LINE
5
985
100
AcDbEntity
8
035
100
AcDbLine
62
3
6
CONTINUOUS
10
179.0627710000
20
222.6741120000
11
178.8874600000
21
221.7421300000
0
ARC
5
986
100
AcDbEntity
8
035
100
AcDbCircle
62
3
6
CONTINUOUS
10
186.6627710000
20
217.4138640000
40
0.6000000000
100
AcDbArc
50
65.5037200000
51
180.0000000000
0
LINE
5
987
100
AcDbEntity
8
035
100
AcDbLine
62
3
6
CONTINUOUS
10
184.5627710000
20
221.9160180000
11
184.5627710000
21
221.6826550000
0
LINE
5
988
100
AcDbEntity
8
035
100
AcDbLine
62
3
6
CONTINUOUS
10
184.0627710000
20
222.6741120000
11
184.2380810000
21
221.7421300000
0
LINE
5
989
100
AcDbEntity
8
035
100
AcDbLine
62
3
6
CONTINUOUS
10
179.0627710000
20
224.5741120000
11
184.0627710000
21
224.5741120000
0
ARC
5
98A
100
AcDbEntity
8
KONTAKTE
100
AcDbCircle
62
3
6
CONTINUOUS
10
173.4600450000
20
206.8460030000
40
3.0000000000
100
AcDbArc
50
237.1270070000
51
303.3728880000
0
ARC
5
98B
100
AcDbEntity
8
KONTAKTE
100
AcDbCircle
62
3
6
CONTINUOUS
10
173.4654980000
20
205.5960150000
40
2.1250000000
100
AcDbArc
50
17.3545830000
51
163.1453120000
0
ARC
5
98C
100
AcDbEntity
8
KONTAKTE
100
AcDbCircle
62
3
6
CONTINUOUS
10
173.4600450000
20
206.8460030000
40
2.1250000000
100
AcDbArc
50
197.3545830000
51
343.1453120000
0
ARC
5
98D
100
AcDbEntity
8
KONTAKTE
100
AcDbCircle
62
3
6
CONTINUOUS
10
173.4654980000
20
205.5960150000
40
3.0000000000
100
AcDbArc
50
57.1270070000
51
123.3728880000
0
LINE
5
98E
100
AcDbEntity
8
KONTAKTE
100
AcDbLine
62
3
6
CONTINUOUS
10
171.4317810000
20
206.2121490000
11
170.9627950000
21
206.2101030000
0
LINE
5
98F
100
AcDbEntity
8
KONTAKTE
100
AcDbLine
62
3
6
CONTINUOUS
10
175.4937610000
20
206.2298690000
11
175.9627470000
21
206.2319150000
0
ARC
5
990
100
AcDbEntity
8
KONTAKTE
100
AcDbCircle
62
3
6
CONTINUOUS
10
189.6651040000
20
206.8460040000
40
3.0000000000
100
AcDbArc
50
236.6631670000
51
302.9090470000
0
ARC
5
991
100
AcDbEntity
8
KONTAKTE
100
AcDbCircle
62
3
6
CONTINUOUS
10
189.6604380000
20
205.5960130000
40
2.1250000000
100
AcDbArc
50
16.8907420000
51
162.6814720000
0
ARC
5
992
100
AcDbEntity
8
KONTAKTE
100
AcDbCircle
62
3
6
CONTINUOUS
10
189.6651040000
20
206.8460040000
40
2.1250000000
100
AcDbArc
50
196.8907420000
51
342.6814720000
0
ARC
5
993
100
AcDbEntity
8
KONTAKTE
100
AcDbCircle
62
3
6
CONTINUOUS
10
189.6604380000
20
205.5960130000
40
3.0000000000
100
AcDbArc
50
56.6631670000
51
122.9090470000
0
LINE
5
994
100
AcDbEntity
8
KONTAKTE
100
AcDbLine
62
3
6
CONTINUOUS
10
187.6317760000
20
206.2285910000
11
187.1627890000
21
206.2303420000
0
LINE
5
995
100
AcDbEntity
8
KONTAKTE
100
AcDbLine
62
3
6
CONTINUOUS
10
191.6937670000
20
206.2134270000
11
192.1627540000
21
206.2116760000
0
ARC
5
996
100
AcDbEntity
8
KONTAKTE
100
AcDbCircle
62
3
6
CONTINUOUS
10
181.5676600000
20
198.9459900000
40
2.1250000000
100
AcDbArc
50
196.6563780000
51
342.4471080000
0
ARC
5
997
100
AcDbEntity
8
KONTAKTE
100
AcDbCircle
62
3
6
CONTINUOUS
10
181.5578810000
20
197.6960280000
40
2.1250000000
100
AcDbArc
50
16.6563780000
51
162.4471080000
0
ARC
5
998
100
AcDbEntity
8
KONTAKTE
100
AcDbCircle
62
3
6
CONTINUOUS
10
181.5578810000
20
197.6960280000
40
3.0000000000
100
AcDbArc
50
56.4288030000
51
122.6746830000
0
ARC
5
999
100
AcDbEntity
8
KONTAKTE
100
AcDbCircle
62
3
6
CONTINUOUS
10
181.5676600000
20
198.9459900000
40
3.0000000000
100
AcDbArc
50
236.4288030000
51
302.6746830000
0
LINE
5
99A
100
AcDbEntity
8
KONTAKTE
100
AcDbLine
62
3
6
CONTINUOUS
10
179.5318230000
20
198.3368980000
11
179.0628470000
21
198.3405670000
0
LINE
5
99B
100
AcDbEntity
8
KONTAKTE
100
AcDbLine
62
3
6
CONTINUOUS
10
183.5937180000
20
198.3051190000
11
184.0626940000
21
198.3014500000
0
LINE
5
99C
100
AcDbEntity
8
05
100
AcDbLine
62
4
6
CONTINUOUS
10
5.0000000000
20
16.0000000000
11
72.0000000000
21
16.0000000000
0
LINE
5
99D
100
AcDbEntity
8
05
100
AcDbLine
62
4
6
CONTINUOUS
10
5.0000000000
20
21.0000000000
11
72.0000000000
21
21.0000000000
0
LINE
5
99E
100
AcDbEntity
8
05
100
AcDbLine
62
4
6
CONTINUOUS
10
5.0000000000
20
26.0000000000
11
72.0000000000
21
26.0000000000
0
LINE
5
99F
100
AcDbEntity
8
05
100
AcDbLine
62
4
6
CONTINUOUS
10
5.0000000000
20
31.0000000000
11
72.0000000000
21
31.0000000000
0
LINE
5
9A0
100
AcDbEntity
8
05
100
AcDbLine
62
4
6
CONTINUOUS
10
5.0000000000
20
36.0000000000
11
72.0000000000
21
36.0000000000
0
LINE
5
9A1
100
AcDbEntity
8
05
100
AcDbLine
62
4
6
CONTINUOUS
10
5.0000000000
20
41.0000000000
11
72.0000000000
21
41.0000000000
0
LINE
5
9A2
100
AcDbEntity
8
05
100
AcDbLine
62
4
6
CONTINUOUS
10
5.0000000000
20
46.0000000000
11
72.0000000000
21
46.0000000000
0
LINE
5
9A3
100
AcDbEntity
8
05
100
AcDbLine
62
4
6
CONTINUOUS
10
110.9116940000
20
10.6550740000
11
110.9496920000
21
10.6930720000
0
LINE
5
9A4
100
AcDbEntity
8
05
100
AcDbLine
62
4
6
CONTINUOUS
10
110.5868920000
20
8.2089520000
11
110.5962100000
21
8.2182700000
0
LINE
5
9A5
100
AcDbEntity
8
SCHRAFFIERT
100
AcDbLine
62
4
6
CONTINUOUS
10
84.9805370000
20
109.4475490000
11
70.9926600000
21
109.4475490000
0
LINE
5
9A6
100
AcDbEntity
8
SCHRAFFIERT
100
AcDbLine
62
4
6
CONTINUOUS
10
84.9805370000
20
148.9921260000
11
70.9926600000
21
148.9921260000
0
LINE
5
9A7
100
AcDbEntity
8
025
100
AcDbLine
62
4
6
CONTINUOUS
10
68.3656430000
20
148.1771060000
11
68.3656430000
21
145.0531290000
0
LINE
5
9A8
100
AcDbEntity
8
SCHRAFFIERT
100
AcDbLine
62
4
6
CONTINUOUS
10
84.9805370000
20
109.5296930000
11
84.9805370000
21
109.4475490000
0
LINE
5
9A9
100
AcDbEntity
8
SCHRAFFIERT
100
AcDbLine
62
4
6
CONTINUOUS
10
84.9805370000
20
109.8768290000
11
84.9805370000
21
109.7406570000
0
LINE
5
9AA
100
AcDbEntity
8
025
100
AcDbLine
62
4
6
CONTINUOUS
10
68.4836440000
20
224.7119250000
11
68.4836440000
21
222.8917130000
0
LINE
5
9AB
100
AcDbEntity
8
SCHRAFFIERT
100
AcDbLine
62
4
6
CONTINUOUS
10
71.1106610000
20
186.3330810000
11
71.1106610000
21
186.2509370000
0
LINE
5
9AC
100
AcDbEntity
8
SCHRAFFIERT
100
AcDbLine
62
4
6
CONTINUOUS
10
71.1106610000
20
186.6802170000
11
71.1106610000
21
186.5440450000
0
LINE
5
9AD
100
AcDbEntity
8
025
100
AcDbLine
62
4
6
CONTINUOUS
10
131.0976720000
20
218.4706140000
11
152.9730540000
21
218.4706140000
0
LINE
5
9AE
100
AcDbEntity
8
SCHRAFFIERT
100
AcDbLine
62
4
6
CONTINUOUS
10
85.0985380000
20
186.6802170000
11
85.0985380000
21
186.5440450000
0
LINE
5
9AF
100
AcDbEntity
8
SCHRAFFIERT
100
AcDbLine
62
4
6
CONTINUOUS
10
85.0985380000
20
186.3330810000
11
85.0985380000
21
186.2509370000
0
ARC
5
9B0
100
AcDbEntity
8
025
100
AcDbCircle
62
4
6
CONTINUOUS
10
151.4649490000
20
218.7695580000
40
1.5374480000
100
AcDbArc
50
348.7878880000
51
75.6005110000
0
LINE
5
9B1
100
AcDbEntity
8
0
100
AcDbLine
62
4
6
CONTINUOUS
10
12.1565540000
20
215.8311990000
11
12.1565540000
21
242.7918190000
0
LINE
5
9B2
100
AcDbEntity
8
0
100
AcDbLine
62
4
6
CONTINUOUS
10
153.2464360000
20
223.3309180000
11
153.2464360000
21
242.7918190000
0
LINE
5
9B3
100
AcDbEntity
8
0
100
AcDbLine
62
4
6
CONTINUOUS
10
15.6565540000
20
241.5519910000
11
149.7464360000
21
241.5519910000
0
LINE
5
9B4
100
AcDbEntity
8
0
100
AcDbLine
62
4
6
CONTINUOUS
10
15.6565540000
20
240.9686580000
11
12.1565540000
21
241.5519910000
0
LINE
5
9B5
100
AcDbEntity
8
0
100
AcDbLine
62
4
6
CONTINUOUS
10
12.1565540000
20
241.5519910000
11
15.6565540000
21
242.1353250000
0
LINE
5
9B6
100
AcDbEntity
8
0
100
AcDbLine
62
4
6
CONTINUOUS
10
15.6565540000
20
242.1353250000
11
15.6565540000
21
240.9686580000
0
SOLID
5
9B7
100
AcDbEntity
8
0
100
AcDbTrace
62
4
6
CONTINUOUS
10
12.1565540000
20
241.5519910000
11
15.6565540000
21
240.9686580000
12
15.6565540000
22
242.1353250000
13
15.6565540000
23
242.1353250000
0
LINE
5
9B8
100
AcDbEntity
8
0
100
AcDbLine
62
4
6
CONTINUOUS
10
149.7464360000
20
240.9686580000
11
153.2464360000
21
241.5519910000
0
LINE
5
9B9
100
AcDbEntity
8
0
100
AcDbLine
62
4
6
CONTINUOUS
10
153.2464360000
20
241.5519910000
11
149.7464360000
21
242.1353250000
0
LINE
5
9BA
100
AcDbEntity
8
0
100
AcDbLine
62
4
6
CONTINUOUS
10
149.7464360000
20
242.1353250000
11
149.7464360000
21
240.9686580000
0
SOLID
5
9BB
100
AcDbEntity
8
0
100
AcDbTrace
62
4
6
CONTINUOUS
10
153.2464360000
20
241.5519910000
11
149.7464360000
21
242.1353250000
12
149.7464360000
22
240.9686580000
13
149.7464360000
23
240.9686580000
0
LINE
5
9BC
100
AcDbEntity
8
0
100
AcDbLine
62
4
6
CONTINUOUS
10
132.8985640000
20
148.5591850000
11
180.2197620000
21
148.5591850000
0
LINE
5
9BD
100
AcDbEntity
8
0
100
AcDbLine
62
4
6
CONTINUOUS
10
131.9868580000
20
109.5110870000
11
180.2193580000
21
109.5110870000
0
LINE
5
9BE
100
AcDbEntity
8
0
100
AcDbLine
62
4
6
CONTINUOUS
10
179.4198680000
20
148.5591850000
11
179.4198680000
21
109.5110870000
0
LINE
5
9BF
100
AcDbEntity
8
0
100
AcDbLine
62
4
6
CONTINUOUS
10
180.0030950000
20
145.0591850000
11
179.4197620000
21
148.5591850000
0
LINE
5
9C0
100
AcDbEntity
8
0
100
AcDbLine
62
4
6
CONTINUOUS
10
179.4197620000
20
148.5591850000
11
178.8364280000
21
145.0591850000
0
LINE
5
9C1
100
AcDbEntity
8
0
100
AcDbLine
62
4
6
CONTINUOUS
10
178.8364280000
20
145.0591850000
11
180.0030950000
21
145.0591850000
0
SOLID
5
9C2
100
AcDbEntity
8
0
100
AcDbTrace
62
4
6
CONTINUOUS
10
178.8364280000
20
145.0591848640
11
180.0030950000
21
145.0591848640
12
179.4197620000
22
148.5591850000
13
179.4197620000
23
148.5591850000
0
LINE
5
9C3
100
AcDbEntity
8
0
100
AcDbLine
62
4
6
CONTINUOUS
10
180.0026910000
20
113.0110870000
11
179.4193580000
21
109.5110870000
0
LINE
5
9C4
100
AcDbEntity
8
0
100
AcDbLine
62
4
6
CONTINUOUS
10
179.4193580000
20
109.5110870000
11
178.8360250000
21
113.0110870000
0
LINE
5
9C5
100
AcDbEntity
8
0
100
AcDbLine
62
4
6
CONTINUOUS
10
178.8360250000
20
113.0110870000
11
180.0026910000
21
113.0110870000
0
SOLID
5
9C6
100
AcDbEntity
8
0
100
AcDbTrace
62
4
6
CONTINUOUS
10
180.0026910000
20
113.0110868480
11
178.8360250000
21
113.0110868480
12
179.4193580000
22
109.5110870000
13
179.4193580000
23
109.5110870000
0
LINE
5
9C7
100
AcDbEntity
8
0
100
AcDbLine
62
4
6
CONTINUOUS
10
153.0284250000
20
145.1676200000
11
169.7553070000
21
145.1676200000
0
LINE
5
9C8
100
AcDbEntity
8
0
100
AcDbLine
62
4
6
CONTINUOUS
10
153.2979740000
20
113.6676200000
11
169.7553070000
21
113.6676200000
0
LINE
5
9C9
100
AcDbEntity
8
0
100
AcDbLine
62
4
6
CONTINUOUS
10
168.9553070000
20
141.6676200000
11
168.9553070000
21
117.1676200000
0
LINE
5
9CA
100
AcDbEntity
8
0
100
AcDbLine
62
4
6
CONTINUOUS
10
169.5386400000
20
141.6676200000
11
168.9553070000
21
145.1676200000
0
LINE
5
9CB
100
AcDbEntity
8
0
100
AcDbLine
62
4
6
CONTINUOUS
10
168.9553070000
20
145.1676200000
11
168.3719730000
21
141.6676200000
0
LINE
5
9CC
100
AcDbEntity
8
0
100
AcDbLine
62
4
6
CONTINUOUS
10
168.3719730000
20
141.6676200000
11
169.5386400000
21
141.6676200000
0
SOLID
5
9CD
100
AcDbEntity
8
0
100
AcDbTrace
62
4
6
CONTINUOUS
10
168.3719730000
20
141.6676201600
11
169.5386400000
21
141.6676201600
12
168.9553070000
22
145.1676200000
13
168.9553070000
23
145.1676200000
0
LINE
5
9CE
100
AcDbEntity
8
0
100
AcDbLine
62
4
6
CONTINUOUS
10
169.5386400000
20
117.1676200000
11
168.9553070000
21
113.6676200000
0
LINE
5
9CF
100
AcDbEntity
8
0
100
AcDbLine
62
4
6
CONTINUOUS
10
168.9553070000
20
113.6676200000
11
168.3719730000
21
117.1676200000
0
LINE
5
9D0
100
AcDbEntity
8
0
100
AcDbLine
62
4
6
CONTINUOUS
10
168.3719730000
20
117.1676200000
11
169.5386400000
21
117.1676200000
0
SOLID
5
9D1
100
AcDbEntity
8
0
100
AcDbTrace
62
4
6
CONTINUOUS
10
169.5386400000
20
117.1676200640
11
168.3719730000
21
117.1676200640
12
168.9553070000
22
113.6676200000
13
168.9553070000
23
113.6676200000
0
LINE
5
9D2
100
AcDbEntity
8
025
100
AcDbLine
62
4
6
CONTINUOUS
10
179.0627710000
20
224.5741120000
11
179.0627710000
21
222.6741120000
0
LINE
5
9D3
100
AcDbEntity
8
025
100
AcDbLine
62
4
6
CONTINUOUS
10
184.0627710000
20
224.5741120000
11
184.0627710000
21
222.6741120000
0
LINE
5
9D4
100
AcDbEntity
8
025
100
AcDbLine
62
4
6
CONTINUOUS
10
91.2616060000
20
147.7697940000
11
95.9861580000
21
148.2362730000
0
LINE
5
9D5
100
AcDbEntity
8
025
100
AcDbLine
62
4
6
CONTINUOUS
10
91.2616060000
20
111.0654470000
11
95.9861580000
21
110.5989680000
0
LINE
5
9D6
100
AcDbEntity
8
0
100
AcDbLine
62
4
6
CONTINUOUS
10
119.2544410000
20
186.7272120000
11
119.2779790000
21
186.7210090000
0
LINE
5
9D7
100
AcDbEntity
8
0
100
AcDbLine
62
4
6
CONTINUOUS
10
178.1301890000
20
228.5831400000
11
178.1302250000
21
228.5832850000
0
LINE
5
9D8
100
AcDbEntity
8
0
100
AcDbLine
62
4
6
CONTINUOUS
10
184.9950000000
20
228.5844160000
11
184.9950000000
21
228.5843720000
0
LINE
5
9D9
100
AcDbEntity
8
025
100
AcDbLine
62
4
6
CONTINUOUS
10
195.2852490000
20
229.6395930000
11
195.3224250000
21
229.5295370000
0
LINE
5
9DA
100
AcDbEntity
8
025
100
AcDbLine
62
4
6
CONTINUOUS
10
97.1599770000
20
119.5934500000
11
97.1703090000
21
119.7198750000
0
LINE
5
9DB
100
AcDbEntity
8
025
100
AcDbLine
62
4
6
CONTINUOUS
10
97.1703090000
20
119.7198750000
11
97.2010290000
21
119.8442700000
0
LINE
5
9DC
100
AcDbEntity
8
025
100
AcDbLine
62
4
6
CONTINUOUS
10
97.2010290000
20
119.8442700000
11
97.2513160000
21
119.9633160000
0
LINE
5
9DD
100
AcDbEntity
8
025
100
AcDbLine
62
4
6
CONTINUOUS
10
97.2513160000
20
119.9633160000
11
97.3198280000
21
120.0738310000
0
LINE
5
9DE
100
AcDbEntity
8
025
100
AcDbLine
62
4
6
CONTINUOUS
10
97.3198280000
20
120.0738310000
11
97.4047340000
21
120.1728640000
0
LINE
5
9DF
100
AcDbEntity
8
025
100
AcDbLine
62
4
6
CONTINUOUS
10
97.4047340000
20
120.1728640000
11
97.5037670000
21
120.2577700000
0
LINE
5
9E0
100
AcDbEntity
8
025
100
AcDbLine
62
4
6
CONTINUOUS
10
97.5037670000
20
120.2577700000
11
97.6142820000
21
120.3262810000
0
LINE
5
9E1
100
AcDbEntity
8
025
100
AcDbLine
62
4
6
CONTINUOUS
10
97.6142820000
20
120.3262810000
11
97.7333270000
21
120.3765690000
0
LINE
5
9E2
100
AcDbEntity
8
025
100
AcDbLine
62
4
6
CONTINUOUS
10
97.7333270000
20
120.3765690000
11
97.8577230000
21
120.4072890000
0
LINE
5
9E3
100
AcDbEntity
8
025
100
AcDbLine
62
4
6
CONTINUOUS
10
97.8577230000
20
120.4072890000
11
97.9841470000
21
120.4176200000
0
LINE
5
9E4
100
AcDbEntity
8
025
100
AcDbLine
62
4
6
CONTINUOUS
10
97.1599770000
20
139.2417900000
11
97.1703090000
21
139.1153660000
0
LINE
5
9E5
100
AcDbEntity
8
025
100
AcDbLine
62
4
6
CONTINUOUS
10
97.1703090000
20
139.1153660000
11
97.2010290000
21
138.9909700000
0
LINE
5
9E6
100
AcDbEntity
8
025
100
AcDbLine
62
4
6
CONTINUOUS
10
97.2010290000
20
138.9909700000
11
97.2513160000
21
138.8719250000
0
LINE
5
9E7
100
AcDbEntity
8
025
100
AcDbLine
62
4
6
CONTINUOUS
10
97.2513160000
20
138.8719250000
11
97.3198280000
21
138.7614100000
0
LINE
5
9E8
100
AcDbEntity
8
025
100
AcDbLine
62
4
6
CONTINUOUS
10
97.3198280000
20
138.7614100000
11
97.4047340000
21
138.6623770000
0
LINE
5
9E9
100
AcDbEntity
8
025
100
AcDbLine
62
4
6
CONTINUOUS
10
97.4047340000
20
138.6623770000
11
97.5037670000
21
138.5774710000
0
LINE
5
9EA
100
AcDbEntity
8
025
100
AcDbLine
62
4
6
CONTINUOUS
10
97.5037670000
20
138.5774710000
11
97.6142820000
21
138.5089590000
0
LINE
5
9EB
100
AcDbEntity
8
025
100
AcDbLine
62
4
6
CONTINUOUS
10
97.6142820000
20
138.5089590000
11
97.7333270000
21
138.4586720000
0
LINE
5
9EC
100
AcDbEntity
8
025
100
AcDbLine
62
4
6
CONTINUOUS
10
97.7333270000
20
138.4586720000
11
97.8577230000
21
138.4279520000
0
LINE
5
9ED
100
AcDbEntity
8
025
100
AcDbLine
62
4
6
CONTINUOUS
10
97.8577230000
20
138.4279520000
11
97.9841470000
21
138.4176200000
0
LINE
5
9EE
100
AcDbEntity
8
025
100
AcDbLine
62
4
6
CONTINUOUS
10
97.9841470000
20
120.4176200000
11
124.1599770000
21
120.4176200000
0
ARC
5
9EF
100
AcDbEntity
8
025
100
AcDbCircle
62
4
6
CONTINUOUS
10
124.1599770000
20
118.4176200000
40
2.0000000000
100
AcDbArc
50
0.0000000000
51
90.0000000000
0
LINE
5
9F0
100
AcDbEntity
8
025
100
AcDbLine
62
4
6
CONTINUOUS
10
97.9841470000
20
138.4176200000
11
124.1599880000
21
138.4176200000
0
ARC
5
9F1
100
AcDbEntity
8
025
100
AcDbCircle
62
4
6
CONTINUOUS
10
124.1600580000
20
140.4175400000
40
1.9999990000
100
AcDbArc
50
269.9976970000
51
0.0023030000
0
LINE
5
9F2
100
AcDbEntity
8
025
100
AcDbLine
62
4
6
CONTINUOUS
10
68.4836440000
20
221.4005480000
11
68.4836440000
21
219.0460760000
0
LINE
5
9F3
100
AcDbEntity
8
025
100
AcDbLine
62
4
6
CONTINUOUS
10
68.4836440000
20
216.3776750000
11
68.4836440000
21
187.3612120000
0
LINE
5
9F4
100
AcDbEntity
8
025
100
AcDbLine
62
4
6
CONTINUOUS
10
68.3656430000
20
141.4115940000
11
68.3656430000
21
110.8263930000
0
TEXT
5
9F5
100
AcDbEntity
8
05
100
AcDbText
62
4
6
CONTINUOUS
10
155.0000000000
20
11.0000000000
40
1.5000000000
1
Zeichn. Nr.
51
15.0000000000
72
5
11
166.1785714286
21
11.0000000000
100
AcDbText
0
TEXT
5
9F6
100
AcDbEntity
8
05
100
AcDbText
62
4
6
CONTINUOUS
10
155.0000000000
20
28.0000000000
40
1.5000000000
1
Ersetzt durch:         Blatt
51
15.0000000000
72
5
11
184.1428571429
21
28.0000000000
100
AcDbText
0
TEXT
5
9F7
100
AcDbEntity
8
05
100
AcDbText
62
4
6
CONTINUOUS
10
155.0000000000
20
43.0000000000
40
1.5000000000
1
Gezeichnet
51
15.0000000000
72
5
11
165.2142857143
21
43.0000000000
100
AcDbText
0
TEXT
5
9F8
100
AcDbEntity
8
05
100
AcDbText
62
4
6
CONTINUOUS
10
155.0000000000
20
32.0000000000
40
1.5000000000
1
Gesehen
51
15.0000000000
72
5
11
162.6071428571
21
32.0000000000
100
AcDbText
0
TEXT
5
9F9
100
AcDbEntity
8
05
100
AcDbText
62
4
6
CONTINUOUS
10
174.0000000000
20
47.0000000000
40
1.5000000000
1
Datum     Name
51
15.0000000000
72
5
11
190.3571428571
21
47.0000000000
100
AcDbText
0
TEXT
5
9FA
100
AcDbEntity
8
05
100
AcDbText
62
4
6
CONTINUOUS
10
114.0000000000
20
47.0000000000
40
1.5000000000
1
Werkstoff:      Massstab:
51
15.0000000000
72
5
11
140.5714285714
21
47.0000000000
100
AcDbText
0
TEXT
5
9FB
100
AcDbEntity
8
05
100
AcDbText
62
4
6
CONTINUOUS
10
73.0000000000
20
28.0000000000
40
1.5000000000
1
Benennung:
51
15.0000000000
72
5
11
83.2857142857
21
28.0000000000
100
AcDbText
0
TEXT
5
9FC
100
AcDbEntity
8
05
100
AcDbText
62
4
6
CONTINUOUS
10
73.0000000000
20
44.0000000000
40
1.5000000000
1
*)Lieferant darf ohne 
51
15.0000000000
72
5
11
95.1428571429
21
44.0000000000
100
AcDbText
0
TEXT
5
9FD
100
AcDbEntity
8
05
100
AcDbText
62
4
6
CONTINUOUS
10
73.0000000000
20
41.5000000000
40
1.5000000000
1
 Ruecksprache nicht 
51
15.0000000000
72
5
11
93.9285714286
21
41.5000000000
100
AcDbText
0
TEXT
5
9FE
100
AcDbEntity
8
05
100
AcDbText
62
4
6
CONTINUOUS
10
73.0000000000
20
39.0000000000
40
1.5000000000
1
 geaendert werden
51
15.0000000000
72
5
11
91.4285714286
21
39.0000000000
100
AcDbText
0
TEXT
5
9FF
100
AcDbEntity
8
05
100
AcDbText
62
4
6
CONTINUOUS
10
73.0000000000
20
35.0000000000
40
1.5000000000
1
Zeichnung urheberrechtlich
51
15.0000000000
72
5
11
99.3214285714
21
35.0000000000
100
AcDbText
0
TEXT
5
A00
100
AcDbEntity
8
05
100
AcDbText
62
4
6
CONTINUOUS
10
73.0000000000
20
32.5000000000
40
1.5000000000
1
geschuetzt (DIN 34) (C)
51
15.0000000000
72
5
11
96.2857142857
21
32.5000000000
100
AcDbText
0
TEXT
5
A01
100
AcDbEntity
8
05
100
AcDbText
62
4
6
CONTINUOUS
10
155.0000000000
20
37.0000000000
40
1.5000000000
1
Geprueft
51
15.0000000000
72
5
11
163.1428571429
21
37.0000000000
100
AcDbText
0
TEXT
5
A02
100
AcDbEntity
8
05
100
AcDbText
62
4
6
CONTINUOUS
10
155.0000000000
20
20.0000000000
40
1.5000000000
1
Ersatz fuer:           von  Blatt
51
15.0000000000
72
5
11
190.0357142857
21
20.0000000000
100
AcDbText
0
TEXT
5
A03
100
AcDbEntity
8
05
100
AcDbText
62
4
6
CONTINUOUS
10
8.0000000000
20
6.0000000000
40
1.5000000000
1
Ind.  Aenderung             Datum   
51
15.0000000000
72
5
11
48.6785714286
21
6.0000000000
100
AcDbText
0
TEXT
5
A04
100
AcDbEntity
8
05
100
AcDbText
62
4
6
CONTINUOUS
10
48.6785714286
20
6.0000000000
40
1.5000000000
1
 Name
51
15.0000000000
72
5
11
54.5714285714
21
6.0000000000
100
AcDbText
0
TEXT
5
A05
100
AcDbEntity
8
035
100
AcDbText
62
4
6
CONTINUOUS
10
127.4230740000
20
8.2646360000
40
2.4848480000
1
FL-9494 SCHAAN
51
15.0000000000
72
5
11
154.5197498095
21
8.2646360000
100
AcDbText
0
TEXT
5
A06
100
AcDbEntity
8
05
100
AcDbText
62
4
6
CONTINUOUS
10
190.8452380952
20
42.0000000000
40
2.5000000000
1
Alinjak
72
5
11
202.1547619048
21
42.0000000000
100
AcDbText
0
TEXT
5
A07
100
AcDbEntity
8
05
100
AcDbText
62
4
6
CONTINUOUS
10
173.4464285714
20
42.0000000000
40
2.5000000000
1
10.06.92
51
15.0000000000
72
5
11
187.5535714286
21
42.0000000000
100
AcDbText
0
TEXT
5
A08
100
AcDbEntity
8
05
100
AcDbText
62
2
6
CONTINUOUS
10
97.2261904762
20
17.5000000000
40
5.0000000000
1
NC3FX-HD
51
15.0000000000
72
5
11
128.7738095238
21
17.5000000000
100
AcDbText
0
TEXT
5
A09
100
AcDbEntity
8
05
100
AcDbText
62
3
6
CONTINUOUS
10
102.9595430000
20
26.0821910000
40
3.5000000000
1
X-HD Serie
51
15.0000000000
72
5
11
128.9595430000
21
26.0821910000
100
AcDbText
0
TEXT
5
A0A
100
AcDbEntity
8
05
100
AcDbText
62
3
6
CONTINUOUS
10
167.4497810000
20
6.9765410000
40
3.5000000000
1
3102 St 08 06
51
15.0000000000
72
5
11
201.4497810000
21
6.9765410000
100
AcDbText
0
TEXT
5
A0B
100
AcDbEntity
8
05
100
AcDbText
62
2
6
CONTINUOUS
10
140.1482807143
20
39.6560560000
40
5.0000000000
1
2:1
51
15.0000000000
72
5
11
148.7197092857
21
39.6560560000
100
AcDbText
0
TEXT
5
A0C
100
AcDbEntity
8
0
100
AcDbText
62
3
6
CONTINUOUS
10
49.4514950000
20
243.2991650000
40
3.5000000000
1
70.00-72.00 [2.756"-2.835"]
72
5
11
115.9514950000
21
243.2991650000
100
AcDbText
0
TEXT
5
A0D
100
AcDbEntity
8
0
100
AcDbText
62
3
6
CONTINUOUS
10
177.7598740000
20
110.7378616667
40
3.5000000000
1
%%c19.00 [0.748"]
50
90.0000000000
72
5
11
177.7598740000
21
148.6545283333
100
AcDbText
0
TEXT
5
A0E
100
AcDbEntity
8
0
100
AcDbText
62
3
6
CONTINUOUS
10
167.2953130000
20
111.0693736667
40
3.5000000000
1
%%c15.80 [0.622"]
50
90.0000000000
72
5
11
167.2953130000
21
148.7360403333
100
AcDbText
0
TEXT
5
A0F
100
AcDbEntity
8
025
100
AcDbText
62
4
6
CONTINUOUS
10
172.2528750000
20
209.5768250000
40
2.5000000000
1
2
72
5
11
174.2171607143
21
209.5768250000
100
AcDbText
0
TEXT
5
A10
100
AcDbEntity
8
025
100
AcDbText
62
4
6
CONTINUOUS
10
188.6779930000
20
209.5618930000
40
2.5000000000
1
1
72
5
11
190.1065644286
21
209.5618930000
100
AcDbText
0
TEXT
5
A11
100
AcDbEntity
8
025
100
AcDbText
62
4
6
CONTINUOUS
10
180.4063060000
20
201.4971680000
40
2.5000000000
1
3
72
5
11
182.1920202857
21
201.4971680000
100
AcDbText
0
ENDSEC
0
SECTION
2
OBJECTS
0
DICTIONARY
5
A12
100
AcDbDictionary
3
ACAD_GROUP
350
A13
3
ACAD_MLINESTYLE
350
A14
0
DICTIONARY
5
A13
102
{ACAD_REACTORS
330
A12
102
}
100
AcDbDictionary
0
DICTIONARY
5
A14
102
{ACAD_REACTORS
330
A12
102
}
100
AcDbDictionary
3
STANDARD
350
A15
0
MLINESTYLE
5
A15
102
{ACAD_REACTORS
330
A14
102
}
100
AcDbMlineStyle
2
STANDARD
70
0
3

62
256
51
90.0
52
90.0
71
2
49
0.5
62
256
6
BYLAYER
49
-0.5
62
256
6
BYLAYER
0
ENDSEC
0
EOF
