  0
SECTION
  2
HEADER
  9
$ACADVER
  1
AC1009
  9
$INSBASE
 10
0.0
 20
0.0
 30
0.0
  9
$EXTMIN
 10
0.0
 20
0.0
 30
0.0
  9
$EXTMAX
 10
420.0
 20
297.0
 30
0.0
  9
$LIMMIN
 10
0.0
 20
0.0
  9
$LIMMAX
 10
410.0
 20
287.0
  9
$ORTHOMODE
 70
     1
  9
$REGENMODE
 70
     1
  9
$FILLMODE
 70
     1
  9
$QTEXTMODE
 70
     0
  9
$MIRRTEXT
 70
     1
  9
$DRAGMODE
 70
     2
  9
$LTSCALE
 40
5.0
  9
$OSMODE
 70
    32
  9
$ATTMODE
 70
     1
  9
$TEXTSIZE
 40
2.5
  9
$TRACEWID
 40
26.0
  9
$TEXTSTYLE
  7
STANDARD
  9
$CLAYER
  8
05
  9
$CELTYPE
  6
BYLAYER
  9
$CECOLOR
 62
   256
  9
$DIMSCALE
 40
1.0
  9
$DIMASZ
 40
3.5
  9
$DIMEXO
 40
0.8
  9
$DIMDLI
 40
8.0
  9
$DIMRND
 40
0.0
  9
$DIMDLE
 40
0.0
  9
$DIMEXE
 40
1.8
  9
$DIMTP
 40
0.0
  9
$DIMTM
 40
0.0
  9
$DIMTXT
 40
3.5
  9
$DIMCEN
 40
1.5
  9
$DIMTSZ
 40
0.0
  9
$DIMTOL
 70
     0
  9
$DIMLIM
 70
     0
  9
$DIMTIH
 70
     0
  9
$DIMTOH
 70
     0
  9
$DIMSE1
 70
     0
  9
$DIMSE2
 70
     0
  9
$DIMTAD
 70
     1
  9
$DIMZIN
 70
     0
  9
$DIMBLK
  1

  9
$DIMASO
 70
     0
  9
$DIMSHO
 70
     0
  9
$DIMPOST
  1

  9
$DIMAPOST
  1
"
  9
$DIMALT
 70
     0
  9
$DIMALTD
 70
     3
  9
$DIMALTF
 40
0.03937
  9
$DIMLFAC
 40
0.333333
  9
$DIMTOFL
 70
     0
  9
$DIMTVP
 40
0.0
  9
$DIMTIX
 70
     0
  9
$DIMSOXD
 70
     0
  9
$DIMSAH
 70
     0
  9
$DIMBLK1
  1

  9
$DIMBLK2
  1

  9
$DIMSTYLE
  2
NEUTRIK
  9
$DIMCLRD
 70
     0
  9
$DIMCLRE
 70
     0
  9
$DIMCLRT
 70
     0
  9
$DIMTFAC
 40
1.0
  9
$DIMGAP
 40
0.09
  9
$LUNITS
 70
     2
  9
$LUPREC
 70
     2
  9
$SKETCHINC
 40
1.0
  9
$FILLETRAD
 40
0.6
  9
$AUNITS
 70
     0
  9
$AUPREC
 70
     0
  9
$MENU
  1
acad
  9
$ELEVATION
 40
0.0
  9
$PELEVATION
 40
0.0
  9
$THICKNESS
 40
0.0
  9
$LIMCHECK
 70
     0
  9
$BLIPMODE
 70
     0
  9
$CHAMFERA
 40
0.0
  9
$CHAMFERB
 40
0.0
  9
$SKPOLY
 70
     0
  9
$TDCREATE
 40
2450030.55291
  9
$TDUPDATE
 40
2451192.492437
  9
$TDINDWG
 40
0.04128
  9
$TDUSRTIMER
 40
0.04128
  9
$USRTIMER
 70
     1
  9
$ANGBASE
 50
0.0
  9
$ANGDIR
 70
     0
  9
$PDMODE
 70
     0
  9
$PDSIZE
 40
0.0
  9
$PLINEWID
 40
0.0
  9
$COORDS
 70
     2
  9
$SPLFRAME
 70
     0
  9
$SPLINETYPE
 70
     6
  9
$SPLINESEGS
 70
     8
  9
$ATTDIA
 70
     0
  9
$ATTREQ
 70
     1
  9
$HANDLING
 70
     1
  9
$HANDSEED
  5
AFD
  9
$SURFTAB1
 70
     6
  9
$SURFTAB2
 70
     6
  9
$SURFTYPE
 70
     6
  9
$SURFU
 70
     6
  9
$SURFV
 70
     6
  9
$UCSNAME
  2

  9
$UCSORG
 10
0.0
 20
0.0
 30
0.0
  9
$UCSXDIR
 10
1.0
 20
0.0
 30
0.0
  9
$UCSYDIR
 10
0.0
 20
1.0
 30
0.0
  9
$PUCSNAME
  2

  9
$PUCSORG
 10
0.0
 20
0.0
 30
0.0
  9
$PUCSXDIR
 10
1.0
 20
0.0
 30
0.0
  9
$PUCSYDIR
 10
0.0
 20
1.0
 30
0.0
  9
$USERI1
 70
     0
  9
$USERI2
 70
     0
  9
$USERI3
 70
     0
  9
$USERI4
 70
     0
  9
$USERI5
 70
     0
  9
$USERR1
 40
0.0
  9
$USERR2
 40
0.0
  9
$USERR3
 40
0.0
  9
$USERR4
 40
0.0
  9
$USERR5
 40
0.0
  9
$WORLDVIEW
 70
     1
  9
$SHADEDGE
 70
     3
  9
$SHADEDIF
 70
    70
  9
$TILEMODE
 70
     1
  9
$MAXACTVP
 70
    16
  9
$PLIMCHECK
 70
     0
  9
$PEXTMIN
 10
1.000000E+020
 20
1.000000E+020
 30
1.000000E+020
  9
$PEXTMAX
 10
-1.000000E+020
 20
-1.000000E+020
 30
-1.000000E+020
  9
$PLIMMIN
 10
0.0
 20
0.0
  9
$PLIMMAX
 10
12.0
 20
9.0
  9
$UNITMODE
 70
     0
  9
$VISRETAIN
 70
     0
  9
$PLINEGEN
 70
     0
  9
$PSLTSCALE
 70
     0
  0
ENDSEC
  0
SECTION
  2
TABLES
  0
TABLE
  2
VPORT
 70
     2
  0
VPORT
  2
*ACTIVE
 70
     0
 10
0.0
 20
0.0
 11
1.0
 21
1.0
 12
232.398002
 22
148.500001
 13
0.0
 23
0.0
 14
1.0
 24
1.0
 15
2.0
 25
2.0
 16
0.0
 26
0.0
 36
1.0
 17
0.0
 27
0.0
 37
0.0
 40
306.297443
 41
1.525
 42
50.0
 43
0.0
 44
0.0
 50
0.0
 51
0.0
 71
     0
 72
   500
 73
     1
 74
     0
 75
     0
 76
     0
 77
     0
 78
     0
  0
ENDTAB
  0
TABLE
  2
LTYPE
 70
     2
  0
LTYPE
  2
AUSGEZOGEN
 70
     0
  3
Ausgezogene Linie
 72
    65
 73
     0
 40
0.0
  0
LTYPE
  2
CENTER
 70
     0
  3
____ _ ____ _ ____ _ ____ _ ____ _ ____ _ ____
 72
    65
 73
     4
 40
2.0
 49
1.25
 49
-0.25
 49
0.25
 49
-0.25
  0
ENDTAB
  0
TABLE
  2
LAYER
 70
    10
  0
LAYER
  2
0
 70
     0
 62
     8
  6
AUSGEZOGEN
  0
LAYER
  2
05
 70
     0
 62
     2
  6
AUSGEZOGEN
  0
LAYER
  2
BEM1
 70
     0
 62
     4
  6
AUSGEZOGEN
  0
LAYER
  2
035
 70
     0
 62
     3
  6
AUSGEZOGEN
  0
LAYER
  2
MITTE
 70
     0
 62
     4
  6
CENTER
  0
LAYER
  2
SCHRAFFIERT
 70
     0
 62
     4
  6
AUSGEZOGEN
  0
LAYER
  2
025
 70
     0
 62
     4
  6
AUSGEZOGEN
  0
LAYER
  2
RAHMEN
 70
     0
 62
     2
  6
AUSGEZOGEN
  0
LAYER
  2
SCHRIFTKOPF
 70
     0
 62
     2
  6
AUSGEZOGEN
  0
LAYER
  2
07
 70
     0
 62
     1
  6
AUSGEZOGEN
  0
ENDTAB
  0
TABLE
  2
STYLE
 70
     4
  0
STYLE
  2
STANDARD
 70
     0
 40
0.0
 41
0.7
 50
15.0
 71
     0
 42
2.5
  3
txt
  4

  0
STYLE
  2
SCRIPTS
 70
     0
 40
0.0
 41
1.0
 50
0.0
 71
     0
 42
5.0
  3
scripts
  4

  0
STYLE
  2
HELV
 70
     0
 40
0.0
 41
0.8
 50
10.0
 71
     0
 42
2.0
  3
HELV.SHX
  4

  0
STYLE
  2
ARIAL
 70
     0
 40
0.0
 41
1.0
 50
0.0
 71
     0
 42
2.5
  3
txt
  4

  0
ENDTAB
  0
TABLE
  2
VIEW
 70
     0
  0
ENDTAB
  0
TABLE
  2
UCS
 70
     0
  0
ENDTAB
  0
TABLE
  2
APPID
 70
     1
  0
APPID
  2
ACAD
 70
     0
  0
ENDTAB
  0
TABLE
  2
DIMSTYLE
 70
     1
  0
DIMSTYLE
  2
NEUTRIK
 70
     0
  3

  4
"
  5

  6

  7

 40
1.0
 41
3.5
 42
0.8
 43
8.0
 44
1.8
 45
0.0
 46
0.0
 47
0.0
 48
0.0
140
3.5
141
1.5
142
0.0
143
0.03937
144
1.0
145
0.0
146
1.0
147
0.09
 71
     0
 72
     0
 73
     0
 74
     0
 75
     0
 76
     0
 77
     1
 78
     0
170
     0
171
     3
172
     0
173
     0
174
     0
175
     0
176
     0
177
     0
178
     3
  0
ENDTAB
  0
ENDSEC
  0
SECTION
  2
BLOCKS
  0
BLOCK
  8
0
  2
$MODEL_SPACE
 70
     0
 10
0.0
 20
0.0
 30
0.0
  3
$MODEL_SPACE
  1

  0
ENDBLK
  5
6
  8
0
  0
BLOCK
 67
     1
  8
0
  2
$PAPER_SPACE
 70
     0
 10
0.0
 20
0.0
 30
0.0
  3
$PAPER_SPACE
  1

  0
ENDBLK
  5
9
 67
     1
  8
0
  0
BLOCK
  8
0
  2
3
 70
     0
 10
74.0
 20
118.0
 30
0.0
  3
3
  1

  0
TEXT
  5
37B
  8
SCHRAFFIERT
 10
74.0
 20
117.0
 30
0.0
 40
2.5
  1
%%P0.1
 41
0.7
 51
15.0
  0
ENDBLK
  5
37D
  8
0
  0
BLOCK
  8
0
  2
ZKOPF
 70
     2
 10
0.0
 20
0.0
 30
0.0
  3
ZKOPF
  1

  0
ATTDEF
  5
68
  8
0
 62
     4
 10
-13.321429
 20
37.0
 30
0.0
 40
2.5
  1
Dobler
  7
SCRIPTS
 72
     1
 11
-8.5
 21
37.0
 31
0.0
  3
Name des Konstrukteurs ?
  2
NAME
 70
     0
  0
POLYLINE
  5
69
  8
0
 62
     2
 66
     1
 10
0.0
 20
0.0
 30
0.0
  0
VERTEX
  5
981
  8
0
 62
     2
 10
-51.0
 20
0.0
 30
0.0
  0
VERTEX
  5
982
  8
0
 62
     2
 10
-51.0
 20
46.0
 30
0.0
  0
SEQEND
  5
983
  8
0
 62
     2
  0
POLYLINE
  5
6A
  8
0
 62
     2
 66
     1
 10
0.0
 20
0.0
 30
0.0
  0
VERTEX
  5
984
  8
0
 62
     2
 10
-17.0
 20
9.0
 30
0.0
  0
VERTEX
  5
985
  8
0
 62
     2
 10
-17.0
 20
46.0
 30
0.0
  0
SEQEND
  5
986
  8
0
 62
     2
  0
POLYLINE
  5
6B
  8
0
 62
     2
 66
     1
 10
0.0
 20
0.0
 30
0.0
  0
VERTEX
  5
987
  8
0
 62
     2
 10
-32.0
 20
26.0
 30
0.0
  0
VERTEX
  5
988
  8
0
 62
     2
 10
-32.0
 20
46.0
 30
0.0
  0
SEQEND
  5
989
  8
0
 62
     2
  0
POLYLINE
  5
6C
  8
0
 62
     2
 66
     1
 10
0.0
 20
0.0
 30
0.0
  0
VERTEX
  5
98A
  8
0
 62
     2
 10
-133.0
 20
41.0
 30
0.0
  0
VERTEX
  5
98B
  8
0
 62
     2
 10
-92.0
 20
41.0
 30
0.0
  0
SEQEND
  5
98C
  8
0
 62
     2
  0
POLYLINE
  5
6D
  8
0
 62
     2
 66
     1
 10
0.0
 20
0.0
 30
0.0
  0
VERTEX
  5
98D
  8
0
 62
     2
 10
-145.0
 20
0.0
 30
0.0
  0
VERTEX
  5
98E
  8
0
 62
     2
 10
-145.0
 20
46.0
 30
0.0
  0
SEQEND
  5
98F
  8
0
 62
     2
  0
POLYLINE
  5
6E
  8
0
 62
     2
 66
     1
 10
0.0
 20
0.0
 30
0.0
  0
VERTEX
  5
990
  8
0
 62
     2
 10
-158.0
 20
0.0
 30
0.0
  0
VERTEX
  5
991
  8
0
 62
     2
 10
-158.0
 20
46.0
 30
0.0
  0
SEQEND
  5
992
  8
0
 62
     2
  0
LINE
  5
6F
  8
0
 62
     2
 10
-200.0
 20
6.0
 30
0.0
 11
-133.0
 21
6.0
 31
0.0
  0
POLYLINE
  5
70
  8
0
 62
     4
 66
     1
 10
0.0
 20
0.0
 30
0.0
  0
VERTEX
  5
993
  8
0
 62
     4
 10
-200.0
 20
11.0
 30
0.0
  0
VERTEX
  5
994
  8
0
 62
     4
 10
-133.0
 20
11.0
 30
0.0
  0
SEQEND
  5
995
  8
0
 62
     4
  0
POLYLINE
  5
71
  8
0
 62
     4
 66
     1
 10
0.0
 20
0.0
 30
0.0
  0
VERTEX
  5
996
  8
0
 62
     4
 10
-200.0
 20
16.0
 30
0.0
  0
VERTEX
  5
997
  8
0
 62
     4
 10
-133.0
 20
16.0
 30
0.0
  0
SEQEND
  5
998
  8
0
 62
     4
  0
POLYLINE
  5
72
  8
0
 62
     4
 66
     1
 10
0.0
 20
0.0
 30
0.0
  0
VERTEX
  5
999
  8
0
 62
     4
 10
-200.0
 20
21.0
 30
0.0
  0
VERTEX
  5
99A
  8
0
 62
     4
 10
-133.0
 20
21.0
 30
0.0
  0
SEQEND
  5
99B
  8
0
 62
     4
  0
POLYLINE
  5
73
  8
0
 62
     4
 66
     1
 10
0.0
 20
0.0
 30
0.0
  0
VERTEX
  5
99C
  8
0
 62
     4
 10
-200.0
 20
26.0
 30
0.0
  0
VERTEX
  5
99D
  8
0
 62
     4
 10
-133.0
 20
26.0
 30
0.0
  0
SEQEND
  5
99E
  8
0
 62
     4
  0
POLYLINE
  5
74
  8
0
 62
     4
 66
     1
 10
0.0
 20
0.0
 30
0.0
  0
VERTEX
  5
99F
  8
0
 62
     4
 10
-200.0
 20
31.0
 30
0.0
  0
VERTEX
  5
9A0
  8
0
 62
     4
 10
-133.0
 20
31.0
 30
0.0
  0
SEQEND
  5
9A1
  8
0
 62
     4
  0
POLYLINE
  5
75
  8
0
 62
     4
 66
     1
 10
0.0
 20
0.0
 30
0.0
  0
VERTEX
  5
9A2
  8
0
 62
     4
 10
-200.0
 20
36.0
 30
0.0
  0
VERTEX
  5
9A3
  8
0
 62
     4
 10
-133.0
 20
36.0
 30
0.0
  0
SEQEND
  5
9A4
  8
0
 62
     4
  0
POLYLINE
  5
76
  8
0
 62
     4
 66
     1
 10
0.0
 20
0.0
 30
0.0
  0
VERTEX
  5
9A5
  8
0
 62
     4
 10
-200.0
 20
41.0
 30
0.0
  0
VERTEX
  5
9A6
  8
0
 62
     4
 10
-133.0
 20
41.0
 30
0.0
  0
SEQEND
  5
9A7
  8
0
 62
     4
  0
TEXT
  5
77
  8
0
 62
     4
 10
-50.0
 20
6.0
 30
0.0
 40
1.5
  1
Zeichn. Nr.
 51
15.0
  0
TEXT
  5
78
  8
0
 62
     4
 10
-50.0
 20
23.0
 30
0.0
 40
1.5
  1
Ersetzt durch:         Blatt
 51
15.0
  0
TEXT
  5
79
  8
0
 62
     4
 10
-50.0
 20
38.0
 30
0.0
 40
1.5
  1
Gezeichnet
 51
15.0
  0
TEXT
  5
7A
  8
0
 62
     4
 10
-50.0
 20
27.0
 30
0.0
 40
1.5
  1
Gesehen
 51
15.0
  0
TEXT
  5
7B
  8
0
 62
     4
 10
-31.0
 20
42.0
 30
0.0
 40
1.5
  1
Datum     Name
 51
15.0
  0
TEXT
  5
7C
  8
0
 62
     4
 10
-91.0
 20
42.0
 30
0.0
 40
1.5
  1
Werkstoff:      Massstab:
 51
15.0
  0
TEXT
  5
7D
  8
0
 62
     4
 10
-132.0
 20
23.0
 30
0.0
 40
1.5
  1
Benennung:
 51
15.0
  0
LINE
  5
7E
  8
0
 62
     2
 10
-133.0
 20
33.0
 30
0.0
 11
-92.0
 21
33.0
 31
0.0
  0
TEXT
  5
7F
  8
0
 62
     4
 10
-132.0
 20
39.0
 30
0.0
 40
1.5
  1
*)Lieferant darf ohne 
 51
15.0
  0
TEXT
  5
80
  8
0
 62
     4
 10
-132.0
 20
36.5
 30
0.0
 40
1.5
  1
 Ruecksprache nicht 
 51
15.0
  0
TEXT
  5
81
  8
0
 62
     4
 10
-132.0
 20
34.0
 30
0.0
 40
1.5
  1
 geaendert werden
 51
15.0
  0
TEXT
  5
82
  8
0
 62
     4
 10
-132.0
 20
30.0
 30
0.0
 40
1.5
  1
Zeichnung urheberrechtlich
 51
15.0
  0
TEXT
  5
83
  8
0
 62
     4
 10
-132.0
 20
27.5
 30
0.0
 40
1.5
  1
geschuetzt (DIN 34) (C)
 51
15.0
  0
TEXT
  5
84
  8
0
 62
     4
 10
-50.0
 20
32.0
 30
0.0
 40
1.5
  1
Geprueft
 51
15.0
  0
TEXT
  5
85
  8
0
 62
     4
 10
-50.0
 20
15.0
 30
0.0
 40
1.5
  1
Ersatz fuer:           von  Blatt
 51
15.0
  0
TEXT
  5
86
  8
0
 62
     4
 10
-197.0
 20
1.0
 30
0.0
 40
1.5
  1
Ind.  Aenderung             Datum    Name
 51
15.0
  0
ATTDEF
  5
87
  8
0
 62
     4
 10
-28.875
 20
37.0
 30
0.0
 40
2.5
  1
01.10.91
 41
0.7
 51
15.0
 72
     1
 11
-24.5
 21
37.0
 31
0.0
  3
Datum der Zeichnung ?
  2
DATE
 70
     0
  0
ATTDEF
  5
88
  8
0
 62
     4
 10
-80.5
 20
36.0
 30
0.0
 40
2.5
  1

 41
0.7
 51
15.0
 72
     1
 11
-80.5
 21
36.0
 31
0.0
  3
Aus welchem Werkstoff ?
  2
WERKSTOFF
 70
     0
  0
ATTDEF
  5
89
  8
0
 62
     2
 10
-92.0
 20
12.5
 30
0.0
 40
5.0
  1

 41
0.7
 51
15.0
 72
     1
 11
-92.0
 21
12.5
 31
0.0
  3
Zeichnungsname ?
  2
BENENNUNG
 70
     0
  0
ATTDEF
  5
8A
  8
0
 62
     3
 10
-90.265457
 20
21.082191
 30
0.0
 40
3.5
  1
()
 41
0.7
 51
15.0
 72
     1
 11
-89.040457
 21
21.082191
 31
0.0
  3
Zu welchem Produkt ?
  2
TEIL
 70
     0
  0
ATTDEF
  5
8B
  8
0
 62
     3
 10
-20.550219
 20
1.976541
 30
0.0
 40
3.5
  1

 41
0.7
 51
15.0
 72
     1
 11
-20.550219
 21
1.976541
 31
0.0
  3
Zeichnungsnummer ?
  2
NUMMER
 70
     0
  0
ATTDEF
  5
8C
  8
0
 62
     2
 10
-63.482672
 20
34.656056
 30
0.0
 40
5.0
  1
5:1
 41
0.7
 51
15.0
 72
     1
 11
-60.566005
 21
34.656056
 31
0.0
  3
Hauptmassstab:
  2
MASS
 70
     0
  0
ATTDEF
  5
8D
  8
0
 62
     3
 10
-60.480701
 20
28.210451
 30
0.0
 40
3.5
  1

 41
0.7
 51
15.0
 72
     1
 11
-60.480701
 21
28.210451
 31
0.0
  3
Nebenmassstab:
  2
MASS2
 70
     0
  0
ATTDEF
  5
8E
  8
0
 62
     4
 10
-81.0
 20
29.0
 30
0.0
 40
2.5
  1

 41
0.7
 51
15.0
 72
     1
 11
-81.0
 21
29.0
 31
0.0
  3
Werkstoffzusatz:
  2
TEIL
 70
     0
  0
ATTDEF
  5
8F
  8
0
 62
     3
 10
-107.711452
 20
59.004319
 30
0.0
 40
3.5
  1
Freimasstoleranzen %%p0.1
 41
0.7
 51
15.0
  3
Freimasstoleranzen:
  2
TOL
 70
     0
  0
ATTDEF
  5
90
  8
0
 62
     3
 10
-107.711452
 20
54.004319
 30
0.0
 40
3.5
  1
nicht bemasste Radien R=0.2
 41
0.7
 51
15.0
  3
Nicht bemasste Radien:
  2
RADIEN
 70
     0
  0
ATTDEF
  5
91
  8
0
 62
     3
 10
-107.711452
 20
49.004319
 30
0.0
 40
3.5
  1
nicht bemasste Facetten 0.5 x 45%%D
 41
0.7
 51
15.0
  3
nicht bemasste Facetten:
  2
FACETTE
 70
     0
  0
POLYLINE
  5
92
  8
0
 62
     2
 66
     1
 10
0.0
 20
0.0
 30
0.0
  0
VERTEX
  5
9A8
  8
0
 62
     2
 10
-191.0
 20
0.0
 30
0.0
  0
VERTEX
  5
9A9
  8
0
 62
     2
 10
-191.0
 20
46.0
 30
0.0
  0
SEQEND
  5
9AA
  8
0
 62
     2
  0
POLYLINE
  5
93
  8
0
 62
     2
 66
     1
 10
0.0
 20
0.0
 30
0.0
  0
VERTEX
  5
9AB
  8
0
 62
     2
 10
-133.0
 20
0.0
 30
0.0
  0
VERTEX
  5
9AC
  8
0
 62
     2
 10
-133.0
 20
46.0
 30
0.0
  0
SEQEND
  5
9AD
  8
0
 62
     2
  0
POLYLINE
  5
94
  8
0
 62
     2
 66
     1
 10
0.0
 20
0.0
 30
0.0
  0
VERTEX
  5
9AE
  8
0
 62
     2
 10
-92.0
 20
26.0
 30
0.0
  0
VERTEX
  5
9AF
  8
0
 62
     2
 10
-92.0
 20
46.0
 30
0.0
  0
SEQEND
  5
9B0
  8
0
 62
     2
  0
POLYLINE
  5
95
  8
0
 62
     2
 66
     1
 10
0.0
 20
0.0
 30
0.0
  0
VERTEX
  5
9B1
  8
0
 62
     2
 10
-69.0
 20
26.0
 30
0.0
  0
VERTEX
  5
9B2
  8
0
 62
     2
 10
-69.0
 20
46.0
 30
0.0
  0
SEQEND
  5
9B3
  8
0
 62
     2
  0
ATTDEF
  5
96
  8
0
 62
     4
 10
-197.186267
 20
7.0
 30
0.0
 40
2.5
  1

 41
0.7
 51
15.0
  3
Index1:
  2
INDEX1
 70
     0
  0
ATTDEF
  5
97
  8
0
 62
     4
 10
-190.348743
 20
7.0
 30
0.0
 40
2.5
  1

 41
0.7
 51
15.0
  3
Aenderung1:
  2
A1
 70
     0
  0
ATTDEF
  5
98
  8
0
 62
     4
 10
-157.348743
 20
7.0
 30
0.0
 40
2.5
  1

 41
0.7
 51
15.0
  3
Datum1:
  2
DATUM1
 70
     0
  0
ATTDEF
  5
99
  8
0
 62
     4
 10
-144.46499
 20
7.0
 30
0.0
 40
2.5
  1

 41
0.7
 51
15.0
  3
Name1:
  2
NAME1
 70
     0
  0
ATTDEF
  5
9A
  8
0
 62
     4
 10
-197.186267
 20
12.0
 30
0.0
 40
2.5
  1

 41
0.7
 51
15.0
  3
Index2:
  2
INDEX2
 70
     0
  0
ATTDEF
  5
9B
  8
0
 62
     4
 10
-190.348743
 20
12.0
 30
0.0
 40
2.5
  1

 41
0.7
 51
15.0
  3
Aenderung2:
  2
A2
 70
     0
  0
ATTDEF
  5
9C
  8
0
 62
     4
 10
-157.348743
 20
12.0
 30
0.0
 40
2.5
  1

 41
0.7
 51
15.0
  3
Datum2:
  2
DATUM2
 70
     0
  0
ATTDEF
  5
9D
  8
0
 62
     4
 10
-144.46499
 20
12.0
 30
0.0
 40
2.5
  1

 41
0.7
 51
15.0
  3
Name2
  2
NAME2
 70
     0
  0
ATTDEF
  5
9E
  8
0
 62
     4
 10
-197.186267
 20
17.0
 30
0.0
 40
2.5
  1

 41
0.7
 51
15.0
  3
Index3:
  2
INDEX3
 70
     0
  0
ATTDEF
  5
9F
  8
0
 62
     4
 10
-190.348743
 20
17.0
 30
0.0
 40
2.5
  1

 41
0.7
 51
15.0
  3
Aenderung3
  2
A3
 70
     0
  0
ATTDEF
  5
A0
  8
0
 62
     4
 10
-157.348743
 20
17.0
 30
0.0
 40
2.5
  1

 41
0.7
 51
15.0
  3
Datum3:
  2
DATUM3
 70
     0
  0
ATTDEF
  5
A1
  8
0
 62
     4
 10
-144.46499
 20
17.0
 30
0.0
 40
2.5
  1

 41
0.7
 51
15.0
  3
Name3:
  2
NAME3
 70
     0
  0
ATTDEF
  5
A2
  8
0
 62
     4
 10
-197.186267
 20
22.0
 30
0.0
 40
2.5
  1

 41
0.7
 51
15.0
  3
Index4:
  2
INDEX4
 70
     0
  0
ATTDEF
  5
A3
  8
0
 62
     4
 10
-190.348743
 20
22.0
 30
0.0
 40
2.5
  1

 41
0.7
 51
15.0
  3
Aenderung4:
  2
A4
 70
     0
  0
ATTDEF
  5
A4
  8
0
 62
     4
 10
-157.348743
 20
22.0
 30
0.0
 40
2.5
  1

 41
0.7
 51
15.0
  3
Datum4:
  2
DATUM4
 70
     0
  0
ATTDEF
  5
A5
  8
0
 62
     4
 10
-144.46499
 20
22.0
 30
0.0
 40
2.5
  1

 41
0.7
 51
15.0
  3
Name4:
  2
NAME4
 70
     0
  0
ATTDEF
  5
A6
  8
0
 62
     4
 10
-197.186267
 20
27.0
 30
0.0
 40
2.5
  1

 41
0.7
 51
15.0
  3
Index5:
  2
INDEX5
 70
     0
  0
ATTDEF
  5
A7
  8
0
 62
     4
 10
-190.348743
 20
27.0
 30
0.0
 40
2.5
  1

 41
0.7
 51
15.0
  3
Aenderung5:
  2
A5
 70
     0
  0
ATTDEF
  5
A8
  8
0
 62
     4
 10
-157.348743
 20
27.0
 30
0.0
 40
2.5
  1

 41
0.7
 51
15.0
  3
Datum5:
  2
DATUM5
 70
     0
  0
ATTDEF
  5
A9
  8
0
 62
     4
 10
-144.46499
 20
27.0
 30
0.0
 40
2.5
  1

 41
0.7
 51
15.0
  3
Name5
  2
NAME5
 70
     0
  0
ATTDEF
  5
AA
  8
0
 62
     4
 10
-197.186267
 20
32.0
 30
0.0
 40
2.5
  1

 41
0.7
 51
15.0
  3
Index6:
  2
INDEX6
 70
     0
  0
ATTDEF
  5
AB
  8
0
 62
     4
 10
-190.348743
 20
32.0
 30
0.0
 40
2.5
  1

 41
0.7
 51
15.0
  3
Aenderung6:
  2
A6
 70
     0
  0
ATTDEF
  5
AC
  8
0
 62
     4
 10
-157.348743
 20
32.0
 30
0.0
 40
2.5
  1

 41
0.7
 51
15.0
  3
Datum6:
  2
DATUM6
 70
     0
  0
ATTDEF
  5
AD
  8
0
 62
     4
 10
-144.46499
 20
32.0
 30
0.0
 40
2.5
  1

 41
0.7
 51
15.0
  3
Name6:
  2
NAME6
 70
     0
  0
ATTDEF
  5
AE
  8
0
 62
     4
 10
-197.186267
 20
37.0
 30
0.0
 40
2.5
  1

 41
0.7
 51
15.0
  3
Index7:
  2
INDEX7
 70
     0
  0
ATTDEF
  5
AF
  8
0
 62
     4
 10
-190.348743
 20
37.0
 30
0.0
 40
2.5
  1

 41
0.7
 51
15.0
  3
Aenderung7:
  2
A7
 70
     0
  0
ATTDEF
  5
B0
  8
0
 62
     4
 10
-157.348743
 20
37.0
 30
0.0
 40
2.5
  1

 41
0.7
 51
15.0
  3
Datum7:
  2
DATUM7
 70
     0
  0
ATTDEF
  5
B1
  8
0
 62
     4
 10
-144.46499
 20
37.0
 30
0.0
 40
2.5
  1

 41
0.7
 51
15.0
  3
Name7:
  2
NAME7
 70
     0
  0
ATTDEF
  5
B2
  8
0
 62
     4
 10
-197.186267
 20
42.0
 30
0.0
 40
2.5
  1

 41
0.7
 51
15.0
  3
Index8:
  2
INDEX8
 70
     0
  0
ATTDEF
  5
B3
  8
0
 62
     4
 10
-190.348743
 20
42.0
 30
0.0
 40
2.5
  1

 41
0.7
 51
15.0
  3
Aenderung8:
  2
A8
 70
     0
  0
ATTDEF
  5
B4
  8
0
 62
     4
 10
-157.348743
 20
42.0
 30
0.0
 40
2.5
  1

 41
0.7
 51
15.0
  3
Datum8:
  2
DATUM8
 70
     0
  0
ATTDEF
  5
B5
  8
0
 62
     4
 10
-144.46499
 20
42.0
 30
0.0
 40
2.5
  1

 41
0.7
 51
15.0
  3
Name8:
  2
NAME8
 70
     0
  0
POLYLINE
  5
B6
  8
0
 62
     2
 66
     1
 10
0.0
 20
0.0
 30
0.0
  0
VERTEX
  5
9B4
  8
0
 62
     2
 10
0.0
 20
0.0
 30
0.0
  0
VERTEX
  5
9B5
  8
0
 62
     2
 10
0.0
 20
46.0
 30
0.0
  0
SEQEND
  5
9B6
  8
0
 62
     2
  0
POLYLINE
  5
B7
  8
0
 62
     2
 66
     1
 10
0.0
 20
0.0
 30
0.0
  0
VERTEX
  5
9B7
  8
0
 62
     2
 10
-200.0
 20
46.0
 30
0.0
  0
VERTEX
  5
9B8
  8
0
 62
     2
 10
-200.0
 20
0.0
 30
0.0
  0
SEQEND
  5
9B9
  8
0
 62
     2
  0
POLYLINE
  5
B8
  8
0
 62
     2
 66
     1
 10
0.0
 20
0.0
 30
0.0
  0
VERTEX
  5
9BA
  8
0
 62
     2
 10
0.0
 20
9.0
 30
0.0
  0
VERTEX
  5
9BB
  8
0
 62
     2
 10
-133.0
 20
9.0
 30
0.0
  0
SEQEND
  5
9BC
  8
0
 62
     2
  0
POLYLINE
  5
B9
  8
0
 62
     2
 66
     1
 10
0.0
 20
0.0
 30
0.0
  0
VERTEX
  5
9BD
  8
0
 62
     2
 10
0.0
 20
18.0
 30
0.0
  0
VERTEX
  5
9BE
  8
0
 62
     2
 10
-51.0
 20
18.0
 30
0.0
  0
SEQEND
  5
9BF
  8
0
 62
     2
  0
POLYLINE
  5
BA
  8
0
 62
     2
 66
     1
 10
0.0
 20
0.0
 30
0.0
  0
VERTEX
  5
9C0
  8
0
 62
     2
 10
0.0
 20
26.0
 30
0.0
  0
VERTEX
  5
9C1
  8
0
 62
     2
 10
-133.0
 20
26.0
 30
0.0
  0
SEQEND
  5
9C2
  8
0
 62
     2
  0
POLYLINE
  5
BB
  8
0
 62
     2
 66
     1
 10
0.0
 20
0.0
 30
0.0
  0
VERTEX
  5
9C3
  8
0
 62
     2
 10
0.0
 20
31.0
 30
0.0
  0
VERTEX
  5
9C4
  8
0
 62
     2
 10
-51.0
 20
31.0
 30
0.0
  0
SEQEND
  5
9C5
  8
0
 62
     2
  0
POLYLINE
  5
BC
  8
0
 62
     2
 66
     1
 10
0.0
 20
0.0
 30
0.0
  0
VERTEX
  5
9C6
  8
0
 62
     2
 10
0.0
 20
36.0
 30
0.0
  0
VERTEX
  5
9C7
  8
0
 62
     2
 10
-51.0
 20
36.0
 30
0.0
  0
SEQEND
  5
9C8
  8
0
 62
     2
  0
POLYLINE
  5
BD
  8
0
 62
     2
 66
     1
 10
0.0
 20
0.0
 30
0.0
  0
VERTEX
  5
9C9
  8
0
 62
     2
 10
0.0
 20
41.0
 30
0.0
  0
VERTEX
  5
9CA
  8
0
 62
     2
 10
-51.0
 20
41.0
 30
0.0
  0
SEQEND
  5
9CB
  8
0
 62
     2
  0
POLYLINE
  5
BE
  8
0
 62
     2
 66
     1
 10
0.0
 20
0.0
 30
0.0
  0
VERTEX
  5
9CC
  8
0
 62
     2
 10
0.0
 20
46.0
 30
0.0
  0
VERTEX
  5
9CD
  8
0
 62
     2
 10
-200.0
 20
46.0
 30
0.0
  0
SEQEND
  5
9CE
  8
0
 62
     2
  0
TEXT
  5
BF
  8
035
 10
517.653158
 20
512.84859
 30
0.0
 40
3.5
  1
  
 41
0.7
 51
15.0
  0
LINE
  5
C0
  8
035
 10
-131.889278
 20
3.208952
 30
0.0
 11
-130.181445
 21
3.208952
 31
0.0
  0
LINE
  5
C1
  8
035
 10
-131.338562
 20
5.693072
 30
0.0
 11
-129.320214
 21
5.693072
 31
0.0
  0
LINE
  5
C2
  8
035
 10
-131.889278
 20
3.208952
 30
0.0
 11
-131.338562
 21
5.693072
 31
0.0
  0
LINE
  5
C3
  8
035
 10
-130.181445
 20
3.208952
 30
0.0
 11
-129.871668
 21
4.60627
 31
0.0
  0
LINE
  5
C4
  8
035
 10
-126.377637
 20
3.208952
 30
0.0
 11
-125.826921
 21
5.693072
 31
0.0
  0
LINE
  5
C5
  8
035
 10
-127.775692
 20
4.60627
 30
0.0
 11
-127.534753
 21
5.693072
 31
0.0
  0
LINE
  5
C6
  8
035
 10
-129.871668
 20
4.60627
 30
0.0
 11
-128.318356
 21
3.208952
 31
0.0
  0
LINE
  5
C7
  8
035
 10
-129.320214
 20
5.693072
 30
0.0
 11
-127.775692
 21
4.60627
 31
0.0
  0
LINE
  5
C8
  8
035
 10
-127.534753
 20
5.693072
 30
0.0
 11
-125.826921
 21
5.693072
 31
0.0
  0
LINE
  5
C9
  8
035
 10
-128.318356
 20
3.208952
 30
0.0
 11
-126.377637
 21
3.208952
 31
0.0
  0
LINE
  5
CA
  8
035
 10
-125.523721
 20
3.208952
 30
0.0
 11
-124.973005
 21
5.693072
 31
0.0
  0
LINE
  5
CB
  8
035
 10
-123.718348
 20
3.648931
 30
0.0
 11
-123.572674
 21
4.306023
 31
0.0
  0
LINE
  5
CC
  8
035
 10
-120.855668
 20
4.306023
 30
0.0
 11
-120.791381
 21
4.596001
 31
0.0
  0
LINE
  5
CD
  8
035
 10
-120.865996
 20
3.208952
 30
0.0
 11
-120.768456
 21
3.648931
 31
0.0
  0
LINE
  5
CE
  8
035
 10
-125.523721
 20
3.208952
 30
0.0
 11
-120.865996
 21
3.208952
 31
0.0
  0
LINE
  5
CF
  8
035
 10
-124.973005
 20
5.693072
 30
0.0
 11
-120.31528
 21
5.693072
 31
0.0
  0
LINE
  5
D0
  8
035
 10
-123.508387
 20
4.596001
 30
0.0
 11
-123.362713
 21
5.253094
 31
0.0
  0
LINE
  5
D1
  8
035
 10
-120.412821
 20
5.253094
 30
0.0
 11
-120.31528
 21
5.693072
 31
0.0
  0
LINE
  5
D2
  8
035
 10
-119.921488
 20
3.967747
 30
0.0
 11
-119.538993
 21
5.693072
 31
0.0
  0
LINE
  5
D3
  8
035
 10
-118.170584
 20
4.181432
 30
0.0
 11
-117.835462
 21
5.693072
 31
0.0
  0
LINE
  5
D4
  8
035
 10
-116.302927
 20
4.100887
 30
0.0
 11
-115.949949
 21
5.693072
 31
0.0
  0
LINE
  5
D5
  8
035
 10
-114.655674
 20
3.847099
 30
0.0
 11
-114.246432
 21
5.693072
 31
0.0
  0
LINE
  5
D6
  8
035
 10
-119.538993
 20
5.693072
 30
0.0
 11
-117.835462
 21
5.693072
 31
0.0
  0
POLYLINE
  5
D7
  8
035
 66
     1
 10
0.0
 20
0.0
 30
0.0
  0
VERTEX
  5
9CF
  8
035
 10
-119.921488
 20
3.967747
 30
0.0
 42
0.053304
  0
VERTEX
  5
9D0
  8
035
 10
-119.927918
 20
3.907611
 30
0.0
 42
0.242955
  0
SEQEND
  5
9D1
  8
035
  0
POLYLINE
  5
D8
  8
035
 66
     1
 10
0.0
 20
0.0
 30
0.0
  0
VERTEX
  5
9D2
  8
035
 10
-119.927918
 20
3.907611
 30
0.0
 42
0.242955
  0
VERTEX
  5
9D3
  8
035
 10
-119.808149
 20
3.675677
 30
0.0
 42
0.083039
  0
VERTEX
  5
9D4
  8
035
 10
-119.154862
 20
3.358693
 30
0.0
 42
0.041229
  0
VERTEX
  5
9D5
  8
035
 10
-118.372334
 20
3.197098
 30
0.0
 42
0.030317
  0
VERTEX
  5
9D6
  8
035
 10
-117.28854
 20
3.131323
 30
0.0
 42
0.030317
  0
VERTEX
  5
9D7
  8
035
 10
-116.204747
 20
3.197098
 30
0.0
 42
0.041229
  0
VERTEX
  5
9D8
  8
035
 10
-115.422219
 20
3.358693
 30
0.0
 42
0.083039
  0
VERTEX
  5
9D9
  8
035
 10
-114.768932
 20
3.675677
 30
0.0
 42
0.186877
  0
VERTEX
  5
9DA
  8
035
 10
-114.655674
 20
3.847099
 30
0.0
 42
0.242955
  0
SEQEND
  5
9DB
  8
035
  0
POLYLINE
  5
D9
  8
035
 66
     1
 10
0.0
 20
0.0
 30
0.0
  0
VERTEX
  5
9DC
  8
035
 10
-118.175358
 20
4.140497
 30
0.0
 42
0.199105
  0
VERTEX
  5
9DD
  8
035
 10
-118.123163
 20
4.014618
 30
0.0
 42
0.098437
  0
VERTEX
  5
9DE
  8
035
 10
-117.900493
 20
3.866038
 30
0.0
 42
0.055684
  0
VERTEX
  5
9DF
  8
035
 10
-117.619171
 20
3.784861
 30
0.0
 42
0.042444
  0
VERTEX
  5
9E0
  8
035
 10
-117.23691
 20
3.752353
 30
0.0
 42
0.042444
  0
VERTEX
  5
9E1
  8
035
 10
-116.854649
 20
3.784861
 30
0.0
 42
0.055684
  0
VERTEX
  5
9E2
  8
035
 10
-116.573327
 20
3.866038
 30
0.0
 42
0.098437
  0
VERTEX
  5
9E3
  8
035
 10
-116.350657
 20
4.014618
 30
0.0
 42
0.141327
  0
VERTEX
  5
9E4
  8
035
 10
-116.302927
 20
4.100887
 30
0.0
 42
0.199105
  0
SEQEND
  5
9E5
  8
035
  0
POLYLINE
  5
DA
  8
035
 66
     1
 10
0.0
 20
0.0
 30
0.0
  0
VERTEX
  5
9E6
  8
035
 10
-118.170584
 20
4.181432
 30
0.0
 42
0.058115
  0
VERTEX
  5
9E7
  8
035
 10
-118.175358
 20
4.140497
 30
0.0
 42
0.199105
  0
SEQEND
  5
9E8
  8
035
  0
LINE
  5
DB
  8
035
 10
-115.949949
 20
5.693072
 30
0.0
 11
-114.246432
 21
5.693072
 31
0.0
  0
LINE
  5
DC
  8
035
 10
-113.932145
 20
5.072042
 30
0.0
 11
-113.794466
 21
5.693072
 31
0.0
  0
LINE
  5
DD
  8
035
 10
-112.792607
 20
3.208952
 30
0.0
 11
-112.37957
 21
5.072042
 31
0.0
  0
LINE
  5
DE
  8
035
 10
-111.084775
 20
3.208952
 30
0.0
 11
-110.671738
 21
5.072042
 31
0.0
  0
LINE
  5
DF
  8
035
 10
-109.041534
 20
5.072042
 30
0.0
 11
-108.903855
 21
5.693072
 31
0.0
  0
LINE
  5
E0
  8
035
 10
-113.932145
 20
5.072042
 30
0.0
 11
-112.37957
 21
5.072042
 31
0.0
  0
LINE
  5
E1
  8
035
 10
-112.792607
 20
3.208952
 30
0.0
 11
-111.084775
 21
3.208952
 31
0.0
  0
LINE
  5
E2
  8
035
 10
-113.794466
 20
5.693072
 30
0.0
 11
-108.903855
 21
5.693072
 31
0.0
  0
LINE
  5
E3
  8
035
 10
-110.671738
 20
5.072042
 30
0.0
 11
-109.041534
 21
5.072042
 31
0.0
  0
LINE
  5
E4
  8
035
 10
-108.91117
 20
3.208952
 30
0.0
 11
-108.360454
 21
5.693072
 31
0.0
  0
LINE
  5
E5
  8
035
 10
-107.203338
 20
3.208952
 30
0.0
 11
-106.997985
 21
4.13524
 31
0.0
  0
LINE
  5
E6
  8
035
 10
-108.91117
 20
3.208952
 30
0.0
 11
-107.203338
 21
3.208952
 31
0.0
  0
LINE
  5
E7
  8
035
 10
-108.360454
 20
5.693072
 30
0.0
 11
-104.002078
 21
5.693072
 31
0.0
  0
LINE
  5
E8
  8
035
 10
-103.691866
 20
3.468914
 30
0.0
 11
-103.651414
 21
4.047405
 31
0.0
  0
LINE
  5
E9
  8
035
 10
-105.404037
 20
3.406868
 30
0.0
 11
-105.372771
 21
3.861921
 31
0.0
  0
LINE
  5
EA
  8
035
 10
-106.933698
 20
4.425218
 30
0.0
 11
-106.750163
 21
5.253094
 31
0.0
  0
ARC
  5
EB
  8
035
 10
-103.304668
 20
3.441838
 30
0.0
 40
0.388144
 50
176.0
 51
216.869898
  0
ARC
  5
EC
  8
035
 10
-105.030247
 20
3.411905
 30
0.0
 40
0.373824
 50
180.772005
 51
212.881875
  0
LINE
  5
ED
  8
035
 10
-105.344182
 20
3.208952
 30
0.0
 11
-103.615183
 21
3.208952
 31
0.0
  0
POLYLINE
  5
EE
  8
035
 66
     1
 10
0.0
 20
0.0
 30
0.0
  0
VERTEX
  5
9E9
  8
035
 10
-103.651414
 20
4.047405
 30
0.0
 42
0.084831
  0
VERTEX
  5
9EA
  8
035
 10
-103.660284
 20
4.142982
 30
0.0
 42
0.153048
  0
VERTEX
  5
9EB
  8
035
 10
-103.751613
 20
4.286875
 30
0.0
 42
0.025315
  0
VERTEX
  5
9EC
  8
035
 10
-103.797537
 20
4.321852
 30
0.0
 42
0.067948
  0
SEQEND
  5
9ED
  8
035
  0
POLYLINE
  5
EF
  8
035
 66
     1
 10
0.0
 20
0.0
 30
0.0
  0
VERTEX
  5
9EE
  8
035
 10
-103.797537
 20
4.321852
 30
0.0
 42
0.015369
  0
VERTEX
  5
9EF
  8
035
 10
-103.68387
 20
4.380025
 30
0.0
 42
0.073981
  0
VERTEX
  5
9F0
  8
035
 10
-103.356816
 20
4.629409
 30
0.0
 42
0.106894
  0
VERTEX
  5
9F1
  8
035
 10
-103.152297
 20
4.956595
 30
0.0
 42
0.153048
  0
VERTEX
  5
9F2
  8
035
 10
-103.140863
 20
5.229042
 30
0.0
 42
0.153048
  0
VERTEX
  5
9F3
  8
035
 10
-103.286988
 20
5.459272
 30
0.0
 42
0.106894
  0
VERTEX
  5
9F4
  8
035
 10
-103.627701
 20
5.640364
 30
0.0
 42
0.067948
  0
VERTEX
  5
9F5
  8
035
 10
-104.002078
 20
5.693072
 30
0.0
 42
0.060566
  0
SEQEND
  5
9F6
  8
035
  0
LINE
  5
F0
  8
035
 10
-102.856129
 20
3.208952
 30
0.0
 11
-102.305412
 21
5.693072
 31
0.0
  0
LINE
  5
F1
  8
035
 10
-101.148296
 20
3.208952
 30
0.0
 11
-100.59758
 21
5.693072
 31
0.0
  0
LINE
  5
F2
  8
035
 10
-102.856129
 20
3.208952
 30
0.0
 11
-101.148296
 21
3.208952
 31
0.0
  0
LINE
  5
F3
  8
035
 10
-102.305412
 20
5.693072
 30
0.0
 11
-100.59758
 21
5.693072
 31
0.0
  0
LINE
  5
F4
  8
035
 10
-100.139123
 20
3.208952
 30
0.0
 11
-99.588406
 21
5.693072
 31
0.0
  0
LINE
  5
F5
  8
035
 10
-98.508919
 20
3.208952
 30
0.0
 11
-98.37124
 21
3.829982
 31
0.0
  0
LINE
  5
F6
  8
035
 10
-99.588406
 20
5.693072
 30
0.0
 11
-97.958203
 21
5.693072
 31
0.0
  0
LINE
  5
F7
  8
035
 10
-100.139123
 20
3.208952
 30
0.0
 11
-98.508919
 21
3.208952
 31
0.0
  0
LINE
  5
F8
  8
035
 10
-98.37124
 20
3.829982
 30
0.0
 11
-97.642556
 21
4.140497
 31
0.0
  0
LINE
  5
F9
  8
035
 10
-98.144475
 20
4.852855
 30
0.0
 11
-96.172742
 21
5.693072
 31
0.0
  0
LINE
  5
FA
  8
035
 10
-96.172742
 20
5.693072
 30
0.0
 11
-93.999137
 21
5.693072
 31
0.0
  0
LINE
  5
FB
  8
035
 10
-97.642556
 20
4.140497
 30
0.0
 11
-96.723458
 21
3.208952
 31
0.0
  0
LINE
  5
FC
  8
035
 10
-96.003018
 20
4.839156
 30
0.0
 11
-94.394596
 21
3.208952
 31
0.0
  0
LINE
  5
FD
  8
035
 10
-96.003018
 20
4.839156
 30
0.0
 11
-93.999137
 21
5.693072
 31
0.0
  0
LINE
  5
FE
  8
035
 10
-98.144475
 20
4.852855
 30
0.0
 11
-97.958203
 21
5.693072
 31
0.0
  0
LINE
  5
FF
  8
035
 10
-96.723458
 20
3.208952
 30
0.0
 11
-94.394596
 21
3.208952
 31
0.0
  0
LINE
  5
100
  8
035
 10
-91.535849
 20
3.208952
 30
0.0
 11
-89.859713
 21
3.208952
 31
0.0
  0
LINE
  5
101
  8
035
 10
-89.672213
 20
5.693801
 30
0.0
 11
-86.717509
 21
5.693801
 31
0.0
  0
LINE
  5
102
  8
035
 10
-91.535849
 20
3.208952
 30
0.0
 11
-89.672213
 21
5.693801
 31
0.0
  0
LINE
  5
103
  8
035
 10
-86.717509
 20
5.693801
 30
0.0
 11
-86.096297
 21
3.208952
 31
0.0
  0
LINE
  5
104
  8
035
 10
-89.499689
 20
3.688984
 30
0.0
 11
-87.773968
 21
3.688984
 31
0.0
  0
LINE
  5
105
  8
035
 10
-89.219798
 20
4.062171
 30
0.0
 11
-87.867265
 21
4.062171
 31
0.0
  0
LINE
  5
106
  8
035
 10
-85.384981
 20
3.719952
 30
0.0
 11
-85.11662
 21
5.241907
 31
0.0
  0
LINE
  5
107
  8
035
 10
-80.632927
 20
3.208952
 30
0.0
 11
-80.440303
 21
4.301376
 31
0.0
  0
LINE
  5
108
  8
035
 10
-83.773875
 20
4.049318
 30
0.0
 11
-83.613979
 21
4.956134
 31
0.0
  0
LINE
  5
109
  8
035
 10
-82.185958
 20
3.208952
 30
0.0
 11
-82.180952
 21
3.237338
 31
0.0
  0
LINE
  5
10A
  8
035
 10
-82.653819
 20
4.078649
 30
0.0
 11
-82.614546
 21
4.301376
 31
0.0
  0
LINE
  5
10B
  8
035
 10
-82.653819
 20
4.078649
 30
0.0
 11
-82.032607
 21
4.078649
 31
0.0
  0
ARC
  5
10C
  8
035
 10
-82.531573
 20
-8.003128
 30
0.0
 40
13.697153
 50
81.659895
 51
99.80279
  0
ARC
  5
10D
  8
035
 10
-83.091534
 20
16.90419
 30
0.0
 40
13.697153
 50
261.461473
 51
273.811815
  0
ARC
  5
10E
  8
035
 10
-84.810733
 20
5.187971
 30
0.0
 40
0.310606
 50
99.80279
 51
170.0
  0
ARC
  5
10F
  8
035
 10
-85.079094
 20
3.666016
 30
0.0
 40
0.310606
 50
170.0
 51
261.461473
  0
ARC
  5
110
  8
035
 10
-80.58987
 20
5.24185
 30
0.0
 40
0.310606
 50
350.0
 51
81.659895
  0
LINE
  5
111
  8
035
 10
-81.898429
 20
4.963993
 30
0.0
 11
-80.323466
 21
4.963993
 31
0.0
  0
LINE
  5
112
  8
035
 10
-80.323466
 20
4.963993
 30
0.0
 11
-80.283983
 21
5.187914
 31
0.0
  0
LINE
  5
113
  8
035
 10
-82.052147
 20
3.967832
 30
0.0
 11
-82.032607
 21
4.078649
 31
0.0
  0
ARC
  5
114
  8
035
 10
-82.755724
 20
1.698274
 30
0.0
 40
3.561797
 50
80.208339
 51
99.781825
  0
ARC
  5
115
  8
035
 10
-82.989141
 20
7.211117
 30
0.0
 40
3.561797
 50
261.530468
 51
281.193068
  0
ARC
  5
116
  8
035
 10
-83.308092
 20
4.902198
 30
0.0
 40
0.310606
 50
99.781825
 51
170.0
  0
ARC
  5
117
  8
035
 10
-82.202807
 20
4.902103
 30
0.0
 40
0.310606
 50
11.493425
 51
80.208339
  0
ARC
  5
118
  8
035
 10
-83.467988
 20
3.995382
 30
0.0
 40
0.310606
 50
170.0
 51
261.530468
  0
ARC
  5
119
  8
035
 10
-82.358034
 20
4.021768
 30
0.0
 40
0.310606
 50
281.193068
 51
350.0
  0
LINE
  5
11A
  8
035
 10
-82.185958
 20
3.208952
 30
0.0
 11
-80.632927
 21
3.208952
 31
0.0
  0
LINE
  5
11B
  8
035
 10
-87.65396
 20
3.208952
 30
0.0
 11
-86.096297
 21
3.208952
 31
0.0
  0
TEXT
  5
11C
  8
035
 62
     4
 10
-77.576926
 20
3.264636
 30
0.0
 40
2.484848
  1
FL-9494 SCHAAN
 41
0.7
 51
15.0
  7
HELV
  0
LINE
  5
11E
  8
035
 10
-123.362713
 20
5.253094
 30
0.0
 11
-120.412821
 21
5.253094
 31
0.0
  0
LINE
  5
11F
  8
035
 10
-123.508387
 20
4.596001
 30
0.0
 11
-120.791381
 21
4.596001
 31
0.0
  0
LINE
  5
120
  8
035
 10
-123.572674
 20
4.306023
 30
0.0
 11
-120.855668
 21
4.306023
 31
0.0
  0
LINE
  5
121
  8
035
 10
-123.718348
 20
3.648931
 30
0.0
 11
-120.768456
 21
3.648931
 31
0.0
  0
LINE
  5
122
  8
0
 62
     4
 10
-94.088306
 20
5.655074
 30
0.0
 11
-94.050308
 21
5.693072
 31
0.0
  0
LINE
  5
123
  8
0
 62
     4
 10
-94.413108
 20
3.208952
 30
0.0
 11
-94.40379
 21
3.21827
 31
0.0
  0
LINE
  5
124
  8
035
 10
-106.750163
 20
5.253094
 30
0.0
 11
-105.343603
 21
5.253094
 31
0.0
  0
LINE
  5
125
  8
035
 10
-106.933698
 20
4.425218
 30
0.0
 11
-105.573373
 21
4.425218
 31
0.0
  0
LINE
  5
126
  8
035
 10
-106.997985
 20
4.13524
 30
0.0
 11
-105.5491
 21
4.13524
 31
0.0
  0
LINE
  5
127
  8
035
 10
-105.343603
 20
5.253094
 30
0.0
 11
-105.232586
 21
5.23493
 31
0.0
  0
LINE
  5
128
  8
035
 10
-105.232586
 20
5.23493
 30
0.0
 11
-105.136389
 21
5.186199
 31
0.0
  0
LINE
  5
129
  8
035
 10
-105.136389
 20
5.186199
 30
0.0
 11
-105.090213
 21
5.111822
 31
0.0
  0
LINE
  5
12A
  8
035
 10
-105.090213
 20
5.111822
 30
0.0
 11
-105.054301
 21
5.022057
 31
0.0
  0
LINE
  5
12B
  8
035
 10
-105.054301
 20
5.022057
 30
0.0
 11
-105.053017
 21
4.9246
 31
0.0
  0
LINE
  5
12C
  8
035
 10
-105.053017
 20
4.9246
 30
0.0
 11
-105.063278
 21
4.783539
 31
0.0
  0
LINE
  5
12D
  8
035
 10
-105.063278
 20
4.783539
 30
0.0
 11
-105.114586
 21
4.697624
 31
0.0
  0
LINE
  5
12E
  8
035
 10
-105.114586
 20
4.697624
 30
0.0
 11
-105.20565
 21
4.591186
 31
0.0
  0
LINE
  5
12F
  8
035
 10
-105.20565
 20
4.591186
 30
0.0
 11
-105.342894
 21
4.509116
 31
0.0
  0
LINE
  5
130
  8
035
 10
-105.342894
 20
4.509116
 30
0.0
 11
-105.473724
 21
4.442434
 31
0.0
  0
LINE
  5
131
  8
035
 10
-105.473724
 20
4.442434
 30
0.0
 11
-105.573373
 21
4.425218
 31
0.0
  0
LINE
  5
132
  8
035
 10
-105.5491
 20
4.13524
 30
0.0
 11
-105.466219
 21
4.123579
 31
0.0
  0
LINE
  5
133
  8
035
 10
-105.466219
 20
4.123579
 30
0.0
 11
-105.413019
 21
4.089933
 31
0.0
  0
LINE
  5
134
  8
035
 10
-105.413019
 20
4.089933
 30
0.0
 11
-105.380449
 21
4.036745
 31
0.0
  0
LINE
  5
135
  8
035
 10
-105.380449
 20
4.036745
 30
0.0
 11
-105.365249
 21
3.972704
 31
0.0
  0
LINE
  5
136
  8
035
 10
-105.365249
 20
3.972704
 30
0.0
 11
-105.372771
 21
3.861921
 31
0.0
  0
LINE
  5
137
  8
035
 10
-88.205398
 20
5.414705
 30
0.0
 11
-87.867265
 21
4.062171
 31
0.0
  0
LINE
  5
138
  8
035
 10
-89.219798
 20
4.062171
 30
0.0
 11
-88.205398
 21
5.414705
 31
0.0
  0
LINE
  5
139
  8
035
 10
-87.773968
 20
3.688984
 30
0.0
 11
-87.65396
 21
3.208952
 31
0.0
  0
LINE
  5
13A
  8
035
 10
-89.859713
 20
3.208952
 30
0.0
 11
-89.499689
 21
3.688984
 31
0.0
  0
LINE
  5
13B
  8
035
 10
-82.614546
 20
4.301376
 30
0.0
 11
-80.440303
 21
4.301376
 31
0.0
  0
INSERT
  5
13C
  8
035
 62
     4
  2
*X2
 10
-280.0
 20
-100.0
 30
0.0
1001
ACAD
1000
HATCH
1002
{
1070
    16
1000
ANSI37,I
1040
1.8
1040
0.0
1002
}
  0
ENDBLK
  5
346
  8
0
  0
BLOCK
  8
0
  2
*X2
 70
     1
 10
0.0
 20
0.0
 30
0.0
  3
*X2
  1

  0
LINE
  5
13E
  8
0
 62
     0
 10
172.576127
 20
103.208952
 30
0.0
 11
172.85948
 21
103.492304
 31
0.0
  0
LINE
  5
13F
  8
0
 62
     0
 10
174.620269
 20
105.253094
 30
0.0
 11
175.060247
 21
105.693072
 31
0.0
  0
LINE
  5
140
  8
0
 62
     0
 10
173.502415
 20
104.13524
 30
0.0
 11
173.792393
 21
104.425218
 31
0.0
  0
LINE
  5
141
  8
0
 62
     0
 10
172.257929
 20
103.208952
 30
0.0
 11
172.950116
 21
103.901139
 31
0.0
  0
LINE
  5
142
  8
0
 62
     0
 10
174.302071
 20
105.253094
 30
0.0
 11
174.742049
 21
105.693072
 31
0.0
  0
LINE
  5
143
  8
0
 62
     0
 10
173.184217
 20
104.13524
 30
0.0
 11
173.474195
 21
104.425218
 31
0.0
  0
LINE
  5
144
  8
0
 62
     0
 10
171.939731
 20
103.208952
 30
0.0
 11
173.155997
 21
104.425218
 31
0.0
  0
LINE
  5
145
  8
0
 62
     0
 10
173.983873
 20
105.253094
 30
0.0
 11
174.423851
 21
105.693072
 31
0.0
  0
LINE
  5
146
  8
0
 62
     0
 10
171.621533
 20
103.208952
 30
0.0
 11
173.131389
 21
104.718808
 31
0.0
  0
LINE
  5
147
  8
0
 62
     0
 10
173.665675
 20
105.253094
 30
0.0
 11
174.105653
 21
105.693072
 31
0.0
  0
LINE
  5
148
  8
0
 62
     0
 10
171.303335
 20
103.208952
 30
0.0
 11
173.222025
 21
105.127642
 31
0.0
  0
LINE
  5
149
  8
0
 62
     0
 10
173.347477
 20
105.253094
 30
0.0
 11
173.787455
 21
105.693072
 31
0.0
  0
LINE
  5
14A
  8
0
 62
     0
 10
171.118366
 20
103.342181
 30
0.0
 11
173.469257
 21
105.693072
 31
0.0
  0
LINE
  5
14B
  8
0
 62
     0
 10
171.209002
 20
103.751015
 30
0.0
 11
173.151059
 21
105.693072
 31
0.0
  0
LINE
  5
14C
  8
0
 62
     0
 10
171.299639
 20
104.15985
 30
0.0
 11
172.832861
 21
105.693072
 31
0.0
  0
LINE
  5
14D
  8
0
 62
     0
 10
171.390275
 20
104.568684
 30
0.0
 11
172.514663
 21
105.693072
 31
0.0
  0
LINE
  5
14E
  8
0
 62
     0
 10
171.480911
 20
104.977519
 30
0.0
 11
172.196465
 21
105.693072
 31
0.0
  0
LINE
  5
14F
  8
0
 62
     0
 10
171.571548
 20
105.386353
 30
0.0
 11
171.878267
 21
105.693072
 31
0.0
  0
LINE
  5
150
  8
0
 62
     0
 10
170.939039
 20
105.072042
 30
0.0
 11
170.963999
 21
105.097002
 31
0.0
  0
LINE
  5
151
  8
0
 62
     0
 10
168.757751
 20
103.208952
 30
0.0
 11
168.96008
 21
103.411282
 31
0.0
  0
LINE
  5
152
  8
0
 62
     0
 10
170.620841
 20
105.072042
 30
0.0
 11
171.054636
 21
105.505837
 31
0.0
  0
LINE
  5
153
  8
0
 62
     0
 10
168.439553
 20
103.208952
 30
0.0
 11
169.050717
 21
103.820116
 31
0.0
  0
LINE
  5
154
  8
0
 62
     0
 10
170.302643
 20
105.072042
 30
0.0
 11
170.923673
 21
105.693072
 31
0.0
  0
LINE
  5
155
  8
0
 62
     0
 10
168.121355
 20
103.208952
 30
0.0
 11
169.141353
 21
104.228951
 31
0.0
  0
LINE
  5
156
  8
0
 62
     0
 10
169.984445
 20
105.072042
 30
0.0
 11
170.605474
 21
105.693072
 31
0.0
  0
LINE
  5
157
  8
0
 62
     0
 10
167.803157
 20
103.208952
 30
0.0
 11
169.23199
 21
104.637785
 31
0.0
  0
LINE
  5
158
  8
0
 62
     0
 10
169.666246
 20
105.072042
 30
0.0
 11
170.287276
 21
105.693072
 31
0.0
  0
LINE
  5
159
  8
0
 62
     0
 10
167.484959
 20
103.208952
 30
0.0
 11
169.322626
 21
105.04662
 31
0.0
  0
LINE
  5
15A
  8
0
 62
     0
 10
169.348048
 20
105.072042
 30
0.0
 11
169.969078
 21
105.693072
 31
0.0
  0
LINE
  5
15B
  8
0
 62
     0
 10
167.218966
 20
103.261158
 30
0.0
 11
169.65088
 21
105.693072
 31
0.0
  0
LINE
  5
15C
  8
0
 62
     0
 10
167.309603
 20
103.669992
 30
0.0
 11
169.332682
 21
105.693072
 31
0.0
  0
LINE
  5
15D
  8
0
 62
     0
 10
167.400239
 20
104.078827
 30
0.0
 11
169.014484
 21
105.693072
 31
0.0
  0
LINE
  5
15E
  8
0
 62
     0
 10
167.490876
 20
104.487661
 30
0.0
 11
168.696286
 21
105.693072
 31
0.0
  0
LINE
  5
15F
  8
0
 62
     0
 10
167.581512
 20
104.896496
 30
0.0
 11
168.378088
 21
105.693072
 31
0.0
  0
LINE
  5
160
  8
0
 62
     0
 10
167.43886
 20
105.072042
 30
0.0
 11
168.05989
 21
105.693072
 31
0.0
  0
LINE
  5
161
  8
0
 62
     0
 10
167.120662
 20
105.072042
 30
0.0
 11
167.741692
 21
105.693072
 31
0.0
  0
LINE
  5
162
  8
0
 62
     0
 10
166.802464
 20
105.072042
 30
0.0
 11
167.423494
 21
105.693072
 31
0.0
  0
LINE
  5
163
  8
0
 62
     0
 10
164.888376
 20
103.476152
 30
0.0
 11
165.368539
 21
103.956315
 31
0.0
  0
LINE
  5
164
  8
0
 62
     0
 10
166.484266
 20
105.072042
 30
0.0
 11
167.105296
 21
105.693072
 31
0.0
  0
LINE
  5
165
  8
0
 62
     0
 10
164.405466
 20
103.31144
 30
0.0
 11
165.459175
 21
104.365149
 31
0.0
  0
LINE
  5
166
  8
0
 62
     0
 10
166.166068
 20
105.072042
 30
0.0
 11
166.787098
 21
105.693072
 31
0.0
  0
LINE
  5
167
  8
0
 62
     0
 10
164.002769
 20
103.226941
 30
0.0
 11
165.549811
 21
104.773984
 31
0.0
  0
LINE
  5
168
  8
0
 62
     0
 10
166.130516
 20
105.354688
 30
0.0
 11
166.4689
 21
105.693072
 31
0.0
  0
LINE
  5
169
  8
0
 62
     0
 10
163.636859
 20
103.17923
 30
0.0
 11
165.640448
 21
105.182818
 31
0.0
  0
LINE
  5
16A
  8
0
 62
     0
 10
163.289411
 20
103.149979
 30
0.0
 11
165.731084
 21
105.591652
 31
0.0
  0
LINE
  5
16B
  8
0
 62
     0
 10
162.955891
 20
103.134657
 30
0.0
 11
165.514306
 21
105.693072
 31
0.0
  0
LINE
  5
16C
  8
0
 62
     0
 10
162.634688
 20
103.131652
 30
0.0
 11
163.335119
 21
103.832084
 31
0.0
  0
LINE
  5
16D
  8
0
 62
     0
 10
163.723606
 20
104.22057
 30
0.0
 11
165.196108
 21
105.693072
 31
0.0
  0
LINE
  5
16E
  8
0
 62
     0
 10
162.324518
 20
103.139681
 30
0.0
 11
162.944469
 21
103.759631
 31
0.0
  0
LINE
  5
16F
  8
0
 62
     0
 10
163.814242
 20
104.629404
 30
0.0
 11
164.87791
 21
105.693072
 31
0.0
  0
LINE
  5
170
  8
0
 62
     0
 10
162.024343
 20
103.157703
 30
0.0
 11
162.623312
 21
103.756673
 31
0.0
  0
LINE
  5
171
  8
0
 62
     0
 10
163.904878
 20
105.038239
 30
0.0
 11
164.559711
 21
105.693072
 31
0.0
  0
LINE
  5
172
  8
0
 62
     0
 10
161.733306
 20
103.184864
 30
0.0
 11
162.340799
 21
103.792357
 31
0.0
  0
LINE
  5
173
  8
0
 62
     0
 10
163.995515
 20
105.447073
 30
0.0
 11
164.241513
 21
105.693072
 31
0.0
  0
LINE
  5
174
  8
0
 62
     0
 10
161.452007
 20
103.221764
 30
0.0
 11
162.097229
 21
103.866985
 31
0.0
  0
LINE
  5
175
  8
0
 62
     0
 10
161.184171
 20
103.272125
 30
0.0
 11
161.902409
 21
103.990363
 31
0.0
  0
LINE
  5
176
  8
0
 62
     0
 10
160.928758
 20
103.33491
 30
0.0
 11
161.844836
 21
104.250989
 31
0.0
  0
LINE
  5
177
  8
0
 62
     0
 10
160.687321
 20
103.411671
 30
0.0
 11
161.935473
 21
104.659823
 31
0.0
  0
LINE
  5
178
  8
0
 62
     0
 10
160.466718
 20
103.509267
 30
0.0
 11
162.026109
 21
105.068658
 31
0.0
  0
LINE
  5
179
  8
0
 62
     0
 10
160.265103
 20
103.62585
 30
0.0
 11
162.116745
 21
105.477492
 31
0.0
  0
LINE
  5
17A
  8
0
 62
     0
 10
160.101894
 20
103.780839
 30
0.0
 11
162.014127
 21
105.693072
 31
0.0
  0
LINE
  5
17B
  8
0
 62
     0
 10
160.109248
 20
104.106391
 30
0.0
 11
161.695929
 21
105.693072
 31
0.0
  0
LINE
  5
17C
  8
0
 62
     0
 10
158.893611
 20
103.208952
 30
0.0
 11
159.202478
 21
103.517819
 31
0.0
  0
LINE
  5
17D
  8
0
 62
     0
 10
160.199885
 20
104.515226
 30
0.0
 11
161.377731
 21
105.693072
 31
0.0
  0
LINE
  5
17E
  8
0
 62
     0
 10
158.575413
 20
103.208952
 30
0.0
 11
159.015392
 21
103.648931
 31
0.0
  0
LINE
  5
17F
  8
0
 62
     0
 10
160.290521
 20
104.92406
 30
0.0
 11
161.059533
 21
105.693072
 31
0.0
  0
LINE
  5
180
  8
0
 62
     0
 10
158.257215
 20
103.208952
 30
0.0
 11
158.697194
 21
103.648931
 31
0.0
  0
LINE
  5
181
  8
0
 62
     0
 10
160.381158
 20
105.332895
 30
0.0
 11
160.741335
 21
105.693072
 31
0.0
  0
LINE
  5
182
  8
0
 62
     0
 10
157.939017
 20
103.208952
 30
0.0
 11
158.378996
 21
103.648931
 31
0.0
  0
LINE
  5
183
  8
0
 62
     0
 10
159.036088
 20
104.306023
 30
0.0
 11
159.175165
 21
104.4451
 31
0.0
  0
LINE
  5
184
  8
0
 62
     0
 10
157.620819
 20
103.208952
 30
0.0
 11
158.060797
 21
103.648931
 31
0.0
  0
LINE
  5
185
  8
0
 62
     0
 10
158.71789
 20
104.306023
 30
0.0
 11
159.007868
 21
104.596001
 31
0.0
  0
LINE
  5
186
  8
0
 62
     0
 10
157.302621
 20
103.208952
 30
0.0
 11
157.742599
 21
103.648931
 31
0.0
  0
LINE
  5
187
  8
0
 62
     0
 10
159.346762
 20
105.253094
 30
0.0
 11
159.65566
 21
105.561991
 31
0.0
  0
LINE
  5
188
  8
0
 62
     0
 10
158.399692
 20
104.306023
 30
0.0
 11
158.68967
 21
104.596001
 31
0.0
  0
LINE
  5
189
  8
0
 62
     0
 10
156.984423
 20
103.208952
 30
0.0
 11
157.424401
 21
103.648931
 31
0.0
  0
LINE
  5
18A
  8
0
 62
     0
 10
159.028564
 20
105.253094
 30
0.0
 11
159.468543
 21
105.693072
 31
0.0
  0
LINE
  5
18B
  8
0
 62
     0
 10
158.081494
 20
104.306023
 30
0.0
 11
158.371472
 21
104.596001
 31
0.0
  0
LINE
  5
18C
  8
0
 62
     0
 10
156.666225
 20
103.208952
 30
0.0
 11
157.106203
 21
103.648931
 31
0.0
  0
LINE
  5
18D
  8
0
 62
     0
 10
158.710366
 20
105.253094
 30
0.0
 11
159.150345
 21
105.693072
 31
0.0
  0
LINE
  5
18E
  8
0
 62
     0
 10
157.763296
 20
104.306023
 30
0.0
 11
158.053274
 21
104.596001
 31
0.0
  0
LINE
  5
18F
  8
0
 62
     0
 10
156.348027
 20
103.208952
 30
0.0
 11
156.788005
 21
103.648931
 31
0.0
  0
LINE
  5
190
  8
0
 62
     0
 10
158.392168
 20
105.253094
 30
0.0
 11
158.832147
 21
105.693072
 31
0.0
  0
LINE
  5
191
  8
0
 62
     0
 10
157.445097
 20
104.306023
 30
0.0
 11
157.735076
 21
104.596001
 31
0.0
  0
LINE
  5
192
  8
0
 62
     0
 10
156.029829
 20
103.208952
 30
0.0
 11
156.469807
 21
103.648931
 31
0.0
  0
LINE
  5
193
  8
0
 62
     0
 10
158.07397
 20
105.253094
 30
0.0
 11
158.513948
 21
105.693072
 31
0.0
  0
LINE
  5
194
  8
0
 62
     0
 10
157.126899
 20
104.306023
 30
0.0
 11
157.416878
 21
104.596001
 31
0.0
  0
LINE
  5
195
  8
0
 62
     0
 10
155.711631
 20
103.208952
 30
0.0
 11
156.318694
 21
103.816016
 31
0.0
  0
LINE
  5
196
  8
0
 62
     0
 10
157.755772
 20
105.253094
 30
0.0
 11
158.19575
 21
105.693072
 31
0.0
  0
LINE
  5
197
  8
0
 62
     0
 10
156.808701
 20
104.306023
 30
0.0
 11
157.09868
 21
104.596001
 31
0.0
  0
LINE
  5
198
  8
0
 62
     0
 10
155.393433
 20
103.208952
 30
0.0
 11
156.409331
 21
104.22485
 31
0.0
  0
LINE
  5
199
  8
0
 62
     0
 10
157.437574
 20
105.253094
 30
0.0
 11
157.877552
 21
105.693072
 31
0.0
  0
LINE
  5
19A
  8
0
 62
     0
 10
156.490503
 20
104.306023
 30
0.0
 11
156.780482
 21
104.596001
 31
0.0
  0
LINE
  5
19B
  8
0
 62
     0
 10
155.075235
 20
103.208952
 30
0.0
 11
156.499967
 21
104.633685
 31
0.0
  0
LINE
  5
19C
  8
0
 62
     0
 10
157.119376
 20
105.253094
 30
0.0
 11
157.559354
 21
105.693072
 31
0.0
  0
LINE
  5
19D
  8
0
 62
     0
 10
154.757037
 20
103.208952
 30
0.0
 11
156.590603
 21
105.042519
 31
0.0
  0
LINE
  5
19E
  8
0
 62
     0
 10
156.801178
 20
105.253094
 30
0.0
 11
157.241156
 21
105.693072
 31
0.0
  0
LINE
  5
19F
  8
0
 62
     0
 10
154.486944
 20
103.257057
 30
0.0
 11
156.922958
 21
105.693072
 31
0.0
  0
LINE
  5
1A0
  8
0
 62
     0
 10
154.57758
 20
103.665892
 30
0.0
 11
156.60476
 21
105.693072
 31
0.0
  0
LINE
  5
1A1
  8
0
 62
     0
 10
154.668217
 20
104.074726
 30
0.0
 11
156.286562
 21
105.693072
 31
0.0
  0
LINE
  5
1A2
  8
0
 62
     0
 10
153.484244
 20
103.208952
 30
0.0
 11
153.661705
 21
103.386413
 31
0.0
  0
LINE
  5
1A3
  8
0
 62
     0
 10
154.758853
 20
104.483561
 30
0.0
 11
155.968364
 21
105.693072
 31
0.0
  0
LINE
  5
1A4
  8
0
 62
     0
 10
153.166046
 20
103.208952
 30
0.0
 11
153.752341
 21
103.795247
 31
0.0
  0
LINE
  5
1A5
  8
0
 62
     0
 10
154.849489
 20
104.892395
 30
0.0
 11
155.650166
 21
105.693072
 31
0.0
  0
LINE
  5
1A6
  8
0
 62
     0
 10
152.847848
 20
103.208952
 30
0.0
 11
153.842978
 21
104.204082
 31
0.0
  0
LINE
  5
1A7
  8
0
 62
     0
 10
154.940126
 20
105.30123
 30
0.0
 11
155.331968
 21
105.693072
 31
0.0
  0
LINE
  5
1A8
  8
0
 62
     0
 10
152.52965
 20
103.208952
 30
0.0
 11
153.933614
 21
104.612916
 31
0.0
  0
LINE
  5
1A9
  8
0
 62
     0
 10
152.211452
 20
103.208952
 30
0.0
 11
154.024251
 21
105.021751
 31
0.0
  0
LINE
  5
1AA
  8
0
 62
     0
 10
151.893254
 20
103.208952
 30
0.0
 11
154.114887
 21
105.430585
 31
0.0
  0
LINE
  5
1AB
  8
0
 62
     0
 10
151.625533
 20
103.259429
 30
0.0
 11
154.059176
 21
105.693072
 31
0.0
  0
LINE
  5
1AC
  8
0
 62
     0
 10
151.458022
 20
103.410117
 30
0.0
 11
153.740978
 21
105.693072
 31
0.0
  0
LINE
  5
1AD
  8
0
 62
     0
 10
151.290512
 20
103.560804
 30
0.0
 11
153.42278
 21
105.693072
 31
0.0
  0
LINE
  5
1AE
  8
0
 62
     0
 10
151.123002
 20
103.711492
 30
0.0
 11
152.103081
 21
104.691571
 31
0.0
  0
LINE
  5
1AF
  8
0
 62
     0
 10
152.283137
 20
104.871627
 30
0.0
 11
153.104582
 21
105.693072
 31
0.0
  0
LINE
  5
1B0
  8
0
 62
     0
 10
150.955491
 20
103.86218
 30
0.0
 11
151.916307
 21
104.822995
 31
0.0
  0
LINE
  5
1B1
  8
0
 62
     0
 10
152.373773
 20
105.280462
 30
0.0
 11
152.786384
 21
105.693072
 31
0.0
  0
LINE
  5
1B2
  8
0
 62
     0
 10
150.787981
 20
104.012868
 30
0.0
 11
151.729532
 21
104.954419
 31
0.0
  0
LINE
  5
1B3
  8
0
 62
     0
 10
152.46441
 20
105.689296
 30
0.0
 11
152.468186
 21
105.693072
 31
0.0
  0
LINE
  5
1B4
  8
0
 62
     0
 10
149.665868
 20
103.208952
 30
0.0
 11
149.862046
 21
103.405131
 31
0.0
  0
LINE
  5
1B5
  8
0
 62
     0
 10
150.620471
 20
104.163555
 30
0.0
 11
151.542758
 21
105.085842
 31
0.0
  0
LINE
  5
1B6
  8
0
 62
     0
 10
149.34767
 20
103.208952
 30
0.0
 11
149.952683
 21
103.813965
 31
0.0
  0
LINE
  5
1B7
  8
0
 62
     0
 10
150.45296
 20
104.314243
 30
0.0
 11
151.355983
 21
105.217266
 31
0.0
  0
LINE
  5
1B8
  8
0
 62
     0
 10
149.029472
 20
103.208952
 30
0.0
 11
150.043319
 21
104.2228
 31
0.0
  0
LINE
  5
1B9
  8
0
 62
     0
 10
150.28545
 20
104.464931
 30
0.0
 11
151.169209
 21
105.34869
 31
0.0
  0
LINE
  5
1BA
  8
0
 62
     0
 10
148.711274
 20
103.208952
 30
0.0
 11
150.982435
 21
105.480113
 31
0.0
  0
LINE
  5
1BB
  8
0
 62
     0
 10
148.393076
 20
103.208952
 30
0.0
 11
150.79566
 21
105.611537
 31
0.0
  0
LINE
  5
1BC
  8
0
 62
     0
 10
148.120932
 20
103.255007
 30
0.0
 11
150.558997
 21
105.693072
 31
0.0
  0
LINE
  5
1BD
  8
0
 62
     0
 10
148.211569
 20
103.663842
 30
0.0
 11
150.240799
 21
105.693072
 31
0.0
  0
LINE
  5
1BE
  8
0
 62
     0
 10
148.302205
 20
104.072676
 30
0.0
 11
149.922601
 21
105.693072
 31
0.0
  0
LINE
  5
1BF
  8
0
 62
     0
 10
148.392842
 20
104.481511
 30
0.0
 11
149.604403
 21
105.693072
 31
0.0
  0
LINE
  5
1C0
  8
0
 62
     0
 10
148.483478
 20
104.890345
 30
0.0
 11
149.286205
 21
105.693072
 31
0.0
  0
LINE
  5
1C1
  8
0
 62
     0
 10
148.574115
 20
105.29918
 30
0.0
 11
148.968007
 21
105.693072
 31
0.0
  0
LINE
  5
1C2
  8
0
 62
     0
 10
173.820613
 20
104.13524
 30
0.0
 11
174.110591
 21
104.425218
 31
0.0
  0
LINE
  5
1C3
  8
0
 62
     0
 10
174.86666
 20
105.181287
 30
0.0
 11
175.378445
 21
105.693072
 31
0.0
  0
LINE
  5
1C4
  8
0
 62
     0
 10
174.138811
 20
104.13524
 30
0.0
 11
174.429241
 21
104.42567
 31
0.0
  0
LINE
  5
1C5
  8
0
 62
     0
 10
174.946739
 20
104.943167
 30
0.0
 11
175.696643
 21
105.693072
 31
0.0
  0
LINE
  5
1C6
  8
0
 62
     0
 10
174.456256
 20
104.134486
 30
0.0
 11
176.014671
 21
105.692902
 31
0.0
  0
LINE
  5
1C7
  8
0
 62
     0
 10
174.630516
 20
103.990548
 30
0.0
 11
176.298943
 21
105.658976
 31
0.0
  0
LINE
  5
1C8
  8
0
 62
     0
 10
174.613
 20
103.654835
 30
0.0
 11
176.535113
 21
105.576948
 31
0.0
  0
LINE
  5
1C9
  8
0
 62
     0
 10
174.605261
 20
103.328897
 30
0.0
 11
176.725075
 21
105.448711
 31
0.0
  0
LINE
  5
1CA
  8
0
 62
     0
 10
174.803514
 20
103.208952
 30
0.0
 11
176.8509
 21
105.256338
 31
0.0
  0
LINE
  5
1CB
  8
0
 62
     0
 10
175.121712
 20
103.208952
 30
0.0
 11
176.221213
 21
104.308453
 31
0.0
  0
LINE
  5
1CC
  8
0
 62
     0
 10
176.266083
 20
104.353323
 30
0.0
 11
176.834229
 21
104.921469
 31
0.0
  0
LINE
  5
1CD
  8
0
 62
     0
 10
175.43991
 20
103.208952
 30
0.0
 11
176.345758
 21
104.1148
 31
0.0
  0
LINE
  5
1CE
  8
0
 62
     0
 10
177.629233
 20
105.398275
 30
0.0
 11
177.92403
 21
105.693072
 31
0.0
  0
LINE
  5
1CF
  8
0
 62
     0
 10
175.758108
 20
103.208952
 30
0.0
 11
176.329942
 21
103.780786
 31
0.0
  0
LINE
  5
1D0
  8
0
 62
     0
 10
177.538596
 20
104.98944
 30
0.0
 11
178.242228
 21
105.693072
 31
0.0
  0
LINE
  5
1D1
  8
0
 62
     0
 10
176.076306
 20
103.208952
 30
0.0
 11
176.307193
 21
103.439839
 31
0.0
  0
LINE
  5
1D2
  8
0
 62
     0
 10
177.44796
 20
104.580606
 30
0.0
 11
178.560426
 21
105.693072
 31
0.0
  0
LINE
  5
1D3
  8
0
 62
     0
 10
177.357323
 20
104.171772
 30
0.0
 11
178.878624
 21
105.693072
 31
0.0
  0
LINE
  5
1D4
  8
0
 62
     0
 10
177.266687
 20
103.762937
 30
0.0
 11
179.196822
 21
105.693072
 31
0.0
  0
LINE
  5
1D5
  8
0
 62
     0
 10
177.176051
 20
103.354103
 30
0.0
 11
179.370347
 21
105.548399
 31
0.0
  0
LINE
  5
1D6
  8
0
 62
     0
 10
177.349098
 20
103.208952
 30
0.0
 11
179.27971
 21
105.139564
 31
0.0
  0
LINE
  5
1D7
  8
0
 62
     0
 10
177.667296
 20
103.208952
 30
0.0
 11
179.189074
 21
104.73073
 31
0.0
  0
LINE
  5
1D8
  8
0
 62
     0
 10
177.985494
 20
103.208952
 30
0.0
 11
179.098437
 21
104.321895
 31
0.0
  0
LINE
  5
1D9
  8
0
 62
     0
 10
180.395067
 20
105.618525
 30
0.0
 11
180.469614
 21
105.693072
 31
0.0
  0
LINE
  5
1DA
  8
0
 62
     0
 10
178.303692
 20
103.208952
 30
0.0
 11
179.007801
 21
103.913061
 31
0.0
  0
LINE
  5
1DB
  8
0
 62
     0
 10
180.30443
 20
105.20969
 30
0.0
 11
180.787812
 21
105.693072
 31
0.0
  0
LINE
  5
1DC
  8
0
 62
     0
 10
178.62189
 20
103.208952
 30
0.0
 11
178.917164
 21
103.504226
 31
0.0
  0
LINE
  5
1DD
  8
0
 62
     0
 10
180.213794
 20
104.800856
 30
0.0
 11
181.10601
 21
105.693072
 31
0.0
  0
LINE
  5
1DE
  8
0
 62
     0
 10
180.123158
 20
104.392021
 30
0.0
 11
181.424208
 21
105.693072
 31
0.0
  0
LINE
  5
1DF
  8
0
 62
     0
 10
180.032521
 20
103.983187
 30
0.0
 11
181.742406
 21
105.693072
 31
0.0
  0
LINE
  5
1E0
  8
0
 62
     0
 10
179.941885
 20
103.574352
 30
0.0
 11
182.03644
 21
105.668908
 31
0.0
  0
LINE
  5
1E1
  8
0
 62
     0
 10
179.894683
 20
103.208952
 30
0.0
 11
181.945804
 21
105.260073
 31
0.0
  0
LINE
  5
1E2
  8
0
 62
     0
 10
180.212881
 20
103.208952
 30
0.0
 11
181.857718
 21
104.853789
 31
0.0
  0
LINE
  5
1E3
  8
0
 62
     0
 10
180.531079
 20
103.208952
 30
0.0
 11
182.412196
 21
105.09007
 31
0.0
  0
LINE
  5
1E4
  8
0
 62
     0
 10
180.849277
 20
103.208952
 30
0.0
 11
182.966675
 21
105.326351
 31
0.0
  0
LINE
  5
1E5
  8
0
 62
     0
 10
181.167475
 20
103.208952
 30
0.0
 11
181.583258
 21
103.624735
 31
0.0
  0
LINE
  5
1E6
  8
0
 62
     0
 10
181.907125
 20
103.948602
 30
0.0
 11
183.521154
 21
105.562631
 31
0.0
  0
LINE
  5
1E7
  8
0
 62
     0
 10
181.485673
 20
103.208952
 30
0.0
 11
181.492621
 21
103.215901
 31
0.0
  0
LINE
  5
1E8
  8
0
 62
     0
 10
182.38713
 20
104.110409
 30
0.0
 11
183.969793
 21
105.693072
 31
0.0
  0
LINE
  5
1E9
  8
0
 62
     0
 10
182.545159
 20
103.95024
 30
0.0
 11
184.287991
 21
105.693072
 31
0.0
  0
LINE
  5
1EA
  8
0
 62
     0
 10
182.703188
 20
103.790071
 30
0.0
 11
184.606189
 21
105.693072
 31
0.0
  0
LINE
  5
1EB
  8
0
 62
     0
 10
182.861217
 20
103.629902
 30
0.0
 11
184.033479
 21
104.802165
 31
0.0
  0
LINE
  5
1EC
  8
0
 62
     0
 10
184.12504
 20
104.893725
 30
0.0
 11
184.924387
 21
105.693072
 31
0.0
  0
LINE
  5
1ED
  8
0
 62
     0
 10
183.019246
 20
103.469733
 30
0.0
 11
184.191508
 21
104.641995
 31
0.0
  0
LINE
  5
1EE
  8
0
 62
     0
 10
184.679519
 20
105.130006
 30
0.0
 11
185.242585
 21
105.693072
 31
0.0
  0
LINE
  5
1EF
  8
0
 62
     0
 10
183.177275
 20
103.309564
 30
0.0
 11
184.349537
 21
104.481826
 31
0.0
  0
LINE
  5
1F0
  8
0
 62
     0
 10
185.233998
 20
105.366287
 30
0.0
 11
185.560783
 21
105.693072
 31
0.0
  0
LINE
  5
1F1
  8
0
 62
     0
 10
183.394861
 20
103.208952
 30
0.0
 11
184.507566
 21
104.321657
 31
0.0
  0
LINE
  5
1F2
  8
0
 62
     0
 10
185.788476
 20
105.602567
 30
0.0
 11
185.878981
 21
105.693072
 31
0.0
  0
LINE
  5
1F3
  8
0
 62
     0
 10
183.713059
 20
103.208952
 30
0.0
 11
184.665595
 21
104.161488
 31
0.0
  0
LINE
  5
1F4
  8
0
 62
     0
 10
184.031257
 20
103.208952
 30
0.0
 11
184.823624
 21
104.001319
 31
0.0
  0
LINE
  5
1F5
  8
0
 62
     0
 10
184.349455
 20
103.208952
 30
0.0
 11
184.981653
 21
103.84115
 31
0.0
  0
LINE
  5
1F6
  8
0
 62
     0
 10
184.667653
 20
103.208952
 30
0.0
 11
185.139682
 21
103.680981
 31
0.0
  0
LINE
  5
1F7
  8
0
 62
     0
 10
184.985851
 20
103.208952
 30
0.0
 11
185.297711
 21
103.520812
 31
0.0
  0
LINE
  5
1F8
  8
0
 62
     0
 10
185.30405
 20
103.208952
 30
0.0
 11
185.45574
 21
103.360643
 31
0.0
  0
LINE
  5
1F9
  8
0
 62
     0
 10
190.307701
 20
105.66702
 30
0.0
 11
190.334482
 21
105.693801
 31
0.0
  0
LINE
  5
1FA
  8
0
 62
     0
 10
189.353107
 20
104.394227
 30
0.0
 11
190.65268
 21
105.693801
 31
0.0
  0
LINE
  5
1FB
  8
0
 62
     0
 10
188.48603
 20
103.208952
 30
0.0
 11
190.970879
 21
105.693801
 31
0.0
  0
LINE
  5
1FC
  8
0
 62
     0
 10
188.804228
 20
103.208952
 30
0.0
 11
191.289077
 21
105.693801
 31
0.0
  0
LINE
  5
1FD
  8
0
 62
     0
 10
189.122426
 20
103.208952
 30
0.0
 11
191.607275
 21
105.693801
 31
0.0
  0
LINE
  5
1FE
  8
0
 62
     0
 10
189.440624
 20
103.208952
 30
0.0
 11
191.925473
 21
105.693801
 31
0.0
  0
LINE
  5
1FF
  8
0
 62
     0
 10
189.758822
 20
103.208952
 30
0.0
 11
191.284682
 21
104.734812
 31
0.0
  0
LINE
  5
200
  8
0
 62
     0
 10
191.828596
 20
105.278726
 30
0.0
 11
192.243671
 21
105.693801
 31
0.0
  0
LINE
  5
201
  8
0
 62
     0
 10
190.07702
 20
103.208952
 30
0.0
 11
190.330088
 21
103.46202
 31
0.0
  0
LINE
  5
202
  8
0
 62
     0
 10
191.892236
 20
105.024168
 30
0.0
 11
192.561869
 21
105.693801
 31
0.0
  0
LINE
  5
203
  8
0
 62
     0
 10
190.557052
 20
103.688984
 30
0.0
 11
190.93024
 21
104.062171
 31
0.0
  0
LINE
  5
204
  8
0
 62
     0
 10
190.87525
 20
103.688984
 30
0.0
 11
191.248438
 21
104.062171
 31
0.0
  0
LINE
  5
205
  8
0
 62
     0
 10
191.955876
 20
104.76961
 30
0.0
 11
192.880067
 21
105.693801
 31
0.0
  0
LINE
  5
206
  8
0
 62
     0
 10
191.193448
 20
103.688984
 30
0.0
 11
191.566636
 21
104.062171
 31
0.0
  0
LINE
  5
207
  8
0
 62
     0
 10
192.019515
 20
104.515051
 30
0.0
 11
193.198265
 21
105.693801
 31
0.0
  0
LINE
  5
208
  8
0
 62
     0
 10
191.511646
 20
103.688984
 30
0.0
 11
191.884834
 21
104.062171
 31
0.0
  0
LINE
  5
209
  8
0
 62
     0
 10
192.083155
 20
104.260493
 30
0.0
 11
193.329286
 21
105.506623
 31
0.0
  0
LINE
  5
20A
  8
0
 62
     0
 10
191.829844
 20
103.688984
 30
0.0
 11
193.392925
 21
105.252065
 31
0.0
  0
LINE
  5
20B
  8
0
 62
     0
 10
192.148042
 20
103.688984
 30
0.0
 11
193.456565
 21
104.997506
 31
0.0
  0
LINE
  5
20C
  8
0
 62
     0
 10
192.274074
 20
103.496817
 30
0.0
 11
193.520204
 21
104.742948
 31
0.0
  0
LINE
  5
20D
  8
0
 62
     0
 10
192.337713
 20
103.242259
 30
0.0
 11
193.583844
 21
104.48839
 31
0.0
  0
LINE
  5
20E
  8
0
 62
     0
 10
192.622605
 20
103.208952
 30
0.0
 11
193.647484
 21
104.233831
 31
0.0
  0
LINE
  5
20F
  8
0
 62
     0
 10
192.940803
 20
103.208952
 30
0.0
 11
193.711123
 21
103.979273
 31
0.0
  0
LINE
  5
210
  8
0
 62
     0
 10
194.864033
 20
105.132182
 30
0.0
 11
195.244054
 21
105.512203
 31
0.0
  0
LINE
  5
211
  8
0
 62
     0
 10
193.259001
 20
103.208952
 30
0.0
 11
193.774763
 21
103.724714
 31
0.0
  0
LINE
  5
212
  8
0
 62
     0
 10
194.795915
 20
104.745866
 30
0.0
 11
195.618586
 21
105.568537
 31
0.0
  0
LINE
  5
213
  8
0
 62
     0
 10
193.577199
 20
103.208952
 30
0.0
 11
193.838402
 21
103.470156
 31
0.0
  0
LINE
  5
214
  8
0
 62
     0
 10
194.727797
 20
104.35955
 30
0.0
 11
195.981303
 21
105.613056
 31
0.0
  0
LINE
  5
215
  8
0
 62
     0
 10
193.895397
 20
103.208952
 30
0.0
 11
193.902042
 21
103.215597
 31
0.0
  0
LINE
  5
216
  8
0
 62
     0
 10
194.659679
 20
103.973234
 30
0.0
 11
196.333358
 21
105.646913
 31
0.0
  0
LINE
  5
217
  8
0
 62
     0
 10
194.615277
 20
103.610634
 30
0.0
 11
196.67571
 21
105.671067
 31
0.0
  0
LINE
  5
218
  8
0
 62
     0
 10
194.737894
 20
103.415053
 30
0.0
 11
197.009165
 21
105.686324
 31
0.0
  0
LINE
  5
219
  8
0
 62
     0
 10
194.983951
 20
103.342913
 30
0.0
 11
196.340819
 21
104.69978
 31
0.0
  0
LINE
  5
21A
  8
0
 62
     0
 10
196.88271
 20
105.241671
 30
0.0
 11
197.334409
 21
105.69337
 31
0.0
  0
LINE
  5
21B
  8
0
 62
     0
 10
195.265203
 20
103.305966
 30
0.0
 11
196.272701
 21
104.313464
 31
0.0
  0
LINE
  5
21C
  8
0
 62
     0
 10
197.219219
 20
105.259982
 30
0.0
 11
197.652032
 21
105.692795
 31
0.0
  0
LINE
  5
21D
  8
0
 62
     0
 10
195.551822
 20
103.274387
 30
0.0
 11
196.225094
 21
103.947659
 31
0.0
  0
LINE
  5
21E
  8
0
 62
     0
 10
197.526321
 20
105.248886
 30
0.0
 11
197.962545
 21
105.68511
 31
0.0
  0
LINE
  5
21F
  8
0
 62
     0
 10
195.844088
 20
103.248455
 30
0.0
 11
196.343872
 21
103.748239
 31
0.0
  0
LINE
  5
220
  8
0
 62
     0
 10
197.810421
 20
105.214788
 30
0.0
 11
198.266395
 21
105.670762
 31
0.0
  0
LINE
  5
221
  8
0
 62
     0
 10
196.142312
 20
103.228481
 30
0.0
 11
196.588304
 21
103.674473
 31
0.0
  0
LINE
  5
222
  8
0
 62
     0
 10
198.025995
 20
105.112164
 30
0.0
 11
198.563973
 21
105.650142
 31
0.0
  0
LINE
  5
223
  8
0
 62
     0
 10
196.446847
 20
103.214818
 30
0.0
 11
196.883622
 21
103.651593
 31
0.0
  0
LINE
  5
224
  8
0
 62
     0
 10
198.196022
 20
104.963993
 30
0.0
 11
198.855628
 21
105.623599
 31
0.0
  0
LINE
  5
225
  8
0
 62
     0
 10
197.353782
 20
104.121752
 30
0.0
 11
197.533406
 21
104.301376
 31
0.0
  0
LINE
  5
226
  8
0
 62
     0
 10
196.75809
 20
103.207862
 30
0.0
 11
197.204833
 21
103.654605
 31
0.0
  0
LINE
  5
227
  8
0
 62
     0
 10
198.51422
 20
104.963993
 30
0.0
 11
199.141667
 21
105.59144
 31
0.0
  0
LINE
  5
228
  8
0
 62
     0
 10
197.628876
 20
104.078649
 30
0.0
 11
197.851604
 21
104.301376
 31
0.0
  0
LINE
  5
229
  8
0
 62
     0
 10
197.076493
 20
103.208068
 30
0.0
 11
197.560393
 21
103.691967
 31
0.0
  0
LINE
  5
22A
  8
0
 62
     0
 10
198.832418
 20
104.963993
 30
0.0
 11
199.422367
 21
105.553941
 31
0.0
  0
LINE
  5
22B
  8
0
 62
     0
 10
197.947074
 20
104.078649
 30
0.0
 11
198.169802
 21
104.301376
 31
0.0
  0
LINE
  5
22C
  8
0
 62
     0
 10
197.402575
 20
103.215952
 30
0.0
 11
198.488
 21
104.301376
 31
0.0
  0
LINE
  5
22D
  8
0
 62
     0
 10
199.150616
 20
104.963993
 30
0.0
 11
199.638742
 21
105.452118
 31
0.0
  0
LINE
  5
22E
  8
0
 62
     0
 10
197.736936
 20
103.232115
 30
0.0
 11
198.806198
 21
104.301376
 31
0.0
  0
LINE
  5
22F
  8
0
 62
     0
 10
199.468814
 20
104.963993
 30
0.0
 11
199.719549
 21
105.214728
 31
0.0
  0
LINE
  5
230
  8
0
 62
     0
 10
198.031972
 20
103.208952
 30
0.0
 11
199.124396
 21
104.301376
 31
0.0
  0
LINE
  5
231
  8
0
 62
     0
 10
198.35017
 20
103.208952
 30
0.0
 11
199.442594
 21
104.301376
 31
0.0
  0
LINE
  5
232
  8
0
 62
     0
 10
198.668368
 20
103.208952
 30
0.0
 11
199.516647
 21
104.057232
 31
0.0
  0
LINE
  5
233
  8
0
 62
     0
 10
198.986566
 20
103.208952
 30
0.0
 11
199.448529
 21
103.670916
 31
0.0
  0
LINE
  5
234
  8
0
 62
     0
 10
199.304764
 20
103.208952
 30
0.0
 11
199.380411
 21
103.2846
 31
0.0
  0
LINE
  5
235
  8
0
 62
     0
 10
174.896145
 20
103.208952
 30
0.0
 11
174.602537
 21
103.50256
 31
0.0
  0
LINE
  5
236
  8
0
 62
     0
 10
173.177644
 20
104.927453
 30
0.0
 11
172.412025
 21
105.693072
 31
0.0
  0
LINE
  5
237
  8
0
 62
     0
 10
173.969857
 20
104.13524
 30
0.0
 11
173.679879
 21
104.425218
 31
0.0
  0
LINE
  5
238
  8
0
 62
     0
 10
173.651659
 20
104.13524
 30
0.0
 11
173.361681
 21
104.425218
 31
0.0
  0
LINE
  5
239
  8
0
 62
     0
 10
173.119903
 20
104.666996
 30
0.0
 11
172.093827
 21
105.693072
 31
0.0
  0
LINE
  5
23A
  8
0
 62
     0
 10
173.333461
 20
104.13524
 30
0.0
 11
171.775629
 21
105.693072
 31
0.0
  0
LINE
  5
23B
  8
0
 62
     0
 10
173.015263
 20
104.13524
 30
0.0
 11
171.606498
 21
105.544005
 31
0.0
  0
LINE
  5
23C
  8
0
 62
     0
 10
172.946677
 20
103.885628
 30
0.0
 11
171.548757
 21
105.283548
 31
0.0
  0
LINE
  5
23D
  8
0
 62
     0
 10
172.888936
 20
103.625171
 30
0.0
 11
171.491015
 21
105.023092
 31
0.0
  0
LINE
  5
23E
  8
0
 62
     0
 10
171.046222
 20
105.467885
 30
0.0
 11
170.821035
 21
105.693072
 31
0.0
  0
LINE
  5
23F
  8
0
 62
     0
 10
172.831194
 20
103.364715
 30
0.0
 11
171.433273
 21
104.762636
 31
0.0
  0
LINE
  5
240
  8
0
 62
     0
 10
170.98848
 20
105.207429
 30
0.0
 11
170.502837
 21
105.693072
 31
0.0
  0
LINE
  5
241
  8
0
 62
     0
 10
172.668758
 20
103.208952
 30
0.0
 11
171.375531
 21
104.502179
 31
0.0
  0
LINE
  5
242
  8
0
 62
     0
 10
170.805669
 20
105.072042
 30
0.0
 11
170.184639
 21
105.693072
 31
0.0
  0
LINE
  5
243
  8
0
 62
     0
 10
172.35056
 20
103.208952
 30
0.0
 11
171.317789
 21
104.241723
 31
0.0
  0
LINE
  5
244
  8
0
 62
     0
 10
170.487471
 20
105.072042
 30
0.0
 11
169.866441
 21
105.693072
 31
0.0
  0
LINE
  5
245
  8
0
 62
     0
 10
172.032362
 20
103.208952
 30
0.0
 11
171.260048
 21
103.981267
 31
0.0
  0
LINE
  5
246
  8
0
 62
     0
 10
170.169273
 20
105.072042
 30
0.0
 11
169.548243
 21
105.693072
 31
0.0
  0
LINE
  5
247
  8
0
 62
     0
 10
171.714164
 20
103.208952
 30
0.0
 11
171.202306
 21
103.720811
 31
0.0
  0
LINE
  5
248
  8
0
 62
     0
 10
169.851075
 20
105.072042
 30
0.0
 11
169.230045
 21
105.693072
 31
0.0
  0
LINE
  5
249
  8
0
 62
     0
 10
171.395966
 20
103.208952
 30
0.0
 11
171.144564
 21
103.460354
 31
0.0
  0
LINE
  5
24A
  8
0
 62
     0
 10
169.532876
 20
105.072042
 30
0.0
 11
168.911847
 21
105.693072
 31
0.0
  0
LINE
  5
24B
  8
0
 62
     0
 10
169.307651
 20
104.97907
 30
0.0
 11
168.593648
 21
105.693072
 31
0.0
  0
LINE
  5
24C
  8
0
 62
     0
 10
169.249909
 20
104.718614
 30
0.0
 11
168.27545
 21
105.693072
 31
0.0
  0
LINE
  5
24D
  8
0
 62
     0
 10
169.192167
 20
104.458157
 30
0.0
 11
167.957252
 21
105.693072
 31
0.0
  0
LINE
  5
24E
  8
0
 62
     0
 10
169.134425
 20
104.197701
 30
0.0
 11
167.639054
 21
105.693072
 31
0.0
  0
LINE
  5
24F
  8
0
 62
     0
 10
169.076683
 20
103.937245
 30
0.0
 11
167.320856
 21
105.693072
 31
0.0
  0
LINE
  5
250
  8
0
 62
     0
 10
169.018942
 20
103.676788
 30
0.0
 11
167.002658
 21
105.693072
 31
0.0
  0
LINE
  5
251
  8
0
 62
     0
 10
168.9612
 20
103.416332
 30
0.0
 11
167.563279
 21
104.814253
 31
0.0
  0
LINE
  5
252
  8
0
 62
     0
 10
167.30549
 20
105.072042
 30
0.0
 11
166.68446
 21
105.693072
 31
0.0
  0
LINE
  5
253
  8
0
 62
     0
 10
168.850382
 20
103.208952
 30
0.0
 11
167.505537
 21
104.553797
 31
0.0
  0
LINE
  5
254
  8
0
 62
     0
 10
166.987292
 20
105.072042
 30
0.0
 11
166.366262
 21
105.693072
 31
0.0
  0
LINE
  5
255
  8
0
 62
     0
 10
168.532184
 20
103.208952
 30
0.0
 11
167.447796
 21
104.29334
 31
0.0
  0
LINE
  5
256
  8
0
 62
     0
 10
166.669094
 20
105.072042
 30
0.0
 11
166.176959
 21
105.564177
 31
0.0
  0
LINE
  5
257
  8
0
 62
     0
 10
168.213986
 20
103.208952
 30
0.0
 11
167.390054
 21
104.032884
 31
0.0
  0
LINE
  5
258
  8
0
 62
     0
 10
165.749267
 20
105.673671
 30
0.0
 11
165.729866
 21
105.693072
 31
0.0
  0
LINE
  5
259
  8
0
 62
     0
 10
166.350896
 20
105.072042
 30
0.0
 11
166.119217
 21
105.303721
 31
0.0
  0
LINE
  5
25A
  8
0
 62
     0
 10
167.895788
 20
103.208952
 30
0.0
 11
167.332312
 21
103.772428
 31
0.0
  0
LINE
  5
25B
  8
0
 62
     0
 10
165.691525
 20
105.413214
 30
0.0
 11
165.411668
 21
105.693072
 31
0.0
  0
LINE
  5
25C
  8
0
 62
     0
 10
167.57759
 20
103.208952
 30
0.0
 11
167.27457
 21
103.511971
 31
0.0
  0
LINE
  5
25D
  8
0
 62
     0
 10
165.633784
 20
105.152758
 30
0.0
 11
165.09347
 21
105.693072
 31
0.0
  0
LINE
  5
25E
  8
0
 62
     0
 10
167.259392
 20
103.208952
 30
0.0
 11
167.216829
 21
103.251515
 31
0.0
  0
LINE
  5
25F
  8
0
 62
     0
 10
165.576042
 20
104.892302
 30
0.0
 11
164.775272
 21
105.693072
 31
0.0
  0
LINE
  5
260
  8
0
 62
     0
 10
165.5183
 20
104.631846
 30
0.0
 11
164.457074
 21
105.693072
 31
0.0
  0
LINE
  5
261
  8
0
 62
     0
 10
165.460558
 20
104.371389
 30
0.0
 11
164.138876
 21
105.693072
 31
0.0
  0
LINE
  5
262
  8
0
 62
     0
 10
165.402817
 20
104.110933
 30
0.0
 11
164.008428
 21
105.505322
 31
0.0
  0
LINE
  5
263
  8
0
 62
     0
 10
165.345075
 20
103.850477
 30
0.0
 11
163.950686
 21
105.244865
 31
0.0
  0
LINE
  5
264
  8
0
 62
     0
 10
165.213808
 20
103.663545
 30
0.0
 11
163.892945
 21
104.984409
 31
0.0
  0
LINE
  5
265
  8
0
 62
     0
 10
165.017448
 20
103.541707
 30
0.0
 11
163.835203
 21
104.723953
 31
0.0
  0
LINE
  5
266
  8
0
 62
     0
 10
164.802652
 20
103.438305
 30
0.0
 11
163.777461
 21
104.463496
 31
0.0
  0
LINE
  5
267
  8
0
 62
     0
 10
164.567173
 20
103.355586
 30
0.0
 11
163.719719
 21
104.20304
 31
0.0
  0
LINE
  5
268
  8
0
 62
     0
 10
164.315183
 20
103.289379
 30
0.0
 11
163.618712
 21
103.98585
 31
0.0
  0
LINE
  5
269
  8
0
 62
     0
 10
162.118619
 20
105.485943
 30
0.0
 11
161.911489
 21
105.693072
 31
0.0
  0
LINE
  5
26A
  8
0
 62
     0
 10
164.051144
 20
103.235219
 30
0.0
 11
163.422176
 21
103.864188
 31
0.0
  0
LINE
  5
26B
  8
0
 62
     0
 10
162.060877
 20
105.225486
 30
0.0
 11
161.593291
 21
105.693072
 31
0.0
  0
LINE
  5
26C
  8
0
 62
     0
 10
163.77367
 20
103.194495
 30
0.0
 11
163.177404
 21
103.790761
 31
0.0
  0
LINE
  5
26D
  8
0
 62
     0
 10
162.003135
 20
104.96503
 30
0.0
 11
161.275093
 21
105.693072
 31
0.0
  0
LINE
  5
26E
  8
0
 62
     0
 10
163.485182
 20
103.164785
 30
0.0
 11
162.893835
 21
103.756132
 31
0.0
  0
LINE
  5
26F
  8
0
 62
     0
 10
161.945393
 20
104.704574
 30
0.0
 11
160.956895
 21
105.693072
 31
0.0
  0
LINE
  5
270
  8
0
 62
     0
 10
163.187779
 20
103.14399
 30
0.0
 11
162.571275
 21
103.760495
 31
0.0
  0
LINE
  5
271
  8
0
 62
     0
 10
161.887652
 20
104.444117
 30
0.0
 11
160.638697
 21
105.693072
 31
0.0
  0
LINE
  5
272
  8
0
 62
     0
 10
162.88065
 20
103.132921
 30
0.0
 11
162.17665
 21
103.836921
 31
0.0
  0
LINE
  5
273
  8
0
 62
     0
 10
161.82991
 20
104.183661
 30
0.0
 11
160.43551
 21
105.578061
 31
0.0
  0
LINE
  5
274
  8
0
 62
     0
 10
162.562817
 20
103.132556
 30
0.0
 11
160.377768
 21
105.317605
 31
0.0
  0
LINE
  5
275
  8
0
 62
     0
 10
162.233074
 20
103.144101
 30
0.0
 11
160.320026
 21
105.057149
 31
0.0
  0
LINE
  5
276
  8
0
 62
     0
 10
159.684608
 20
105.692567
 30
0.0
 11
159.684103
 21
105.693072
 31
0.0
  0
LINE
  5
277
  8
0
 62
     0
 10
161.889919
 20
103.169058
 30
0.0
 11
160.262284
 21
104.796692
 31
0.0
  0
LINE
  5
278
  8
0
 62
     0
 10
159.626866
 20
105.432111
 30
0.0
 11
159.365905
 21
105.693072
 31
0.0
  0
LINE
  5
279
  8
0
 62
     0
 10
161.530904
 20
103.209875
 30
0.0
 11
160.204543
 21
104.536236
 31
0.0
  0
LINE
  5
27A
  8
0
 62
     0
 10
159.487685
 20
105.253094
 30
0.0
 11
159.047707
 21
105.693072
 31
0.0
  0
LINE
  5
27B
  8
0
 62
     0
 10
161.140832
 20
103.281749
 30
0.0
 11
160.146801
 21
104.27578
 31
0.0
  0
LINE
  5
27C
  8
0
 62
     0
 10
159.169487
 20
105.253094
 30
0.0
 11
158.729509
 21
105.693072
 31
0.0
  0
LINE
  5
27D
  8
0
 62
     0
 10
160.695959
 20
103.408424
 30
0.0
 11
160.089059
 21
104.015324
 31
0.0
  0
LINE
  5
27E
  8
0
 62
     0
 10
158.851289
 20
105.253094
 30
0.0
 11
158.411311
 21
105.693072
 31
0.0
  0
LINE
  5
27F
  8
0
 62
     0
 10
159.205273
 20
104.580911
 30
0.0
 11
159.190183
 21
104.596001
 31
0.0
  0
LINE
  5
280
  8
0
 62
     0
 10
158.533091
 20
105.253094
 30
0.0
 11
158.093113
 21
105.693072
 31
0.0
  0
LINE
  5
281
  8
0
 62
     0
 10
159.147532
 20
104.320455
 30
0.0
 11
158.871985
 21
104.596001
 31
0.0
  0
LINE
  5
282
  8
0
 62
     0
 10
158.214893
 20
105.253094
 30
0.0
 11
157.774915
 21
105.693072
 31
0.0
  0
LINE
  5
283
  8
0
 62
     0
 10
158.843766
 20
104.306023
 30
0.0
 11
158.553787
 21
104.596001
 31
0.0
  0
LINE
  5
284
  8
0
 62
     0
 10
157.896695
 20
105.253094
 30
0.0
 11
157.456717
 21
105.693072
 31
0.0
  0
LINE
  5
285
  8
0
 62
     0
 10
159.222674
 20
103.608917
 30
0.0
 11
159.18266
 21
103.648931
 31
0.0
  0
LINE
  5
286
  8
0
 62
     0
 10
157.578497
 20
105.253094
 30
0.0
 11
157.138519
 21
105.693072
 31
0.0
  0
LINE
  5
287
  8
0
 62
     0
 10
158.525568
 20
104.306023
 30
0.0
 11
158.235589
 21
104.596001
 31
0.0
  0
LINE
  5
288
  8
0
 62
     0
 10
159.164932
 20
103.348461
 30
0.0
 11
158.864462
 21
103.648931
 31
0.0
  0
LINE
  5
289
  8
0
 62
     0
 10
157.260299
 20
105.253094
 30
0.0
 11
156.820321
 21
105.693072
 31
0.0
  0
LINE
  5
28A
  8
0
 62
     0
 10
158.20737
 20
104.306023
 30
0.0
 11
157.917391
 21
104.596001
 31
0.0
  0
LINE
  5
28B
  8
0
 62
     0
 10
158.986242
 20
103.208952
 30
0.0
 11
158.546264
 21
103.648931
 31
0.0
  0
LINE
  5
28C
  8
0
 62
     0
 10
156.942101
 20
105.253094
 30
0.0
 11
156.502123
 21
105.693072
 31
0.0
  0
LINE
  5
28D
  8
0
 62
     0
 10
157.889172
 20
104.306023
 30
0.0
 11
157.599193
 21
104.596001
 31
0.0
  0
LINE
  5
28E
  8
0
 62
     0
 10
158.668044
 20
103.208952
 30
0.0
 11
158.228066
 21
103.648931
 31
0.0
  0
LINE
  5
28F
  8
0
 62
     0
 10
156.634858
 20
105.242138
 30
0.0
 11
156.183924
 21
105.693072
 31
0.0
  0
LINE
  5
290
  8
0
 62
     0
 10
157.570974
 20
104.306023
 30
0.0
 11
157.280995
 21
104.596001
 31
0.0
  0
LINE
  5
291
  8
0
 62
     0
 10
158.349846
 20
103.208952
 30
0.0
 11
157.909868
 21
103.648931
 31
0.0
  0
LINE
  5
292
  8
0
 62
     0
 10
156.577116
 20
104.981682
 30
0.0
 11
155.865726
 21
105.693072
 31
0.0
  0
LINE
  5
293
  8
0
 62
     0
 10
157.252775
 20
104.306023
 30
0.0
 11
156.962797
 21
104.596001
 31
0.0
  0
LINE
  5
294
  8
0
 62
     0
 10
158.031648
 20
103.208952
 30
0.0
 11
157.59167
 21
103.648931
 31
0.0
  0
LINE
  5
295
  8
0
 62
     0
 10
156.519374
 20
104.721226
 30
0.0
 11
155.547528
 21
105.693072
 31
0.0
  0
LINE
  5
296
  8
0
 62
     0
 10
156.934577
 20
104.306023
 30
0.0
 11
156.644599
 21
104.596001
 31
0.0
  0
LINE
  5
297
  8
0
 62
     0
 10
157.71345
 20
103.208952
 30
0.0
 11
157.273472
 21
103.648931
 31
0.0
  0
LINE
  5
298
  8
0
 62
     0
 10
156.616379
 20
104.306023
 30
0.0
 11
155.22933
 21
105.693072
 31
0.0
  0
LINE
  5
299
  8
0
 62
     0
 10
157.395252
 20
103.208952
 30
0.0
 11
156.955274
 21
103.648931
 31
0.0
  0
LINE
  5
29A
  8
0
 62
     0
 10
156.403891
 20
104.200313
 30
0.0
 11
155.00597
 21
105.598234
 31
0.0
  0
LINE
  5
29B
  8
0
 62
     0
 10
157.077054
 20
103.208952
 30
0.0
 11
156.637075
 21
103.648931
 31
0.0
  0
LINE
  5
29C
  8
0
 62
     0
 10
156.346149
 20
103.939857
 30
0.0
 11
154.948228
 21
105.337778
 31
0.0
  0
LINE
  5
29D
  8
0
 62
     0
 10
156.758856
 20
103.208952
 30
0.0
 11
156.318877
 21
103.648931
 31
0.0
  0
LINE
  5
29E
  8
0
 62
     0
 10
156.288407
 20
103.679401
 30
0.0
 11
154.890487
 21
105.077322
 31
0.0
  0
LINE
  5
29F
  8
0
 62
     0
 10
156.440658
 20
103.208952
 30
0.0
 11
154.832745
 21
104.816865
 31
0.0
  0
LINE
  5
2A0
  8
0
 62
     0
 10
154.133784
 20
105.515826
 30
0.0
 11
153.956538
 21
105.693072
 31
0.0
  0
LINE
  5
2A1
  8
0
 62
     0
 10
156.12246
 20
103.208952
 30
0.0
 11
154.775003
 21
104.556409
 31
0.0
  0
LINE
  5
2A2
  8
0
 62
     0
 10
154.076043
 20
105.255369
 30
0.0
 11
153.63834
 21
105.693072
 31
0.0
  0
LINE
  5
2A3
  8
0
 62
     0
 10
155.804262
 20
103.208952
 30
0.0
 11
154.717261
 21
104.295953
 31
0.0
  0
LINE
  5
2A4
  8
0
 62
     0
 10
154.018301
 20
104.994913
 30
0.0
 11
153.320142
 21
105.693072
 31
0.0
  0
LINE
  5
2A5
  8
0
 62
     0
 10
155.486064
 20
103.208952
 30
0.0
 11
154.65952
 21
104.035496
 31
0.0
  0
LINE
  5
2A6
  8
0
 62
     0
 10
153.960559
 20
104.734457
 30
0.0
 11
153.001944
 21
105.693072
 31
0.0
  0
LINE
  5
2A7
  8
0
 62
     0
 10
155.167866
 20
103.208952
 30
0.0
 11
154.601778
 21
103.77504
 31
0.0
  0
LINE
  5
2A8
  8
0
 62
     0
 10
153.902817
 20
104.474
 30
0.0
 11
152.683746
 21
105.693072
 31
0.0
  0
LINE
  5
2A9
  8
0
 62
     0
 10
154.849668
 20
103.208952
 30
0.0
 11
154.544036
 21
103.514584
 31
0.0
  0
LINE
  5
2AA
  8
0
 62
     0
 10
153.845076
 20
104.213544
 30
0.0
 11
152.447155
 21
105.611465
 31
0.0
  0
LINE
  5
2AB
  8
0
 62
     0
 10
154.53147
 20
103.208952
 30
0.0
 11
154.486294
 21
103.254128
 31
0.0
  0
LINE
  5
2AC
  8
0
 62
     0
 10
153.787334
 20
103.953088
 30
0.0
 11
152.389413
 21
105.351009
 31
0.0
  0
LINE
  5
2AD
  8
0
 62
     0
 10
153.729592
 20
103.692632
 30
0.0
 11
152.331671
 21
105.090552
 31
0.0
  0
LINE
  5
2AE
  8
0
 62
     0
 10
153.67185
 20
103.432175
 30
0.0
 11
152.27393
 21
104.830096
 31
0.0
  0
LINE
  5
2AF
  8
0
 62
     0
 10
153.576875
 20
103.208952
 30
0.0
 11
152.073304
 21
104.712524
 31
0.0
  0
LINE
  5
2B0
  8
0
 62
     0
 10
153.258677
 20
103.208952
 30
0.0
 11
150.999582
 21
105.468047
 31
0.0
  0
LINE
  5
2B1
  8
0
 62
     0
 10
152.940479
 20
103.208952
 30
0.0
 11
150.45636
 21
105.693072
 31
0.0
  0
LINE
  5
2B2
  8
0
 62
     0
 10
152.622281
 20
103.208952
 30
0.0
 11
150.138161
 21
105.693072
 31
0.0
  0
LINE
  5
2B3
  8
0
 62
     0
 10
152.304083
 20
103.208952
 30
0.0
 11
149.819963
 21
105.693072
 31
0.0
  0
LINE
  5
2B4
  8
0
 62
     0
 10
151.985885
 20
103.208952
 30
0.0
 11
149.501765
 21
105.693072
 31
0.0
  0
LINE
  5
2B5
  8
0
 62
     0
 10
151.542665
 20
103.333975
 30
0.0
 11
149.183567
 21
105.693072
 31
0.0
  0
LINE
  5
2B6
  8
0
 62
     0
 10
150.096365
 20
104.462076
 30
0.0
 11
148.865369
 21
105.693072
 31
0.0
  0
LINE
  5
2B7
  8
0
 62
     0
 10
150.038624
 20
104.20162
 30
0.0
 11
148.640703
 21
105.59954
 31
0.0
  0
LINE
  5
2B8
  8
0
 62
     0
 10
149.980882
 20
103.941163
 30
0.0
 11
148.582961
 21
105.339084
 31
0.0
  0
LINE
  5
2B9
  8
0
 62
     0
 10
149.92314
 20
103.680707
 30
0.0
 11
148.525219
 21
105.078628
 31
0.0
  0
LINE
  5
2BA
  8
0
 62
     0
 10
149.865398
 20
103.420251
 30
0.0
 11
148.467478
 21
104.818171
 31
0.0
  0
LINE
  5
2BB
  8
0
 62
     0
 10
149.758499
 20
103.208952
 30
0.0
 11
148.409736
 21
104.557715
 31
0.0
  0
LINE
  5
2BC
  8
0
 62
     0
 10
149.440301
 20
103.208952
 30
0.0
 11
148.351994
 21
104.297259
 31
0.0
  0
LINE
  5
2BD
  8
0
 62
     0
 10
149.122103
 20
103.208952
 30
0.0
 11
148.294252
 21
104.036803
 31
0.0
  0
LINE
  5
2BE
  8
0
 62
     0
 10
148.803905
 20
103.208952
 30
0.0
 11
148.236511
 21
103.776346
 31
0.0
  0
LINE
  5
2BF
  8
0
 62
     0
 10
148.485707
 20
103.208952
 30
0.0
 11
148.178769
 21
103.51589
 31
0.0
  0
LINE
  5
2C0
  8
0
 62
     0
 10
148.167508
 20
103.208952
 30
0.0
 11
148.121027
 21
103.255434
 31
0.0
  0
LINE
  5
2C1
  8
0
 62
     0
 10
175.214343
 20
103.208952
 30
0.0
 11
174.622995
 21
103.8003
 31
0.0
  0
LINE
  5
2C2
  8
0
 62
     0
 10
173.235386
 20
105.187909
 30
0.0
 11
172.730223
 21
105.693072
 31
0.0
  0
LINE
  5
2C3
  8
0
 62
     0
 10
174.288055
 20
104.13524
 30
0.0
 11
173.998077
 21
104.425218
 31
0.0
  0
LINE
  5
2C4
  8
0
 62
     0
 10
175.532541
 20
103.208952
 30
0.0
 11
174.316275
 21
104.425218
 31
0.0
  0
LINE
  5
2C5
  8
0
 62
     0
 10
173.4884
 20
105.253094
 30
0.0
 11
173.048421
 21
105.693072
 31
0.0
  0
LINE
  5
2C6
  8
0
 62
     0
 10
175.850739
 20
103.208952
 30
0.0
 11
174.586541
 21
104.47315
 31
0.0
  0
LINE
  5
2C7
  8
0
 62
     0
 10
173.806598
 20
105.253094
 30
0.0
 11
173.366619
 21
105.693072
 31
0.0
  0
LINE
  5
2C8
  8
0
 62
     0
 10
176.168937
 20
103.208952
 30
0.0
 11
174.789565
 21
104.588325
 31
0.0
  0
LINE
  5
2C9
  8
0
 62
     0
 10
174.124796
 20
105.253094
 30
0.0
 11
173.684817
 21
105.693072
 31
0.0
  0
LINE
  5
2CA
  8
0
 62
     0
 10
176.311422
 20
103.384665
 30
0.0
 11
174.927684
 21
104.768404
 31
0.0
  0
LINE
  5
2CB
  8
0
 62
     0
 10
174.442994
 20
105.253094
 30
0.0
 11
174.003015
 21
105.693072
 31
0.0
  0
LINE
  5
2CC
  8
0
 62
     0
 10
176.323639
 20
103.690647
 30
0.0
 11
174.914671
 21
105.099614
 31
0.0
  0
LINE
  5
2CD
  8
0
 62
     0
 10
174.791615
 20
105.22267
 30
0.0
 11
174.321213
 21
105.693072
 31
0.0
  0
LINE
  5
2CE
  8
0
 62
     0
 10
176.344435
 20
103.988048
 30
0.0
 11
174.639411
 21
105.693072
 31
0.0
  0
LINE
  5
2CF
  8
0
 62
     0
 10
177.441729
 20
103.208952
 30
0.0
 11
177.197922
 21
103.452759
 31
0.0
  0
LINE
  5
2D0
  8
0
 62
     0
 10
176.286615
 20
104.364066
 30
0.0
 11
174.95761
 21
105.693072
 31
0.0
  0
LINE
  5
2D1
  8
0
 62
     0
 10
177.759927
 20
103.208952
 30
0.0
 11
177.255664
 21
103.713216
 31
0.0
  0
LINE
  5
2D2
  8
0
 62
     0
 10
176.4817
 20
104.487179
 30
0.0
 11
175.275808
 21
105.693072
 31
0.0
  0
LINE
  5
2D3
  8
0
 62
     0
 10
178.078125
 20
103.208952
 30
0.0
 11
177.313406
 21
103.973672
 31
0.0
  0
LINE
  5
2D4
  8
0
 62
     0
 10
176.650286
 20
104.636791
 30
0.0
 11
175.594006
 21
105.693072
 31
0.0
  0
LINE
  5
2D5
  8
0
 62
     0
 10
178.396323
 20
103.208952
 30
0.0
 11
177.371148
 21
104.234128
 31
0.0
  0
LINE
  5
2D6
  8
0
 62
     0
 10
176.785346
 20
104.81993
 30
0.0
 11
175.912204
 21
105.693072
 31
0.0
  0
LINE
  5
2D7
  8
0
 62
     0
 10
178.714521
 20
103.208952
 30
0.0
 11
177.428889
 21
104.494584
 31
0.0
  0
LINE
  5
2D8
  8
0
 62
     0
 10
176.870902
 20
105.052571
 30
0.0
 11
176.255428
 21
105.668046
 31
0.0
  0
LINE
  5
2D9
  8
0
 62
     0
 10
178.884552
 20
103.35712
 30
0.0
 11
177.486631
 21
104.755041
 31
0.0
  0
LINE
  5
2DA
  8
0
 62
     0
 10
178.942294
 20
103.617576
 30
0.0
 11
177.544373
 21
105.015497
 31
0.0
  0
LINE
  5
2DB
  8
0
 62
     0
 10
179.000035
 20
103.878033
 30
0.0
 11
177.602115
 21
105.275953
 31
0.0
  0
LINE
  5
2DC
  8
0
 62
     0
 10
179.987314
 20
103.208952
 30
0.0
 11
179.883821
 21
103.312445
 31
0.0
  0
LINE
  5
2DD
  8
0
 62
     0
 10
179.057777
 20
104.138489
 30
0.0
 11
177.659856
 21
105.53641
 31
0.0
  0
LINE
  5
2DE
  8
0
 62
     0
 10
180.305512
 20
103.208952
 30
0.0
 11
179.941563
 21
103.572901
 31
0.0
  0
LINE
  5
2DF
  8
0
 62
     0
 10
179.115519
 20
104.398945
 30
0.0
 11
177.821392
 21
105.693072
 31
0.0
  0
LINE
  5
2E0
  8
0
 62
     0
 10
180.62371
 20
103.208952
 30
0.0
 11
179.999305
 21
103.833357
 31
0.0
  0
LINE
  5
2E1
  8
0
 62
     0
 10
179.173261
 20
104.659401
 30
0.0
 11
178.13959
 21
105.693072
 31
0.0
  0
LINE
  5
2E2
  8
0
 62
     0
 10
180.941908
 20
103.208952
 30
0.0
 11
180.057046
 21
104.093814
 31
0.0
  0
LINE
  5
2E3
  8
0
 62
     0
 10
179.231002
 20
104.919858
 30
0.0
 11
178.457788
 21
105.693072
 31
0.0
  0
LINE
  5
2E4
  8
0
 62
     0
 10
181.260106
 20
103.208952
 30
0.0
 11
180.114788
 21
104.35427
 31
0.0
  0
LINE
  5
2E5
  8
0
 62
     0
 10
179.288744
 20
105.180314
 30
0.0
 11
178.775986
 21
105.693072
 31
0.0
  0
LINE
  5
2E6
  8
0
 62
     0
 10
181.506909
 20
103.280347
 30
0.0
 11
180.17253
 21
104.614726
 31
0.0
  0
LINE
  5
2E7
  8
0
 62
     0
 10
179.346486
 20
105.44077
 30
0.0
 11
179.094184
 21
105.693072
 31
0.0
  0
LINE
  5
2E8
  8
0
 62
     0
 10
181.564651
 20
103.540804
 30
0.0
 11
180.230272
 21
104.875182
 31
0.0
  0
LINE
  5
2E9
  8
0
 62
     0
 10
181.622392
 20
103.80126
 30
0.0
 11
180.288014
 21
105.135639
 31
0.0
  0
LINE
  5
2EA
  8
0
 62
     0
 10
181.827275
 20
103.914576
 30
0.0
 11
180.345755
 21
105.396095
 31
0.0
  0
LINE
  5
2EB
  8
0
 62
     0
 10
182.050395
 20
104.009654
 30
0.0
 11
180.403497
 21
105.656551
 31
0.0
  0
LINE
  5
2EC
  8
0
 62
     0
 10
182.273514
 20
104.104732
 30
0.0
 11
180.685174
 21
105.693072
 31
0.0
  0
LINE
  5
2ED
  8
0
 62
     0
 10
183.487492
 20
103.208952
 30
0.0
 11
181.003372
 21
105.693072
 31
0.0
  0
LINE
  5
2EE
  8
0
 62
     0
 10
183.80569
 20
103.208952
 30
0.0
 11
182.070276
 21
104.944367
 31
0.0
  0
LINE
  5
2EF
  8
0
 62
     0
 10
181.911101
 20
105.103541
 30
0.0
 11
181.321571
 21
105.693072
 31
0.0
  0
LINE
  5
2F0
  8
0
 62
     0
 10
184.123888
 20
103.208952
 30
0.0
 11
182.293395
 21
105.039445
 31
0.0
  0
LINE
  5
2F1
  8
0
 62
     0
 10
181.968843
 20
105.363998
 30
0.0
 11
181.639769
 21
105.693072
 31
0.0
  0
LINE
  5
2F2
  8
0
 62
     0
 10
184.442086
 20
103.208952
 30
0.0
 11
182.516515
 21
105.134523
 31
0.0
  0
LINE
  5
2F3
  8
0
 62
     0
 10
182.026585
 20
105.624454
 30
0.0
 11
181.957967
 21
105.693072
 31
0.0
  0
LINE
  5
2F4
  8
0
 62
     0
 10
184.760284
 20
103.208952
 30
0.0
 11
182.739635
 21
105.229602
 31
0.0
  0
LINE
  5
2F5
  8
0
 62
     0
 10
185.078482
 20
103.208952
 30
0.0
 11
182.962755
 21
105.32468
 31
0.0
  0
LINE
  5
2F6
  8
0
 62
     0
 10
185.396681
 20
103.208952
 30
0.0
 11
183.185874
 21
105.419758
 31
0.0
  0
LINE
  5
2F7
  8
0
 62
     0
 10
184.058472
 20
104.865359
 30
0.0
 11
183.408994
 21
105.514837
 31
0.0
  0
LINE
  5
2F8
  8
0
 62
     0
 10
184.281592
 20
104.960437
 30
0.0
 11
183.632114
 21
105.609915
 31
0.0
  0
LINE
  5
2F9
  8
0
 62
     0
 10
184.504712
 20
105.055515
 30
0.0
 11
183.867155
 21
105.693072
 31
0.0
  0
LINE
  5
2FA
  8
0
 62
     0
 10
184.727831
 20
105.150593
 30
0.0
 11
184.185353
 21
105.693072
 31
0.0
  0
LINE
  5
2FB
  8
0
 62
     0
 10
184.950951
 20
105.245672
 30
0.0
 11
184.503551
 21
105.693072
 31
0.0
  0
LINE
  5
2FC
  8
0
 62
     0
 10
185.174071
 20
105.34075
 30
0.0
 11
184.821749
 21
105.693072
 31
0.0
  0
LINE
  5
2FD
  8
0
 62
     0
 10
185.397191
 20
105.435828
 30
0.0
 11
185.139947
 21
105.693072
 31
0.0
  0
LINE
  5
2FE
  8
0
 62
     0
 10
185.62031
 20
105.530907
 30
0.0
 11
185.458145
 21
105.693072
 31
0.0
  0
LINE
  5
2FF
  8
0
 62
     0
 10
185.84343
 20
105.625985
 30
0.0
 11
185.776343
 21
105.693072
 31
0.0
  0
LINE
  5
300
  8
0
 62
     0
 10
188.578661
 20
103.208952
 30
0.0
 11
188.513227
 21
103.274387
 31
0.0
  0
LINE
  5
301
  8
0
 62
     0
 10
188.896859
 20
103.208952
 30
0.0
 11
188.649597
 21
103.456214
 31
0.0
  0
LINE
  5
302
  8
0
 62
     0
 10
189.215057
 20
103.208952
 30
0.0
 11
188.785968
 21
103.638042
 31
0.0
  0
LINE
  5
303
  8
0
 62
     0
 10
189.533255
 20
103.208952
 30
0.0
 11
188.922338
 21
103.819869
 31
0.0
  0
LINE
  5
304
  8
0
 62
     0
 10
189.851453
 20
103.208952
 30
0.0
 11
189.058709
 21
104.001696
 31
0.0
  0
LINE
  5
305
  8
0
 62
     0
 10
190.152872
 20
103.225732
 30
0.0
 11
189.19508
 21
104.183524
 31
0.0
  0
LINE
  5
306
  8
0
 62
     0
 10
190.289242
 20
103.407559
 30
0.0
 11
189.33145
 21
104.365351
 31
0.0
  0
LINE
  5
307
  8
0
 62
     0
 10
190.425613
 20
103.589387
 30
0.0
 11
189.467821
 21
104.547179
 31
0.0
  0
LINE
  5
308
  8
0
 62
     0
 10
190.644214
 20
103.688984
 30
0.0
 11
189.604191
 21
104.729006
 31
0.0
  0
LINE
  5
309
  8
0
 62
     0
 10
190.962412
 20
103.688984
 30
0.0
 11
189.740562
 21
104.910834
 31
0.0
  0
LINE
  5
30A
  8
0
 62
     0
 10
191.28061
 20
103.688984
 30
0.0
 11
190.907422
 21
104.062171
 31
0.0
  0
LINE
  5
30B
  8
0
 62
     0
 10
190.834725
 20
104.134869
 30
0.0
 11
189.876933
 21
105.092661
 31
0.0
  0
LINE
  5
30C
  8
0
 62
     0
 10
191.598808
 20
103.688984
 30
0.0
 11
191.22562
 21
104.062171
 31
0.0
  0
LINE
  5
30D
  8
0
 62
     0
 10
190.971095
 20
104.316696
 30
0.0
 11
190.013303
 21
105.274489
 31
0.0
  0
LINE
  5
30E
  8
0
 62
     0
 10
192.397038
 20
103.208952
 30
0.0
 11
192.329041
 21
103.276949
 31
0.0
  0
LINE
  5
30F
  8
0
 62
     0
 10
191.107466
 20
104.498524
 30
0.0
 11
190.149674
 21
105.456316
 31
0.0
  0
LINE
  5
310
  8
0
 62
     0
 10
191.917006
 20
103.688984
 30
0.0
 11
191.543818
 21
104.062171
 31
0.0
  0
LINE
  5
311
  8
0
 62
     0
 10
192.715236
 20
103.208952
 30
0.0
 11
191.862016
 21
104.062171
 31
0.0
  0
LINE
  5
312
  8
0
 62
     0
 10
191.243837
 20
104.680351
 30
0.0
 11
190.286044
 21
105.638144
 31
0.0
  0
LINE
  5
313
  8
0
 62
     0
 10
193.033434
 20
103.208952
 30
0.0
 11
192.116909
 21
104.125477
 31
0.0
  0
LINE
  5
314
  8
0
 62
     0
 10
191.380207
 20
104.862179
 30
0.0
 11
190.548585
 21
105.693801
 31
0.0
  0
LINE
  5
315
  8
0
 62
     0
 10
193.351632
 20
103.208952
 30
0.0
 11
192.010843
 21
104.549741
 31
0.0
  0
LINE
  5
316
  8
0
 62
     0
 10
191.516578
 20
105.044006
 30
0.0
 11
190.866783
 21
105.693801
 31
0.0
  0
LINE
  5
317
  8
0
 62
     0
 10
193.66983
 20
103.208952
 30
0.0
 11
191.904777
 21
104.974005
 31
0.0
  0
LINE
  5
318
  8
0
 62
     0
 10
191.652948
 20
105.225834
 30
0.0
 11
191.184981
 21
105.693801
 31
0.0
  0
LINE
  5
319
  8
0
 62
     0
 10
193.875595
 20
103.321385
 30
0.0
 11
191.798711
 21
105.398269
 31
0.0
  0
LINE
  5
31A
  8
0
 62
     0
 10
191.789319
 20
105.407661
 30
0.0
 11
191.503179
 21
105.693801
 31
0.0
  0
LINE
  5
31B
  8
0
 62
     0
 10
193.769529
 20
103.745649
 30
0.0
 11
191.821377
 21
105.693801
 31
0.0
  0
LINE
  5
31C
  8
0
 62
     0
 10
193.663463
 20
104.169913
 30
0.0
 11
192.139576
 21
105.693801
 31
0.0
  0
LINE
  5
31D
  8
0
 62
     0
 10
194.732492
 20
103.419082
 30
0.0
 11
194.673972
 21
103.477602
 31
0.0
  0
LINE
  5
31E
  8
0
 62
     0
 10
193.557397
 20
104.594177
 30
0.0
 11
192.457774
 21
105.693801
 31
0.0
  0
LINE
  5
31F
  8
0
 62
     0
 10
195.149298
 20
103.320474
 30
0.0
 11
194.635225
 21
103.834548
 31
0.0
  0
LINE
  5
320
  8
0
 62
     0
 10
193.451331
 20
105.018441
 30
0.0
 11
192.775972
 21
105.693801
 31
0.0
  0
LINE
  5
321
  8
0
 62
     0
 10
195.509282
 20
103.278689
 30
0.0
 11
194.682922
 21
104.105049
 31
0.0
  0
LINE
  5
322
  8
0
 62
     0
 10
193.345265
 20
105.442705
 30
0.0
 11
193.09417
 21
105.693801
 31
0.0
  0
LINE
  5
323
  8
0
 62
     0
 10
195.858857
 20
103.247312
 30
0.0
 11
194.730618
 21
104.37555
 31
0.0
  0
LINE
  5
324
  8
0
 62
     0
 10
196.19894
 20
103.225426
 30
0.0
 11
194.778315
 21
104.646052
 31
0.0
  0
LINE
  5
325
  8
0
 62
     0
 10
196.530306
 20
103.212258
 30
0.0
 11
194.826012
 21
104.916553
 31
0.0
  0
LINE
  5
326
  8
0
 62
     0
 10
196.853616
 20
103.207147
 30
0.0
 11
194.873708
 21
105.187054
 31
0.0
  0
LINE
  5
327
  8
0
 62
     0
 10
197.169437
 20
103.209523
 30
0.0
 11
196.717543
 21
103.661418
 31
0.0
  0
LINE
  5
328
  8
0
 62
     0
 10
196.241642
 20
104.137319
 30
0.0
 11
194.970499
 21
105.408462
 31
0.0
  0
LINE
  5
329
  8
0
 62
     0
 10
197.478265
 20
103.218894
 30
0.0
 11
197.047649
 21
103.64951
 31
0.0
  0
LINE
  5
32A
  8
0
 62
     0
 10
196.289339
 20
104.40782
 30
0.0
 11
195.193391
 21
105.503767
 31
0.0
  0
LINE
  5
32B
  8
0
 62
     0
 10
197.78053
 20
103.234826
 30
0.0
 11
197.349867
 21
103.66549
 31
0.0
  0
LINE
  5
32C
  8
0
 62
     0
 10
196.337035
 20
104.678321
 30
0.0
 11
195.468172
 21
105.547185
 31
0.0
  0
LINE
  5
32D
  8
0
 62
     0
 10
198.124603
 20
103.208952
 30
0.0
 11
197.630009
 21
103.703546
 31
0.0
  0
LINE
  5
32E
  8
0
 62
     0
 10
196.384732
 20
104.948823
 30
0.0
 11
195.748005
 21
105.58555
 31
0.0
  0
LINE
  5
32F
  8
0
 62
     0
 10
198.442801
 20
103.208952
 30
0.0
 11
197.855526
 21
103.796227
 31
0.0
  0
LINE
  5
330
  8
0
 62
     0
 10
196.502999
 20
105.148753
 30
0.0
 11
196.033135
 21
105.618617
 31
0.0
  0
LINE
  5
331
  8
0
 62
     0
 10
197.573104
 20
104.078649
 30
0.0
 11
197.380196
 21
104.271557
 31
0.0
  0
LINE
  5
332
  8
0
 62
     0
 10
198.760999
 20
103.208952
 30
0.0
 11
197.955988
 21
104.013963
 31
0.0
  0
LINE
  5
333
  8
0
 62
     0
 10
196.745041
 20
105.22491
 30
0.0
 11
196.323833
 21
105.646118
 31
0.0
  0
LINE
  5
334
  8
0
 62
     0
 10
197.891302
 20
104.078649
 30
0.0
 11
197.668574
 21
104.301376
 31
0.0
  0
LINE
  5
335
  8
0
 62
     0
 10
199.079197
 20
103.208952
 30
0.0
 11
197.986772
 21
104.301376
 31
0.0
  0
LINE
  5
336
  8
0
 62
     0
 10
197.034275
 20
105.253874
 30
0.0
 11
196.620401
 21
105.667748
 31
0.0
  0
LINE
  5
337
  8
0
 62
     0
 10
199.371618
 20
103.234729
 30
0.0
 11
198.304971
 21
104.301376
 31
0.0
  0
LINE
  5
338
  8
0
 62
     0
 10
197.347781
 20
105.258566
 30
0.0
 11
196.923178
 21
105.683169
 31
0.0
  0
LINE
  5
339
  8
0
 62
     0
 10
199.419315
 20
103.50523
 30
0.0
 11
198.623169
 21
104.301376
 31
0.0
  0
LINE
  5
33A
  8
0
 62
     0
 10
197.692832
 20
105.231713
 30
0.0
 11
197.232551
 21
105.691994
 31
0.0
  0
LINE
  5
33B
  8
0
 62
     0
 10
199.467011
 20
103.775732
 30
0.0
 11
198.941367
 21
104.301376
 31
0.0
  0
LINE
  5
33C
  8
0
 62
     0
 10
198.27875
 20
104.963993
 30
0.0
 11
197.548954
 21
105.693789
 31
0.0
  0
LINE
  5
33D
  8
0
 62
     0
 10
199.514708
 20
104.046233
 30
0.0
 11
199.259565
 21
104.301376
 31
0.0
  0
LINE
  5
33E
  8
0
 62
     0
 10
198.596948
 20
104.963993
 30
0.0
 11
197.872889
 21
105.688052
 31
0.0
  0
LINE
  5
33F
  8
0
 62
     0
 10
198.915146
 20
104.963993
 30
0.0
 11
198.204929
 21
105.67421
 31
0.0
  0
LINE
  5
340
  8
0
 62
     0
 10
199.233344
 20
104.963993
 30
0.0
 11
198.545745
 21
105.651593
 31
0.0
  0
LINE
  5
341
  8
0
 62
     0
 10
199.551542
 20
104.963993
 30
0.0
 11
198.896119
 21
105.619416
 31
0.0
  0
LINE
  5
342
  8
0
 62
     0
 10
199.705495
 20
105.128239
 30
0.0
 11
199.256984
 21
105.57675
 31
0.0
  0
ENDBLK
  5
344
  8
0
  0
BLOCK
  8
0
  2
*X3
 70
     1
 10
0.0
 20
0.0
 30
0.0
  3
*X3
  1

  0
LINE
  5
350
  8
0
 62
     0
 10
164.145554
 20
90.606449
 30
0.0
 11
164.394841
 21
90.855736
 31
0.0
  0
LINE
  5
351
  8
0
 62
     0
 10
161.317127
 20
90.606449
 30
0.0
 11
164.394841
 21
93.684163
 31
0.0
  0
LINE
  5
352
  8
0
 62
     0
 10
158.4887
 20
90.606449
 30
0.0
 11
164.394841
 21
96.51259
 31
0.0
  0
LINE
  5
353
  8
0
 62
     0
 10
155.660272
 20
90.606449
 30
0.0
 11
161.660272
 21
96.606449
 31
0.0
  0
LINE
  5
354
  8
0
 62
     0
 10
152.831845
 20
90.606449
 30
0.0
 11
158.831845
 21
96.606449
 31
0.0
  0
LINE
  5
355
  8
0
 62
     0
 10
150.003418
 20
90.606449
 30
0.0
 11
156.003418
 21
96.606449
 31
0.0
  0
LINE
  5
356
  8
0
 62
     0
 10
147.174991
 20
90.606449
 30
0.0
 11
153.174991
 21
96.606449
 31
0.0
  0
LINE
  5
357
  8
0
 62
     0
 10
145.915428
 20
92.175313
 30
0.0
 11
150.346564
 21
96.606449
 31
0.0
  0
LINE
  5
358
  8
0
 62
     0
 10
144.916624
 20
94.004936
 30
0.0
 11
147.518137
 21
96.606449
 31
0.0
  0
LINE
  5
359
  8
0
 62
     0
 10
230.394841
 20
94.630339
 30
0.0
 11
232.370951
 21
96.606449
 31
0.0
  0
LINE
  5
35A
  8
0
 62
     0
 10
230.394841
 20
91.801912
 30
0.0
 11
235.199378
 21
96.606449
 31
0.0
  0
LINE
  5
35B
  8
0
 62
     0
 10
232.027805
 20
90.606449
 30
0.0
 11
238.027805
 21
96.606449
 31
0.0
  0
LINE
  5
35C
  8
0
 62
     0
 10
234.856232
 20
90.606449
 30
0.0
 11
240.856232
 21
96.606449
 31
0.0
  0
LINE
  5
35D
  8
0
 62
     0
 10
237.684659
 20
90.606449
 30
0.0
 11
243.684659
 21
96.606449
 31
0.0
  0
LINE
  5
35E
  8
0
 62
     0
 10
240.513086
 20
90.606449
 30
0.0
 11
246.513086
 21
96.606449
 31
0.0
  0
LINE
  5
35F
  8
0
 62
     0
 10
243.341513
 20
90.606449
 30
0.0
 11
246.45185
 21
93.716785
 31
0.0
  0
LINE
  5
360
  8
0
 62
     0
 10
246.16994
 20
90.606449
 30
0.0
 11
247.089489
 21
91.525998
 31
0.0
  0
ENDBLK
  5
362
  8
0
  0
BLOCK
  8
0
  2
*X4
 70
     1
 10
0.0
 20
0.0
 30
0.0
  3
*X4
  1

  0
LINE
  5
790
  8
0
 62
     0
 10
51.502223
 20
198.933987
 30
0.0
 11
51.856175
 21
199.287939
 31
0.0
  0
LINE
  5
791
  8
0
 62
     0
 10
56.093234
 20
203.524998
 30
0.0
 11
56.447187
 21
203.878951
 31
0.0
  0
LINE
  5
792
  8
0
 62
     0
 10
51.323989
 20
199.109306
 30
0.0
 11
51.677698
 21
199.463015
 31
0.0
  0
LINE
  5
793
  8
0
 62
     0
 10
55.918158
 20
203.703476
 30
0.0
 11
56.271868
 21
204.057185
 31
0.0
  0
LINE
  5
794
  8
0
 62
     0
 10
51.158412
 20
199.297283
 30
0.0
 11
51.514
 21
199.652871
 31
0.0
  0
LINE
  5
795
  8
0
 62
     0
 10
55.728303
 20
203.867173
 30
0.0
 11
56.083891
 21
204.222762
 31
0.0
  0
LINE
  5
796
  8
0
 62
     0
 10
51.005667
 20
199.498091
 30
0.0
 11
51.365362
 21
199.857786
 31
0.0
  0
LINE
  5
797
  8
0
 62
     0
 10
55.523388
 20
204.015812
 30
0.0
 11
55.883083
 21
204.375507
 31
0.0
  0
LINE
  5
798
  8
0
 62
     0
 10
50.866139
 20
199.712117
 30
0.0
 11
51.232406
 21
200.078384
 31
0.0
  0
LINE
  5
799
  8
0
 62
     0
 10
55.30279
 20
204.148767
 30
0.0
 11
55.669057
 21
204.515034
 31
0.0
  0
LINE
  5
79A
  8
0
 62
     0
 10
50.740457
 20
199.939987
 30
0.0
 11
51.116179
 21
200.315709
 31
0.0
  0
LINE
  5
79B
  8
0
 62
     0
 10
55.065464
 20
204.264995
 30
0.0
 11
55.441186
 21
204.640717
 31
0.0
  0
LINE
  5
79C
  8
0
 62
     0
 10
50.629548
 20
200.182632
 30
0.0
 11
51.01828
 21
200.571364
 31
0.0
  0
LINE
  5
79D
  8
0
 62
     0
 10
54.809809
 20
204.362894
 30
0.0
 11
55.198541
 21
204.751625
 31
0.0
  0
LINE
  5
79E
  8
0
 62
     0
 10
50.534739
 20
200.441377
 30
0.0
 11
50.941124
 21
200.847762
 31
0.0
  0
LINE
  5
79F
  8
0
 62
     0
 10
54.533412
 20
204.44005
 30
0.0
 11
54.939797
 21
204.846434
 31
0.0
  0
LINE
  5
7A0
  8
0
 62
     0
 10
50.457911
 20
200.718102
 30
0.0
 11
50.888414
 21
201.148605
 31
0.0
  0
LINE
  5
7A1
  8
0
 62
     0
 10
54.232569
 20
204.49276
 30
0.0
 11
54.663071
 21
204.923262
 31
0.0
  0
LINE
  5
7A2
  8
0
 62
     0
 10
50.401783
 20
201.015528
 30
0.0
 11
50.866134
 21
201.479878
 31
0.0
  0
LINE
  5
7A3
  8
0
 62
     0
 10
53.901296
 20
204.51504
 30
0.0
 11
54.365646
 21
204.97939
 31
0.0
  0
LINE
  5
7A4
  8
0
 62
     0
 10
50.37043
 20
201.337728
 30
0.0
 11
50.884908
 21
201.852206
 31
0.0
  0
LINE
  5
7A5
  8
0
 62
     0
 10
53.528967
 20
204.496265
 30
0.0
 11
54.043446
 21
205.010744
 31
0.0
  0
LINE
  5
7A6
  8
0
 62
     0
 10
50.370351
 20
201.691202
 30
0.0
 11
50.96716
 21
202.288011
 31
0.0
  0
LINE
  5
7A7
  8
0
 62
     0
 10
53.093162
 20
204.414014
 30
0.0
 11
53.689972
 21
205.010823
 31
0.0
  0
LINE
  5
7A8
  8
0
 62
     0
 10
50.413009
 20
202.087414
 30
0.0
 11
51.182802
 21
202.857207
 31
0.0
  0
LINE
  5
7A9
  8
0
 62
     0
 10
52.523967
 20
204.198372
 30
0.0
 11
53.29376
 21
204.968164
 31
0.0
  0
LINE
  5
7AA
  8
0
 62
     0
 10
50.522532
 20
202.55049
 30
0.0
 11
52.830683
 21
204.858641
 31
0.0
  0
LINE
  5
7AB
  8
0
 62
     0
 10
50.774159
 20
203.15567
 30
0.0
 11
52.225503
 21
204.607015
 31
0.0
  0
LINE
  5
7AC
  8
0
 62
     0
 10
51.693137
 20
198.771348
 30
0.0
 11
52.049469
 21
199.127679
 31
0.0
  0
LINE
  5
7AD
  8
0
 62
     0
 10
56.253494
 20
203.331705
 30
0.0
 11
56.609826
 21
203.688037
 31
0.0
  0
LINE
  5
7AE
  8
0
 62
     0
 10
51.896952
 20
198.62161
 30
0.0
 11
52.257933
 21
198.98259
 31
0.0
  0
LINE
  5
7AF
  8
0
 62
     0
 10
56.398584
 20
203.123241
 30
0.0
 11
56.759564
 21
203.484221
 31
0.0
  0
LINE
  5
7B0
  8
0
 62
     0
 10
52.114107
 20
198.48521
 30
0.0
 11
52.48228
 21
198.853384
 31
0.0
  0
LINE
  5
7B1
  8
0
 62
     0
 10
56.52779
 20
202.898894
 30
0.0
 11
56.895963
 21
203.267067
 31
0.0
  0
LINE
  5
7B2
  8
0
 62
     0
 10
52.345291
 20
198.362841
 30
0.0
 11
52.723667
 21
198.741218
 31
0.0
  0
LINE
  5
7B3
  8
0
 62
     0
 10
56.639956
 20
202.657506
 30
0.0
 11
57.018332
 21
203.035883
 31
0.0
  0
LINE
  5
7B4
  8
0
 62
     0
 10
52.591515
 20
198.255512
 30
0.0
 11
52.983857
 21
198.647853
 31
0.0
  0
LINE
  5
7B5
  8
0
 62
     0
 10
56.73332
 20
202.397317
 30
0.0
 11
57.125661
 21
202.789658
 31
0.0
  0
LINE
  5
7B6
  8
0
 62
     0
 10
52.854216
 20
198.16466
 30
0.0
 11
53.265503
 21
198.575947
 31
0.0
  0
LINE
  5
7B7
  8
0
 62
     0
 10
56.805227
 20
202.11567
 30
0.0
 11
57.216514
 21
202.526957
 31
0.0
  0
LINE
  5
7B8
  8
0
 62
     0
 10
53.135438
 20
198.092328
 30
0.0
 11
53.572721
 21
198.529611
 31
0.0
  0
LINE
  5
7B9
  8
0
 62
     0
 10
56.851563
 20
201.808453
 30
0.0
 11
57.288846
 21
202.245736
 31
0.0
  0
LINE
  5
7BA
  8
0
 62
     0
 10
53.438152
 20
198.041488
 30
0.0
 11
53.91227
 21
198.515607
 31
0.0
  0
LINE
  5
7BB
  8
0
 62
     0
 10
56.865567
 20
201.468904
 30
0.0
 11
57.339685
 21
201.943022
 31
0.0
  0
LINE
  5
7BC
  8
0
 62
     0
 10
53.766867
 20
198.016651
 30
0.0
 11
54.296529
 21
198.546313
 31
0.0
  0
LINE
  5
7BD
  8
0
 62
     0
 10
56.834861
 20
201.084644
 30
0.0
 11
57.364523
 21
201.614306
 31
0.0
  0
LINE
  5
7BE
  8
0
 62
     0
 10
54.128913
 20
198.025143
 30
0.0
 11
54.753244
 21
198.649474
 31
0.0
  0
LINE
  5
7BF
  8
0
 62
     0
 10
56.7317
 20
200.62793
 30
0.0
 11
57.356031
 21
201.252261
 31
0.0
  0
LINE
  5
7C0
  8
0
 62
     0
 10
54.537633
 20
198.080309
 30
0.0
 11
55.386461
 21
198.929138
 31
0.0
  0
LINE
  5
7C1
  8
0
 62
     0
 10
56.452036
 20
199.994713
 30
0.0
 11
57.300864
 21
200.843541
 31
0.0
  0
LINE
  5
7C2
  8
0
 62
     0
 10
55.022874
 20
198.211997
 30
0.0
 11
57.169176
 21
200.358299
 31
0.0
  0
LINE
  5
7C3
  8
0
 62
     0
 10
55.696657
 20
198.532226
 30
0.0
 11
56.848947
 21
199.684517
 31
0.0
  0
ENDBLK
  5
7C5
  8
0
  0
BLOCK
  8
0
  2
*X5
 70
     1
 10
0.0
 20
0.0
 30
0.0
  3
*X5
  1

  0
LINE
  5
8E7
  8
0
 62
     0
 10
51.910248
 20
200.402672
 30
0.0
 11
52.206011
 21
200.698435
 31
0.0
  0
LINE
  5
8E8
  8
0
 62
     0
 10
51.793402
 20
200.639379
 30
0.0
 11
52.104303
 21
200.950281
 31
0.0
  0
LINE
  5
8E9
  8
0
 62
     0
 10
52.950675
 20
201.796653
 30
0.0
 11
53.220111
 21
202.066088
 31
0.0
  0
LINE
  5
8EA
  8
0
 62
     0
 10
51.70141
 20
200.900941
 30
0.0
 11
52.037036
 21
201.236566
 31
0.0
  0
LINE
  5
8EB
  8
0
 62
     0
 10
52.723668
 20
201.923198
 30
0.0
 11
53.017697
 21
202.217227
 31
0.0
  0
LINE
  5
8EC
  8
0
 62
     0
 10
51.639222
 20
201.192306
 30
0.0
 11
52.01673
 21
201.569814
 31
0.0
  0
LINE
  5
8ED
  8
0
 62
     0
 10
52.496684
 20
202.049768
 30
0.0
 11
52.790713
 21
202.343797
 31
0.0
  0
LINE
  5
8EE
  8
0
 62
     0
 10
51.615937
 20
201.522575
 30
0.0
 11
52.075918
 21
201.982556
 31
0.0
  0
LINE
  5
8EF
  8
0
 62
     0
 10
52.269701
 20
202.176338
 30
0.0
 11
52.56373
 21
202.470367
 31
0.0
  0
LINE
  5
8F0
  8
0
 62
     0
 10
51.651045
 20
201.911236
 30
0.0
 11
52.336746
 21
202.596937
 31
0.0
  0
LINE
  5
8F1
  8
0
 62
     0
 10
51.805526
 20
202.41927
 30
0.0
 11
52.101173
 21
202.714917
 31
0.0
  0
LINE
  5
8F2
  8
0
 62
     0
 10
52.049103
 20
200.187974
 30
0.0
 11
52.336108
 21
200.474979
 31
0.0
  0
LINE
  5
8F3
  8
0
 62
     0
 10
52.286054
 20
200.071371
 30
0.0
 11
52.435021
 21
200.220339
 31
0.0
  0
ENDBLK
  5
8F5
  8
0
  0
BLOCK
  8
0
  2
NT
 70
     0
 10
0.0
 20
0.0
 30
0.0
  3
NT
  1

  0
POLYLINE
  5
61B
  8
0
 66
     1
 10
0.0
 20
0.0
 30
0.0
  0
VERTEX
  5
A23
  8
0
 10
0.288675
 20
-0.166667
 30
0.0
 42
0.291473
  0
VERTEX
  5
A24
  8
0
 10
0.273051
 20
0.191192
 30
0.0
 42
1.0
  0
VERTEX
  5
A25
  8
0
 10
0.204788
 20
0.143394
 30
0.0
 42
-0.246577
  0
VERTEX
  5
A26
  8
0
 10
0.234311
 20
-0.087167
 30
0.0
  0
VERTEX
  5
A27
  8
0
 10
0.147129
 20
-0.036832
 30
0.0
 42
1.0
  0
VERTEX
  5
A28
  8
0
 10
0.105462
 20
-0.109001
 30
0.0
  0
VERTEX
  5
A29
  8
0
 10
0.231757
 20
-0.181918
 30
0.0
 42
0.414214
  0
VERTEX
  5
A2A
  8
0
 10
0.288675
 20
-0.166667
 30
0.0
  0
SEQEND
  5
A2B
  8
0
  0
POLYLINE
  5
61C
  8
0
 66
     1
 10
0.0
 20
0.0
 30
0.0
 70
     1
  0
VERTEX
  5
A2C
  8
0
 10
0.166667
 20
0.288675
 30
0.0
 42
0.291473
  0
VERTEX
  5
A2D
  8
0
 10
-0.191192
 20
0.273051
 30
0.0
 42
1.0
  0
VERTEX
  5
A2E
  8
0
 10
-0.143394
 20
0.204788
 30
0.0
 42
-0.111311
  0
VERTEX
  5
A2F
  8
0
 10
-0.041667
 20
0.246503
 30
0.0
  0
VERTEX
  5
A30
  8
0
 10
-0.041667
 20
-0.291667
 30
0.0
 42
1.0
  0
VERTEX
  5
A31
  8
0
 10
0.041667
 20
-0.291667
 30
0.0
  0
VERTEX
  5
A32
  8
0
 10
0.041667
 20
0.246503
 30
0.0
 42
-0.089274
  0
VERTEX
  5
A33
  8
0
 10
0.125
 20
0.216506
 30
0.0
 42
1.0
  0
SEQEND
  5
A34
  8
0
  0
POLYLINE
  5
61D
  8
0
 66
     1
 10
0.0
 20
0.0
 30
0.0
  0
VERTEX
  5
A35
  8
0
 10
-0.288675
 20
0.166667
 30
0.0
 42
0.291473
  0
VERTEX
  5
A36
  8
0
 10
-0.273051
 20
-0.191192
 30
0.0
 42
1.0
  0
VERTEX
  5
A37
  8
0
 10
-0.204788
 20
-0.143394
 30
0.0
 42
-0.246577
  0
VERTEX
  5
A38
  8
0
 10
-0.234311
 20
0.087167
 30
0.0
  0
VERTEX
  5
A39
  8
0
 10
-0.147129
 20
0.036832
 30
0.0
 42
1.0
  0
VERTEX
  5
A3A
  8
0
 10
-0.105462
 20
0.109001
 30
0.0
  0
VERTEX
  5
A3B
  8
0
 10
-0.231757
 20
0.181918
 30
0.0
 42
0.414214
  0
VERTEX
  5
A3C
  8
0
 10
-0.288675
 20
0.166667
 30
0.0
  0
SEQEND
  5
A3D
  8
0
  0
CIRCLE
  5
61E
  8
0
 10
0.0
 20
0.0
 30
0.0
 40
0.416667
  0
CIRCLE
  5
61F
  8
0
 10
0.0
 20
0.0
 30
0.0
 40
0.5
  0
ENDBLK
  5
621
  8
0
  0
ENDSEC
  0
SECTION
  2
ENTITIES
  0
LINE
  5
1E
  8
BEM1
 10
207.010556
 20
81.025558
 30
0.0
 11
212.590469
 21
81.025558
 31
0.0
  0
POLYLINE
  5
20
  8
025
 66
     1
 10
0.0
 20
0.0
 30
0.0
 70
     1
 40
0.5
 41
0.5
  0
VERTEX
  5
97E
  8
025
 10
209.804198
 20
131.360145
 30
0.0
 42
1.0
  0
VERTEX
  5
97F
  8
025
 10
210.304198
 20
131.360145
 30
0.0
 42
1.0
  0
SEQEND
  5
980
  8
025
  0
TEXT
  5
22
  8
035
 10
177.725704
 20
141.15593
 30
0.0
 40
3.0
  1
PCB-Layout (component side)
  7
ARIAL
  0
TEXT
  5
25
  8
0
 62
     3
 10
169.725704
 20
147.15593
 30
0.0
 40
3.5
  1
Print-Bohrplan (Bestückungsseite)
  7
ARIAL
  0
TEXT
  5
26
  8
BEM1
 62
     3
 10
199.717138
 20
265.929096
 30
0.0
 40
3.5
  1
[0.768"]
 41
0.7
 51
15.0
  0
LINE
  5
27
  8
035
 62
     3
 10
226.28283
 20
238.922814
 30
0.0
 11
208.28283
 21
238.922814
 31
0.0
  0
LINE
  5
28
  8
035
 62
     3
 10
208.28283
 20
241.25
 30
0.0
 11
211.340654
 21
241.25
 31
0.0
  0
LINE
  5
29
  8
035
 62
     3
 10
226.28283
 20
240.122814
 30
0.0
 11
208.28283
 21
240.122814
 31
0.0
  0
LINE
  5
2A
  8
05
 10
195.08283
 20
225.95
 30
0.0
 11
224.87283
 21
225.95
 31
0.0
  0
LINE
  5
2B
  8
05
 10
195.08283
 20
228.95
 30
0.0
 11
224.87283
 21
228.95
 31
0.0
  0
LINE
  5
2C
  8
05
 10
209.78283
 20
201.65
 30
0.0
 11
224.87283
 21
201.65
 31
0.0
  0
LINE
  5
2D
  8
05
 10
209.78283
 20
204.65
 30
0.0
 11
224.87283
 21
204.65
 31
0.0
  0
LINE
  5
2E
  8
MITTE
 10
163.224617
 20
215.3
 30
0.0
 11
233.732619
 21
215.3
 31
0.0
  0
LINE
  5
31
  8
05
 10
195.08283
 20
198.8
 30
0.0
 11
219.38283
 21
198.8
 31
0.0
  0
LINE
  5
32
  8
025
 10
195.08283
 20
193.938399
 30
0.0
 11
219.38283
 21
193.938399
 31
0.0
  0
LINE
  5
33
  8
05
 10
209.78283
 20
214.85
 30
0.0
 11
224.87283
 21
214.85
 31
0.0
  0
LINE
  5
34
  8
05
 10
209.78283
 20
215.75
 30
0.0
 11
224.87283
 21
215.75
 31
0.0
  0
LINE
  5
35
  8
05
 10
208.28283
 20
236.3
 30
0.0
 11
210.98283
 21
236.3
 31
0.0
  0
LINE
  5
36
  8
05
 10
195.08283
 20
234.2
 30
0.0
 11
231.38283
 21
234.2
 31
0.0
  0
LINE
  5
37
  8
05
 10
192.08283
 20
179.301516
 30
0.0
 11
231.38283
 21
179.301516
 31
0.0
  0
INSERT
  5
38
  8
SCHRIFTKOPF
 66
     1
  2
ZKOPF
 10
410.0
 20
10.0
 30
0.0
  0
ATTRIB
  5
39
  8
0
 62
     4
 10
396.678571
 20
47.0
 30
0.0
 40
2.5
  1
Dobler
  7
SCRIPTS
 72
     1
 11
401.5
 21
47.0
 31
0.0
  2
NAME
 70
     0
  0
ATTRIB
  5
3B
  8
0
 62
     4
 10
380.395833
 20
47.0
 30
0.0
 40
2.5
  1
17.08.94
 41
0.7
 51
15.0
 72
     1
 11
385.5
 21
47.0
 31
0.0
  2
DATE
 70
     0
  0
ATTRIB
  5
3C
  8
0
 62
     4
 10
329.5
 20
46.0
 30
0.0
 40
2.5
  1

 41
0.7
 51
15.0
 72
     1
 11
329.5
 21
46.0
 31
0.0
  2
WERKSTOFF
 70
     0
  0
ATTRIB
  5
3D
  8
0
 62
     2
 10
308.083333
 20
22.5
 30
0.0
 40
5.0
  1
NC3MBH
 41
0.7
 51
15.0
 72
     1
 11
318.0
 21
22.5
 31
0.0
  2
BENENNUNG
 70
     0
  0
ATTRIB
  5
3E
  8
0
 62
     3
 10
318.0
 20
31.0
 30
0.0
 40
3.5
  1

 41
0.7
 51
15.0
 72
     1
 11
318.0
 21
31.0
 31
0.0
  2
TEIL
 70
     0
  0
ATTRIB
  5
3F
  8
0
 62
     3
 10
365.716667
 20
12.0
 30
0.0
 40
3.5
  1
  3102 St 18 10
 41
0.7
 51
15.0
 72
     1
 11
384.5
 21
12.0
 31
0.0
  2
NUMMER
 70
     0
  0
ATTRIB
  5
40
  8
0
 62
     2
 10
346.139634
 20
44.930682
 30
0.0
 40
5.0
  1
3:1
 41
0.7
 51
15.0
 72
     1
 11
349.056301
 21
44.930682
 31
0.0
  2
MASS
 70
     0
  0
ATTRIB
  5
41
  8
0
 62
     3
 10
348.366667
 20
39.0
 30
0.0
 40
3.5
  1
1:1
 41
0.7
 51
15.0
 72
     1
 11
350.0
 21
39.0
 31
0.0
  2
MASS2
 70
     0
  0
ATTRIB
  5
42
  8
0
 62
     4
 10
329.0
 20
39.0
 30
0.0
 40
2.5
  1

 41
0.7
 51
15.0
 72
     1
 11
329.0
 21
39.0
 31
0.0
  2
TEIL
 70
     0
  0
ATTRIB
  5
43
  8
0
 62
     3
 10
310.450409
 20
69.004319
 30
0.0
 40
3.5
  1

 41
0.7
 51
15.0
  2
TOL
 70
     0
  0
ATTRIB
  5
44
  8
0
 62
     3
 10
310.450409
 20
64.004319
 30
0.0
 40
3.5
  1

 41
0.7
 51
15.0
  2
RADIEN
 70
     0
  0
ATTRIB
  5
45
  8
0
 62
     3
 10
310.450409
 20
59.004319
 30
0.0
 40
3.5
  1

 41
0.7
 51
15.0
  2
FACETTE
 70
     0
  0
ATTRIB
  5
46
  8
0
 62
     4
 10
212.813733
 20
17.0
 30
0.0
 40
2.5
  1
A
 41
0.7
 51
15.0
  2
INDEX1
 70
     0
  0
ATTRIB
  5
47
  8
0
 62
     4
 10
219.651257
 20
17.0
 30
0.0
 40
2.5
  1
Aktuell
 41
0.7
 51
15.0
  2
A1
 70
     0
  0
ATTRIB
  5
48
  8
0
 62
     4
 10
252.651257
 20
17.0
 30
0.0
 40
2.5
  1
08.11.95
 41
0.7
 51
15.0
  2
DATUM1
 70
     0
  0
ATTRIB
  5
49
  8
0
 62
     4
 10
265.53501
 20
17.0
 30
0.0
 40
2.5
  1
Dobler
 41
0.7
 51
15.0
  2
NAME1
 70
     0
  0
ATTRIB
  5
4A
  8
0
 62
     4
 10
212.813733
 20
22.0
 30
0.0
 40
2.5
  1

 41
0.7
 51
15.0
  2
INDEX2
 70
     0
  0
ATTRIB
  5
4B
  8
0
 62
     4
 10
219.651257
 20
22.0
 30
0.0
 40
2.5
  1

 41
0.7
 51
15.0
  2
A2
 70
     0
  0
ATTRIB
  5
4C
  8
0
 62
     4
 10
252.651257
 20
22.0
 30
0.0
 40
2.5
  1

 41
0.7
 51
15.0
  2
DATUM2
 70
     0
  0
ATTRIB
  5
4D
  8
0
 62
     4
 10
265.53501
 20
22.0
 30
0.0
 40
2.5
  1

 41
0.7
 51
15.0
  2
NAME2
 70
     0
  0
ATTRIB
  5
4E
  8
0
 62
     4
 10
212.813733
 20
27.0
 30
0.0
 40
2.5
  1

 41
0.7
 51
15.0
  2
INDEX3
 70
     0
  0
ATTRIB
  5
4F
  8
0
 62
     4
 10
219.651257
 20
27.0
 30
0.0
 40
2.5
  1

 41
0.7
 51
15.0
  2
A3
 70
     0
  0
ATTRIB
  5
50
  8
0
 62
     4
 10
252.651257
 20
27.0
 30
0.0
 40
2.5
  1

 41
0.7
 51
15.0
  2
DATUM3
 70
     0
  0
ATTRIB
  5
51
  8
0
 62
     4
 10
265.53501
 20
27.0
 30
0.0
 40
2.5
  1

 41
0.7
 51
15.0
  2
NAME3
 70
     0
  0
ATTRIB
  5
52
  8
0
 62
     4
 10
212.813733
 20
32.0
 30
0.0
 40
2.5
  1

 41
0.7
 51
15.0
  2
INDEX4
 70
     0
  0
ATTRIB
  5
53
  8
0
 62
     4
 10
219.651257
 20
32.0
 30
0.0
 40
2.5
  1

 41
0.7
 51
15.0
  2
A4
 70
     0
  0
ATTRIB
  5
54
  8
0
 62
     4
 10
252.651257
 20
32.0
 30
0.0
 40
2.5
  1

 41
0.7
 51
15.0
  2
DATUM4
 70
     0
  0
ATTRIB
  5
55
  8
0
 62
     4
 10
265.53501
 20
32.0
 30
0.0
 40
2.5
  1

 41
0.7
 51
15.0
  2
NAME4
 70
     0
  0
ATTRIB
  5
56
  8
0
 62
     4
 10
212.813733
 20
37.0
 30
0.0
 40
2.5
  1

 41
0.7
 51
15.0
  2
INDEX5
 70
     0
  0
ATTRIB
  5
57
  8
0
 62
     4
 10
219.651257
 20
37.0
 30
0.0
 40
2.5
  1

 41
0.7
 51
15.0
  2
A5
 70
     0
  0
ATTRIB
  5
58
  8
0
 62
     4
 10
252.651257
 20
37.0
 30
0.0
 40
2.5
  1

 41
0.7
 51
15.0
  2
DATUM5
 70
     0
  0
ATTRIB
  5
59
  8
0
 62
     4
 10
265.53501
 20
37.0
 30
0.0
 40
2.5
  1

 41
0.7
 51
15.0
  2
NAME5
 70
     0
  0
ATTRIB
  5
5A
  8
0
 62
     4
 10
212.813733
 20
42.0
 30
0.0
 40
2.5
  1

 41
0.7
 51
15.0
  2
INDEX6
 70
     0
  0
ATTRIB
  5
5B
  8
0
 62
     4
 10
219.651257
 20
42.0
 30
0.0
 40
2.5
  1

 41
0.7
 51
15.0
  2
A6
 70
     0
  0
ATTRIB
  5
5C
  8
0
 62
     4
 10
252.651257
 20
42.0
 30
0.0
 40
2.5
  1

 41
0.7
 51
15.0
  2
DATUM6
 70
     0
  0
ATTRIB
  5
5D
  8
0
 62
     4
 10
265.53501
 20
42.0
 30
0.0
 40
2.5
  1

 41
0.7
 51
15.0
  2
NAME6
 70
     0
  0
ATTRIB
  5
5E
  8
0
 62
     4
 10
212.813733
 20
47.0
 30
0.0
 40
2.5
  1

 41
0.7
 51
15.0
  2
INDEX7
 70
     0
  0
ATTRIB
  5
5F
  8
0
 62
     4
 10
219.651257
 20
47.0
 30
0.0
 40
2.5
  1

 41
0.7
 51
15.0
  2
A7
 70
     0
  0
ATTRIB
  5
60
  8
0
 62
     4
 10
252.651257
 20
47.0
 30
0.0
 40
2.5
  1

 41
0.7
 51
15.0
  2
DATUM7
 70
     0
  0
ATTRIB
  5
61
  8
0
 62
     4
 10
265.53501
 20
47.0
 30
0.0
 40
2.5
  1

 41
0.7
 51
15.0
  2
NAME7
 70
     0
  0
ATTRIB
  5
62
  8
0
 62
     4
 10
212.813733
 20
52.0
 30
0.0
 40
2.5
  1

 41
0.7
 51
15.0
  2
INDEX8
 70
     0
  0
ATTRIB
  5
63
  8
0
 62
     4
 10
219.651257
 20
52.0
 30
0.0
 40
2.5
  1

 41
0.7
 51
15.0
  2
A8
 70
     0
  0
ATTRIB
  5
64
  8
0
 62
     4
 10
252.651257
 20
52.0
 30
0.0
 40
2.5
  1

 41
0.7
 51
15.0
  2
DATUM8
 70
     0
  0
ATTRIB
  5
65
  8
0
 62
     4
 10
265.53501
 20
52.0
 30
0.0
 40
2.5
  1

 41
0.7
 51
15.0
  2
NAME8
 70
     0
  0
SEQEND
  5
347
  8
SCHRIFTKOPF
  0
LINE
  5
348
  8
BEM1
 10
183.646936
 20
131.360145
 30
0.0
 11
234.86044
 21
131.360145
 31
0.0
  0
CIRCLE
  5
349
  8
05
 10
210.054198
 20
65.785558
 30
0.0
 40
1.8
  0
LINE
  5
34A
  8
BEM1
 10
208.554198
 20
65.785558
 30
0.0
 11
211.554198
 21
65.785558
 31
0.0
  0
LINE
  5
34B
  8
BEM1
 10
202.517117
 20
107.695558
 30
0.0
 11
228.901339
 21
107.695558
 31
0.0
  0
LINE
  5
34C
  8
BEM1
 10
208.554198
 20
65.785558
 30
0.0
 11
211.554198
 21
65.785558
 31
0.0
  0
INSERT
  5
34D
  8
SCHRAFFIERT
  2
*X3
 10
12.659357
 20
28.519109
 30
0.0
  0
LINE
  5
363
  8
05
 10
177.054198
 20
119.125558
 30
0.0
 11
243.054198
 21
119.125558
 31
0.0
  0
LINE
  5
364
  8
05
 10
177.054198
 20
125.125558
 30
0.0
 11
243.054198
 21
125.125558
 31
0.0
  0
LINE
  5
365
  8
BEM1
 10
176.38283
 20
264.179096
 30
0.0
 11
227.88283
 21
264.179096
 31
0.0
  0
CIRCLE
  5
366
  8
05
 10
210.054198
 20
81.025558
 30
0.0
 40
1.8
  0
POLYLINE
  5
367
  8
RAHMEN
 66
     1
 10
0.0
 20
0.0
 30
0.0
 70
     1
  0
VERTEX
  5
9F7
  8
RAHMEN
 10
10.0
 20
10.0
 30
0.0
  0
VERTEX
  5
9F8
  8
RAHMEN
 10
410.0
 20
10.0
 30
0.0
  0
VERTEX
  5
9F9
  8
RAHMEN
 10
410.0
 20
287.0
 30
0.0
  0
VERTEX
  5
9FA
  8
RAHMEN
 10
10.0
 20
287.0
 30
0.0
  0
SEQEND
  5
9FB
  8
RAHMEN
  0
TEXT
  5
369
  8
0
 62
     3
 10
43.891988
 20
147.080838
 30
0.0
 40
3.5
  1
Frontplattenausschnitt (Rückseite)
  7
ARIAL
  0
TEXT
  5
36A
  8
035
 10
55.891988
 20
141.15593
 30
0.0
 40
3.0
  1
Panel cut out (rear side)
  7
ARIAL
  0
TEXT
  5
36B
  8
BEM1
 62
     3
 10
70.349019
 20
129.007367
 30
0.0
 40
3.5
  1
%%C2.70 [0.106"]
 50
359.961444
 41
0.7
 51
15.0
 72
     1
 11
83.212693
 21
130.748711
 31
0.0
 73
     2
  0
LINE
  5
36C
  8
BEM1
 10
96.964429
 20
127.235627
 30
0.0
 11
65.658187
 21
127.261736
 31
0.0
  0
LINE
  5
36D
  8
MITTE
 10
40.136821
 20
87.844599
 30
0.0
 11
108.375809
 21
87.844599
 31
0.0
  0
CIRCLE
  5
36E
  8
05
 10
74.256315
 20
87.844599
 30
0.0
 40
33.0
  0
LINE
  5
36F
  8
BEM1
 10
99.201075
 20
103.592899
 30
0.0
 11
70.106603
 21
85.224774
 31
0.0
  0
LINE
  5
370
  8
BEM1
 10
48.056315
 20
41.970732
 30
0.0
 11
100.456315
 21
41.970732
 31
0.0
  0
LINE
  5
371
  8
BEM1
 10
52.916359
 20
58.144599
 30
0.0
 11
120.560003
 21
58.144599
 31
0.0
  0
TEXT
  5
372
  8
BEM1
 62
     3
 10
70.403689
 20
43.55912
 30
0.0
 40
3.5
  1
[0.780"   ]
 41
0.7
 51
15.0
  0
LINE
  5
373
  8
MITTE
 10
74.256315
 20
121.824232
 30
0.0
 11
74.256315
 21
53.864966
 31
0.0
  0
CIRCLE
  5
374
  8
05
 10
44.556315
 20
58.144599
 30
0.0
 40
4.95
  0
LINE
  5
375
  8
MITTE
 10
44.556315
 20
50.821863
 30
0.0
 11
44.556315
 21
65.181146
 31
0.0
  0
SOLID
  5
376
  8
BEM1
 10
48.056315
 20
41.387399
 30
0.0
 11
48.056315
 21
42.554066
 31
0.0
 12
44.556315
 22
41.970732
 32
0.0
 13
44.556315
 23
41.970732
 33
0.0
  0
LINE
  5
377
  8
BEM1
 10
44.556315
 20
49.589584
 30
0.0
 11
44.556315
 21
41.170732
 31
0.0
  0
TEXT
  5
378
  8
BEM1
 62
     3
 10
53.774741
 20
43.514453
 30
0.0
 40
3.5
  1
19.80
 41
0.7
 51
15.0
  0
INSERT
  5
379
  8
BEM1
  2
3
 10
63.481094
 20
45.140851
 30
0.0
  0
LINE
  5
37E
  8
MITTE
 10
37.2509
 20
58.144599
 30
0.0
 11
52.116359
 21
58.144599
 31
0.0
  0
LINE
  5
37F
  8
BEM1
 10
49.311555
 20
72.096299
 30
0.0
 11
57.179625
 21
77.063623
 31
0.0
  0
SOLID
  5
380
  8
BEM1
 10
49.622962
 20
71.603041
 30
0.0
 11
49.000148
 21
72.589557
 31
0.0
 12
46.352008
 22
70.227856
 32
0.0
 13
46.352008
 23
70.227856
 33
0.0
  0
TEXT
  5
381
  8
BEM1
 62
     3
 10
57.637771
 20
79.394199
 30
0.0
 40
3.5
  1
%%c22.00
 41
0.7
 51
15.0
  0
LINE
  5
382
  8
BEM1
 62
     3
 10
54.057855
 20
82.388642
 30
0.0
 11
56.831971
 21
80.821135
 31
0.0
  0
LINE
  5
383
  8
BEM1
 62
     3
 10
56.831971
 20
80.821135
 30
0.0
 11
53.702199
 21
80.821135
 31
0.0
  0
LINE
  5
384
  8
BEM1
 62
     3
 10
56.831971
 20
80.356011
 30
0.0
 11
53.702199
 21
80.356011
 31
0.0
  0
LINE
  5
385
  8
BEM1
 62
     3
 10
66.614807
 20
132.006407
 30
0.0
 11
69.388923
 21
130.4389
 31
0.0
  0
LINE
  5
386
  8
BEM1
 62
     3
 10
69.388923
 20
129.973776
 30
0.0
 11
66.259151
 21
129.973776
 31
0.0
  0
LINE
  5
387
  8
BEM1
 62
     3
 10
69.388923
 20
130.4389
 30
0.0
 11
66.259151
 21
130.4389
 31
0.0
  0
LINE
  5
388
  8
BEM1
 10
103.956315
 20
56.563
 30
0.0
 11
103.956315
 21
41.170732
 31
0.0
  0
LINE
  5
389
  8
BEM1
 10
196.515197
 20
60.275375
 30
0.0
 11
189.705632
 21
44.169026
 31
0.0
  0
TEXT
  5
38A
  8
BEM1
 62
     3
 10
166.788999
 20
54.262947
 30
0.0
 40
3.5
  1
5.08 [0.200"]
 50
90.0
 41
0.7
 51
15.0
  0
LINE
  5
38B
  8
BEM1
 10
168.410967
 20
81.025558
 30
0.0
 11
168.410967
 21
54.338608
 31
0.0
  0
TEXT
  5
38C
  8
035
 10
128.917389
 20
24.657808
 30
0.0
 40
3.5
  1
Layout tolerance: %%P0.05mm [0.002"]
 41
0.7
 51
15.0
  0
TEXT
  5
38D
  8
SCHRAFFIERT
 10
83.196221
 20
44.209136
 30
0.0
 40
2.5
  1
%%p0.004
 41
0.7
 51
15.0
  0
SOLID
  5
38E
  8
BEM1
 10
100.456315
 20
41.387399
 30
0.0
 11
100.456315
 21
42.554066
 31
0.0
 12
103.956315
 22
41.970732
 32
0.0
 13
103.956315
 23
41.970732
 33
0.0
  0
TEXT
  5
38F
  8
BEM1
 62
     3
 10
158.207571
 20
42.568037
 30
0.0
 40
3.5
  1
%%c1.60 [0.063"]
 41
0.7
 51
15.0
  0
TEXT
  5
390
  8
BEM1
 62
     3
 10
147.864561
 20
42.562436
 30
0.0
 40
3.5
  1
(4x)
 41
0.7
 51
15.0
  0
LINE
  5
391
  8
BEM1
 10
189.705632
 20
44.169026
 30
0.0
 11
186.205632
 21
44.169026
 31
0.0
  0
TEXT
  5
392
  8
SCHRAFFIERT
 10
116.781358
 20
99.155596
 30
0.0
 40
2.5
  1
%%p0.004
 50
90.0
 41
0.7
 51
15.0
  0
LINE
  5
393
  8
BEM1
 10
103.956315
 20
108.989584
 30
0.0
 11
103.956315
 21
59.709174
 31
0.0
  0
LINE
  5
394
  8
BEM1
 10
119.760003
 20
61.644599
 30
0.0
 11
119.760003
 21
114.044599
 31
0.0
  0
TEXT
  5
395
  8
BEM1
 62
     3
 10
117.375235
 20
86.458198
 30
0.0
 40
3.5
  1
[0.780"   ]
 50
90.0
 41
0.7
 51
15.0
  0
SOLID
  5
396
  8
BEM1
 10
120.343337
 20
61.644599
 30
0.0
 11
119.17667
 21
61.644599
 31
0.0
 12
119.760003
 22
58.144599
 32
0.0
 13
119.760003
 23
58.144599
 33
0.0
  0
TEXT
  5
397
  8
BEM1
 62
     3
 10
117.57435
 20
69.367143
 30
0.0
 40
3.5
  1
19.80
 50
90.0
 41
0.7
 51
15.0
  0
INSERT
  5
398
  8
BEM1
  2
3
 10
115.947952
 20
79.073496
 30
0.0
 50
90.0
  0
LINE
  5
399
  8
BEM1
 10
99.012261
 20
124.397251
 30
0.0
 11
96.964429
 21
127.235627
 31
0.0
  0
CIRCLE
  5
39A
  8
05
 10
103.956315
 20
117.544599
 30
0.0
 40
4.95
  0
LINE
  5
39B
  8
MITTE
 10
103.956315
 20
110.373441
 30
0.0
 11
103.956315
 21
124.732724
 31
0.0
  0
SOLID
  5
39C
  8
BEM1
 10
99.512482
 20
103.099641
 30
0.0
 11
98.889668
 21
104.086157
 31
0.0
 12
102.160623
 22
105.461342
 32
0.0
 13
102.160623
 23
105.461342
 33
0.0
  0
LINE
  5
39D
  8
MITTE
 10
96.6509
 20
117.544599
 30
0.0
 11
111.516359
 21
117.544599
 31
0.0
  0
SOLID
  5
39E
  8
BEM1
 10
98.539199
 20
124.055945
 30
0.0
 11
99.485324
 21
124.738556
 31
0.0
 12
101.060094
 22
121.558874
 32
0.0
 13
101.060094
 23
121.558874
 33
0.0
  0
LINE
  5
39F
  8
BEM1
 10
112.316359
 20
117.544599
 30
0.0
 11
120.560003
 21
117.544599
 31
0.0
  0
SOLID
  5
3A0
  8
BEM1
 10
120.343337
 20
114.044599
 30
0.0
 11
119.17667
 21
114.044599
 31
0.0
 12
119.760003
 22
117.544599
 32
0.0
 13
119.760003
 23
117.544599
 33
0.0
  0
LINE
  5
3A1
  8
BEM1
 10
198.624198
 20
112.197487
 30
0.0
 11
198.624198
 21
82.386208
 31
0.0
  0
TEXT
  5
3A2
  8
BEM1
 62
     3
 10
166.684414
 20
87.523779
 30
0.0
 40
3.5
  1
12.70 [0.500"]
 50
90.0
 41
0.7
 51
15.0
  0
LINE
  5
3A3
  8
BEM1
 10
168.410967
 20
84.525558
 30
0.0
 11
168.410967
 21
115.625558
 31
0.0
  0
LINE
  5
3A4
  8
BEM1
 10
168.299714
 20
81.025558
 30
0.0
 11
205.592214
 21
81.025558
 31
0.0
  0
LINE
  5
3A5
  8
BEM1
 10
195.247573
 20
65.785558
 30
0.0
 11
167.610967
 21
65.785558
 31
0.0
  0
SOLID
  5
3A6
  8
BEM1
 10
168.9943
 20
62.285558
 30
0.0
 11
167.827633
 21
62.285558
 31
0.0
 12
168.410967
 22
65.785558
 32
0.0
 13
168.410967
 23
65.785558
 33
0.0
  0
LINE
  5
3A7
  8
BEM1
 10
167.693801
 20
81.025558
 30
0.0
 11
175.116485
 21
81.025558
 31
0.0
  0
SOLID
  5
3A8
  8
BEM1
 10
168.9943
 20
84.525558
 30
0.0
 11
167.827633
 21
84.525558
 31
0.0
 12
168.410967
 22
81.025558
 32
0.0
 13
168.410967
 23
81.025558
 33
0.0
  0
LINE
  5
3A9
  8
BEM1
 10
170.210967
 20
81.025558
 30
0.0
 11
171.210967
 21
81.025558
 31
0.0
  0
LINE
  5
3AA
  8
BEM1
 10
198.624198
 20
79.823873
 30
0.0
 11
198.624198
 21
69.279775
 31
0.0
  0
TEXT
  5
3AB
  8
035
 10
193.033929
 20
68.641547
 30
0.0
 40
4.5
  1
2
  7
HELV
  0
LINE
  5
3AC
  8
BEM1
 10
198.624198
 20
64.285558
 30
0.0
 11
198.624198
 21
67.285558
 31
0.0
  0
CIRCLE
  5
3AD
  8
05
 10
198.624198
 20
65.785558
 30
0.0
 40
2.4
  0
SOLID
  5
3AE
  8
BEM1
 10
195.970405
 20
60.483892
 30
0.0
 11
197.059989
 21
60.066858
 31
0.0
 12
197.7663
 22
63.544128
 32
0.0
 13
197.7663
 23
63.544128
 33
0.0
  0
LINE
  5
3AF
  8
BEM1
 10
197.124198
 20
65.785558
 30
0.0
 11
200.124198
 21
65.785558
 31
0.0
  0
TEXT
  5
3B0
  8
035
 10
205.698196
 20
58.125836
 30
0.0
 40
4.5
  1
3
  7
HELV
  0
LINE
  5
3B1
  8
BEM1
 10
207.754198
 20
65.785558
 30
0.0
 11
201.822142
 21
65.785558
 31
0.0
  0
TEXT
  5
3B2
  8
035
 10
204.379377
 20
84.099371
 30
0.0
 40
4.5
  1
G
  7
HELV
  0
LINE
  5
3B3
  8
05
 10
157.986549
 20
125.125558
 30
0.0
 11
177.054198
 21
125.125558
 31
0.0
  0
LINE
  5
3B4
  8
05
 10
157.986549
 20
119.125558
 30
0.0
 11
177.054198
 21
119.125558
 31
0.0
  0
POLYLINE
  5
3B5
  8
025
 66
     1
 10
0.0
 20
0.0
 30
0.0
  0
VERTEX
  5
9FC
  8
025
 10
157.986549
 20
125.125558
 30
0.0
  0
VERTEX
  5
9FD
  8
025
 10
157.317203
 20
123.15754
 30
0.0
  0
VERTEX
  5
9FE
  8
025
 10
157.848012
 20
121.858108
 30
0.0
  0
VERTEX
  5
9FF
  8
025
 10
158.732695
 20
121.115576
 30
0.0
  0
VERTEX
  5
A00
  8
025
 10
157.986549
 20
119.125558
 30
0.0
  0
SEQEND
  5
A01
  8
025
  0
SOLID
  5
3B6
  8
BEM1
 10
168.9943
 20
115.625558
 30
0.0
 11
167.827633
 21
115.625558
 31
0.0
 12
168.410967
 22
119.125558
 32
0.0
 13
168.410967
 23
119.125558
 33
0.0
  0
LINE
  5
3B7
  8
05
 10
177.054198
 20
125.125558
 30
0.0
 11
177.054198
 21
119.125558
 31
0.0
  0
LINE
  5
3B8
  8
BEM1
 10
198.624198
 20
112.961702
 30
0.0
 11
198.624198
 21
132.160145
 31
0.0
  0
CIRCLE
  5
3B9
  8
05
 10
198.624198
 20
107.695558
 30
0.0
 40
2.4
  0
LINE
  5
3BA
  8
BEM1
 10
198.624198
 20
106.195558
 30
0.0
 11
198.624198
 21
109.195558
 31
0.0
  0
LINE
  5
3BB
  8
BEM1
 10
197.124198
 20
107.695558
 30
0.0
 11
200.124198
 21
107.695558
 31
0.0
  0
TEXT
  5
3BC
  8
BEM1
 62
     3
 10
184.02946
 20
133.131694
 30
0.0
 40
3.5
  1
3.81 [0.150"]
 41
0.7
 51
15.0
  0
SOLID
  5
3BD
  8
BEM1
 10
195.124198
 20
130.776811
 30
0.0
 11
195.124198
 21
131.943478
 31
0.0
 12
198.624198
 22
131.360145
 32
0.0
 13
198.624198
 23
131.360145
 33
0.0
  0
LINE
  5
3BE
  8
05
 10
76.393551
 20
203.9
 30
0.0
 11
79.131315
 21
203.9
 31
0.0
  0
LINE
  5
3BF
  8
05
 10
76.393551
 20
203.0
 30
0.0
 11
79.131315
 21
203.0
 31
0.0
  0
ARC
  5
3C0
  8
05
 10
85.881315
 20
215.3
 30
0.0
 40
7.2
 50
46.816578
 51
259.193077
  0
LINE
  5
3C1
  8
05
 10
75.081315
 20
177.801516
 30
0.0
 11
82.911315
 21
177.801516
 31
0.0
  0
LINE
  5
3C2
  8
05
 10
75.081315
 20
179.301516
 30
0.0
 11
79.731315
 21
179.301516
 31
0.0
  0
ARC
  5
3C3
  8
05
 10
73.731315
 20
215.3
 30
0.0
 40
24.0
 50
274.301222
 51
282.635625
  0
ARC
  5
3C4
  8
035
 10
73.731315
 20
215.3
 30
0.0
 40
25.95
 50
73.102755
 51
106.755286
  0
LINE
  5
3C5
  8
035
 10
75.081315
 20
189.8
 30
0.0
 11
80.100931
 21
189.8
 31
0.0
  0
LINE
  5
3C6
  8
035
 10
80.100931
 20
190.55
 30
0.0
 11
75.081315
 21
190.55
 31
0.0
  0
ARC
  5
3C7
  8
035
 10
73.731315
 20
215.3
 30
0.0
 40
24.75
 50
69.021133
 51
110.978867
  0
ARC
  5
3C8
  8
05
 10
73.731315
 20
215.3
 30
0.0
 40
33.0
 50
66.458201
 51
113.541799
  0
ARC
  5
3C9
  8
05
 10
73.731315
 20
215.3
 30
0.0
 40
37.498485
 50
71.323952
 51
90.0
  0
ARC
  5
3CA
  8
05
 10
73.731315
 20
215.3
 30
0.0
 40
29.7
 50
73.29734
 51
106.70266
  0
ARC
  5
3CB
  8
05
 10
73.731315
 20
215.3
 30
0.0
 40
32.7
 50
67.5
 51
112.5
  0
LINE
  5
3CC
  8
MITTE
 10
36.346544
 20
215.3
 30
0.0
 11
111.165599
 21
215.3
 31
0.0
  0
LINE
  5
3CD
  8
MITTE
 10
65.313981
 20
203.45
 30
0.0
 11
82.180781
 21
203.45
 31
0.0
  0
ARC
  5
3CE
  8
05
 10
73.731315
 20
203.45
 30
0.0
 40
7.2
 50
280.806923
 51
259.193077
  0
LINE
  5
3CF
  8
05
 10
53.164501
 20
236.3
 30
0.0
 11
90.701878
 21
236.3
 31
0.0
  0
LINE
  5
3D0
  8
05
 10
84.531315
 20
184.401516
 30
0.0
 11
76.259776
 21
184.401516
 31
0.0
  0
LINE
  5
3D1
  8
05
 10
78.981315
 20
196.25
 30
0.0
 11
75.081315
 21
196.25
 31
0.0
  0
LINE
  5
3D2
  8
05
 10
60.355997
 20
241.312754
 30
0.0
 11
57.146348
 21
247.252134
 31
0.0
  0
LINE
  5
3D3
  8
05
 10
59.825216
 20
241.032915
 30
0.0
 11
56.616117
 21
246.97128
 31
0.0
  0
ARC
  5
3D4
  8
05
 10
73.731315
 20
215.3
 30
0.0
 40
35.998485
 50
128.964282
 51
151.035718
  0
LINE
  5
3D5
  8
MITTE
 10
73.731315
 20
254.46658
 30
0.0
 11
73.731315
 21
166.822891
 31
0.0
  0
ARC
  5
3D6
  8
05
 10
73.731315
 20
215.3
 30
0.0
 40
37.498485
 50
90.0
 51
151.412194
  0
ARC
  5
3D7
  8
05
 10
73.731315
 20
215.3
 30
0.0
 40
29.25
 50
113.641106
 51
120.172223
  0
LINE
  5
3D8
  8
05
 10
59.030239
 20
240.587168
 30
0.0
 11
57.145486
 21
243.829113
 31
0.0
  0
ARC
  5
3D9
  8
05
 10
73.731315
 20
215.3
 30
0.0
 40
33.0
 50
118.386842
 51
155.566529
  0
ARC
  5
3DA
  8
05
 10
61.418942
 20
241.169441
 30
0.0
 40
0.6
 50
115.451774
 51
200.646496
  0
LINE
  5
3DB
  8
05
 10
66.273156
 20
240.155148
 30
0.0
 11
65.195387
 21
243.746932
 31
0.0
  0
ARC
  5
3DC
  8
05
 10
73.731315
 20
215.3
 30
0.0
 40
35.098485
 50
130.172223
 51
149.827777
  0
ARC
  5
3DD
  8
05
 10
53.02499
 20
239.826737
 30
0.0
 40
3.0
 50
130.172223
 51
173.087535
  0
LINE
  5
3DE
  8
05
 10
51.089728
 20
242.119063
 30
0.0
 11
52.722761
 21
240.748785
 31
0.0
  0
ARC
  5
3DF
  8
05
 10
73.731315
 20
215.3
 30
0.0
 40
34.5
 50
203.306655
 51
221.509211
  0
LINE
  5
3E0
  8
035
 10
72.381315
 20
203.45
 30
0.0
 11
72.381315
 21
167.3
 31
0.0
  0
LINE
  5
3E1
  8
035
 10
75.081315
 20
203.45
 30
0.0
 11
75.081315
 21
167.3
 31
0.0
  0
LINE
  5
3E2
  8
035
 10
62.931315
 20
215.3
 30
0.0
 11
62.931315
 21
176.474349
 31
0.0
  0
LINE
  5
3E3
  8
035
 10
60.231315
 20
215.3
 30
0.0
 11
60.231315
 21
176.297077
 31
0.0
  0
ARC
  5
3E4
  8
05
 10
22.731315
 20
200.157801
 30
0.0
 40
18.0
 50
325.653444
 51
0.0
  0
ARC
  5
3E5
  8
05
 10
41.516771
 20
196.104346
 30
0.0
 40
3.0
 50
283.4719
 51
30.789412
  0
LINE
  5
3E6
  8
MITTE
 10
61.581315
 20
224.09524
 30
0.0
 11
61.581315
 21
176.474349
 31
0.0
  0
ARC
  5
3E7
  8
05
 10
73.731315
 20
215.3
 30
0.0
 40
33.0
 50
204.433471
 51
240.0
  0
LINE
  5
3E8
  8
05
 10
68.481315
 20
191.15
 30
0.0
 11
68.481315
 21
196.25
 31
0.0
  0
TEXT
  5
3E9
  8
BEM1
 62
     3
 10
27.26428
 20
177.359091
 30
0.0
 40
3.5
  1
12.50   [0.492"   ]
 50
90.0
 41
0.7
 51
15.0
 72
     1
 11
25.51428
 21
196.550758
 31
0.0
 73
     2
  0
LINE
  5
3EA
  8
BEM1
 10
29.01428
 20
181.301516
 30
0.0
 11
29.01428
 21
211.8
 31
0.0
  0
LINE
  5
3EB
  8
MITTE
 10
38.03283
 20
185.601516
 30
0.0
 11
50.03283
 21
185.601516
 31
0.0
  0
LINE
  5
3EC
  8
05
 10
45.83283
 20
192.201516
 30
0.0
 11
50.163116
 21
192.201516
 31
0.0
  0
LINE
  5
3ED
  8
05
 10
45.83283
 20
192.201516
 30
0.0
 11
47.33283
 21
190.701516
 31
0.0
  0
ARC
  5
3EE
  8
05
 10
44.03283
 20
185.601516
 30
0.0
 40
3.3
 50
46.186939
 51
313.813092
  0
LINE
  5
3EF
  8
05
 10
45.83283
 20
179.074642
 30
0.0
 11
47.33283
 21
180.501516
 31
0.0
  0
LINE
  5
3F0
  8
05
 10
50.259704
 20
179.074642
 30
0.0
 11
45.83283
 21
179.074642
 31
0.0
  0
LINE
  5
3F1
  8
05
 10
44.03283
 20
177.801516
 30
0.0
 11
60.231315
 21
177.801516
 31
0.0
  0
SOLID
  5
3F2
  8
BEM1
 10
28.430946
 20
181.301516
 30
0.0
 11
29.597613
 21
181.301516
 31
0.0
 12
29.01428
 22
177.801516
 32
0.0
 13
29.01428
 23
177.801516
 33
0.0
  0
LINE
  5
3F3
  8
BEM1
 10
41.042375
 20
177.801516
 30
0.0
 11
28.21428
 21
177.801516
 31
0.0
  0
INSERT
  5
3F4
  8
BEM1
  2
3
 10
25.735829
 20
186.571141
 30
0.0
 50
90.0
  0
ARC
  5
3F5
  8
05
 10
44.03283
 20
185.601516
 30
0.0
 40
7.8
 50
103.4719
 51
270.0
  0
LINE
  5
3F6
  8
MITTE
 10
44.03283
 20
191.601516
 30
0.0
 11
44.03283
 21
179.601516
 31
0.0
  0
LINE
  5
3F7
  8
05
 10
45.83283
 20
179.074642
 30
0.0
 11
45.83283
 21
182.835652
 31
0.0
  0
LINE
  5
3F8
  8
05
 10
45.83283
 20
188.367379
 30
0.0
 11
45.83283
 21
192.201516
 31
0.0
  0
POLYLINE
  5
3F9
  8
MITTE
 66
     1
 10
0.0
 20
0.0
 30
0.0
  0
VERTEX
  5
A02
  8
MITTE
 10
61.829735
 20
166.198421
 30
0.0
  0
VERTEX
  5
A03
  8
MITTE
 10
60.740166
 20
170.703407
 30
0.0
 42
-0.105039
  0
VERTEX
  5
A04
  8
MITTE
 10
60.715741
 20
171.575765
 30
0.0
  0
VERTEX
  5
A05
  8
MITTE
 10
61.549348
 20
176.12271
 30
0.0
 42
0.045361
  0
VERTEX
  5
A06
  8
MITTE
 10
61.581315
 20
176.474349
 30
0.0
  0
SEQEND
  5
A07
  8
MITTE
  0
LINE
  5
3FA
  8
035
 10
62.04361
 20
171.332322
 30
0.0
 11
62.877217
 21
175.879268
 31
0.0
  0
ARC
  5
3FB
  8
035
 10
62.670757
 20
171.248577
 30
0.0
 40
3.3
 50
169.611143
 51
193.596376
  0
LINE
  5
3FC
  8
035
 10
62.910297
 20
167.473387
 30
0.0
 11
62.052333
 21
171.020766
 31
0.0
  0
LINE
  5
3FD
  8
035
 10
60.339078
 20
166.851516
 30
0.0
 11
62.910297
 21
167.473387
 31
0.0
  0
ARC
  5
3FE
  8
035
 10
62.781315
 20
171.197076
 30
0.0
 40
0.75
 50
169.611143
 51
193.596376
  0
LINE
  5
3FF
  8
035
 10
60.339078
 20
166.851516
 30
0.0
 11
59.463237
 21
170.472811
 31
0.0
  0
LINE
  5
400
  8
035
 10
72.381315
 20
167.3
 30
0.0
 11
75.081315
 21
167.3
 31
0.0
  0
LINE
  5
401
  8
05
 10
50.259704
 20
192.103374
 30
0.0
 11
50.259704
 21
179.074642
 31
0.0
  0
LINE
  5
402
  8
05
 10
48.83283
 20
190.701516
 30
0.0
 11
48.83283
 21
180.501516
 31
0.0
  0
ARC
  5
403
  8
05
 10
46.73283
 20
182.787266
 30
0.0
 40
0.6
 50
0.0
 51
133.813061
  0
ARC
  5
404
  8
05
 10
57.381315
 20
181.851516
 30
0.0
 40
2.55
 50
90.0
 51
270.0
  0
LINE
  5
405
  8
05
 10
48.83283
 20
180.501516
 30
0.0
 11
50.259704
 21
179.074642
 31
0.0
  0
LINE
  5
406
  8
05
 10
47.33283
 20
180.501516
 30
0.0
 11
48.83283
 21
180.501516
 31
0.0
  0
LINE
  5
407
  8
05
 10
47.33283
 20
182.787266
 30
0.0
 11
47.33283
 21
180.501516
 31
0.0
  0
LINE
  5
408
  8
05
 10
60.051315
 20
177.801516
 30
0.0
 11
60.051315
 21
175.260713
 31
0.0
  0
LINE
  5
409
  8
035
 10
59.424855
 20
171.843659
 30
0.0
 11
60.221479
 21
176.18888
 31
0.0
  0
ARC
  5
40A
  8
035
 10
59.631315
 20
176.297077
 30
0.0
 40
0.6
 50
349.611143
 51
0.0
  0
LINE
  5
40B
  8
05
 10
57.381316
 20
179.301516
 30
0.0
 11
60.231315
 21
179.301516
 31
0.0
  0
LINE
  5
40C
  8
05
 10
47.33283
 20
188.415765
 30
0.0
 11
47.33283
 21
190.701516
 31
0.0
  0
LINE
  5
40D
  8
07
 10
48.83283
 20
185.479374
 30
0.0
 11
48.83283
 21
185.468229
 31
0.0
  0
ARC
  5
40F
  8
05
 10
46.73283
 20
188.415765
 30
0.0
 40
0.6
 50
226.186939
 51
0.0
  0
LINE
  5
410
  8
05
 10
48.83283
 20
190.701516
 30
0.0
 11
50.212182
 21
192.151558
 31
0.0
  0
LINE
  5
411
  8
05
 10
48.906487
 20
193.557694
 30
0.0
 11
47.896018
 21
192.435455
 31
0.0
  0
LINE
  5
412
  8
05
 10
47.33283
 20
190.701516
 30
0.0
 11
48.83283
 21
190.701516
 31
0.0
  0
LINE
  5
413
  8
05
 10
57.231315
 20
190.401516
 30
0.0
 11
57.231315
 21
184.3971
 31
0.0
  0
LINE
  5
414
  8
05
 10
57.381316
 20
184.401516
 30
0.0
 11
60.231315
 21
184.401516
 31
0.0
  0
LINE
  5
415
  8
05
 10
57.231315
 20
190.401516
 30
0.0
 11
60.231315
 21
190.401516
 31
0.0
  0
LINE
  5
416
  8
05
 10
62.931315
 20
184.401516
 30
0.0
 11
62.931315
 21
179.301516
 31
0.0
  0
LINE
  5
417
  8
05
 10
72.381315
 20
182.360361
 30
0.0
 11
71.202854
 21
184.401516
 31
0.0
  0
LINE
  5
418
  8
05
 10
75.081315
 20
182.360361
 30
0.0
 11
76.259776
 21
184.401516
 31
0.0
  0
LINE
  5
419
  8
05
 10
63.225315
 20
177.801516
 30
0.0
 11
72.381315
 21
177.801516
 31
0.0
  0
LINE
  5
41A
  8
05
 10
67.731315
 20
179.301516
 30
0.0
 11
72.381315
 21
179.301516
 31
0.0
  0
LINE
  5
41B
  8
05
 10
64.551315
 20
177.801516
 30
0.0
 11
64.551315
 21
173.901516
 31
0.0
  0
ARC
  5
41C
  8
035
 10
59.631315
 20
176.474349
 30
0.0
 40
3.3
 50
349.611143
 51
360.0
  0
LINE
  5
41D
  8
05
 10
64.551315
 20
173.901516
 30
0.0
 11
63.951315
 21
173.301516
 31
0.0
  0
LINE
  5
41E
  8
05
 10
64.551315
 20
173.901516
 30
0.0
 11
62.514629
 21
173.901516
 31
0.0
  0
LINE
  5
41F
  8
05
 10
63.951315
 20
173.301516
 30
0.0
 11
62.404629
 21
173.301516
 31
0.0
  0
LINE
  5
420
  8
05
 10
64.731315
 20
177.801516
 30
0.0
 11
67.731315
 21
177.801516
 31
0.0
  0
LINE
  5
421
  8
05
 10
62.931315
 20
179.301516
 30
0.0
 11
64.731315
 21
179.301516
 31
0.0
  0
LINE
  5
422
  8
05
 10
63.225315
 20
179.301516
 30
0.0
 11
63.225315
 21
177.801516
 31
0.0
  0
LINE
  5
423
  8
05
 10
64.731315
 20
179.301516
 30
0.0
 11
64.731315
 21
177.801516
 31
0.0
  0
LINE
  5
424
  8
05
 10
67.731315
 20
179.301516
 30
0.0
 11
67.731315
 21
177.801516
 31
0.0
  0
LINE
  5
425
  8
035
 10
67.281315
 20
189.8
 30
0.0
 11
72.381315
 21
189.8
 31
0.0
  0
LINE
  5
426
  8
035
 10
72.381315
 20
190.55
 30
0.0
 11
67.281315
 21
190.55
 31
0.0
  0
LINE
  5
427
  8
05
 10
62.931315
 20
184.401516
 30
0.0
 11
71.202854
 21
184.401516
 31
0.0
  0
ARC
  5
428
  8
05
 10
73.731315
 20
215.3
 30
0.0
 40
24.0
 50
257.364375
 51
265.698778
  0
LINE
  5
429
  8
035
 10
67.281315
 20
189.8
 30
0.0
 11
67.281315
 21
190.55
 31
0.0
  0
ARC
  5
42A
  8
05
 10
67.881315
 20
191.15
 30
0.0
 40
0.6
 50
270.0
 51
0.0
  0
LINE
  5
42B
  8
035
 10
67.731315
 20
190.55
 30
0.0
 11
67.881315
 21
190.55
 31
0.0
  0
LINE
  5
42C
  8
035
 10
71.931315
 20
190.55
 30
0.0
 11
71.931315
 21
194.3
 31
0.0
  0
LINE
  5
42D
  8
035
 10
72.381315
 20
194.3
 30
0.0
 11
71.931315
 21
194.3
 31
0.0
  0
LINE
  5
42E
  8
035
 10
72.381315
 20
193.797596
 30
0.0
 11
71.931315
 21
193.797596
 31
0.0
  0
LINE
  5
42F
  8
035
 10
72.381315
 20
193.148077
 30
0.0
 11
71.931315
 21
193.148077
 31
0.0
  0
LINE
  5
430
  8
035
 10
75.531315
 20
193.148077
 30
0.0
 11
75.081315
 21
193.148077
 31
0.0
  0
LINE
  5
431
  8
035
 10
75.531315
 20
193.797596
 30
0.0
 11
75.081315
 21
193.797596
 31
0.0
  0
LINE
  5
432
  8
035
 10
75.531315
 20
194.3
 30
0.0
 11
75.081315
 21
194.3
 31
0.0
  0
LINE
  5
433
  8
035
 10
75.531315
 20
190.55
 30
0.0
 11
75.531315
 21
194.3
 31
0.0
  0
LINE
  5
434
  8
MITTE
 10
53.936373
 20
203.15
 30
0.0
 11
39.157416
 21
203.15
 31
0.0
  0
LINE
  5
435
  8
05
 10
46.131315
 20
228.95
 30
0.0
 11
40.731315
 21
228.95
 31
0.0
  0
LINE
  5
436
  8
05
 10
46.131315
 20
225.95
 30
0.0
 11
40.731315
 21
225.95
 31
0.0
  0
LINE
  5
437
  8
05
 10
46.131315
 20
204.65
 30
0.0
 11
40.731315
 21
204.65
 31
0.0
  0
LINE
  5
438
  8
05
 10
46.131315
 20
201.65
 30
0.0
 11
40.731315
 21
201.65
 31
0.0
  0
ARC
  5
439
  8
05
 10
43.062029
 20
241.034587
 30
0.0
 40
7.035909
 50
286.912465
 51
353.087535
  0
LINE
  5
43A
  8
MITTE
 10
53.936373
 20
227.45
 30
0.0
 11
39.157416
 21
227.45
 31
0.0
  0
ARC
  5
43B
  8
05
 10
45.531315
 20
218.9
 30
0.0
 40
0.6
 50
270.0
 51
360.0
  0
ARC
  5
43C
  8
05
 10
45.531315
 20
211.7
 30
0.0
 40
0.6
 50
0.0
 51
90.0
  0
LINE
  5
43D
  8
05
 10
40.731315
 20
200.157801
 30
0.0
 11
40.731315
 21
232.956109
 31
0.0
  0
LINE
  5
43E
  8
05
 10
40.731315
 20
218.3
 30
0.0
 11
40.731315
 21
212.3
 31
0.0
  0
SOLID
  5
43F
  8
BEM1
 10
28.430946
 20
211.8
 30
0.0
 11
29.597613
 21
211.8
 31
0.0
 12
29.01428
 22
215.3
 32
0.0
 13
29.01428
 23
215.3
 33
0.0
  0
LINE
  5
440
  8
BEM1
 10
35.216593
 20
215.3
 30
0.0
 11
28.21428
 21
215.3
 31
0.0
  0
TEXT
  5
441
  8
SCHRAFFIERT
 10
26.760787
 20
207.412592
 30
0.0
 40
2.5
  1
%%p0.004
 50
90.0
 41
0.7
 51
15.0
  0
ARC
  5
442
  8
05
 10
73.731315
 20
215.3
 30
0.0
 40
33.0
 50
185.215909
 51
198.827939
  0
LINE
  5
443
  8
05
 10
41.9823
 20
206.3
 30
0.0
 11
40.731315
 21
206.3
 31
0.0
  0
ARC
  5
444
  8
05
 10
73.731315
 20
215.3
 30
0.0
 40
34.5
 50
196.957426
 51
197.980642
  0
LINE
  5
445
  8
05
 10
40.731315
 20
212.3
 30
0.0
 11
45.531315
 21
212.3
 31
0.0
  0
LINE
  5
446
  8
05
 10
38.481315
 20
213.770294
 30
0.0
 11
40.731315
 21
213.770294
 31
0.0
  0
LINE
  5
447
  8
05
 10
37.731315
 20
214.1
 30
0.0
 11
38.481315
 21
213.770294
 31
0.0
  0
LINE
  5
448
  8
05
 10
38.481315
 20
213.05
 30
0.0
 11
37.731315
 21
213.8
 31
0.0
  0
LINE
  5
449
  8
05
 10
40.731315
 20
216.95
 30
0.0
 11
37.731315
 21
216.95
 31
0.0
  0
LINE
  5
44A
  8
05
 10
40.731315
 20
213.05
 30
0.0
 11
38.481315
 21
213.05
 31
0.0
  0
LINE
  5
44B
  8
05
 10
38.481315
 20
213.05
 30
0.0
 11
38.481315
 21
216.95
 31
0.0
  0
LINE
  5
44C
  8
05
 10
37.731315
 20
213.8
 30
0.0
 11
37.731315
 21
216.95
 31
0.0
  0
ARC
  5
44D
  8
05
 10
73.731315
 20
215.3
 30
0.0
 40
34.5
 50
154.841734
 51
156.693345
  0
ARC
  5
44E
  8
05
 10
73.731315
 20
215.3
 30
0.0
 40
33.0
 50
161.172061
 51
174.784091
  0
LINE
  5
44F
  8
05
 10
40.731315
 20
218.3
 30
0.0
 11
45.531315
 21
218.3
 31
0.0
  0
LINE
  5
450
  8
05
 10
41.9823
 20
224.3
 30
0.0
 11
40.731315
 21
224.3
 31
0.0
  0
ARC
  5
451
  8
05
 10
73.731315
 20
215.3
 30
0.0
 40
34.5
 50
162.019358
 51
163.042574
  0
LINE
  5
452
  8
05
 10
40.731315
 20
228.95
 30
0.0
 11
40.731315
 21
225.95
 31
0.0
  0
LINE
  5
453
  8
05
 10
40.945643
 20
231.856954
 30
0.0
 11
42.346681
 21
230.681343
 31
0.0
  0
ARC
  5
454
  8
05
 10
41.331315
 20
232.31658
 30
0.0
 40
0.6
 50
180.0
 51
230.0
  0
ARC
  5
455
  8
05
 10
41.331315
 20
232.956109
 30
0.0
 40
0.6
 50
151.412194
 51
180.0
  0
LINE
  5
456
  8
05
 10
42.235458
 20
232.732781
 30
0.0
 11
43.388024
 21
232.94053
 31
0.0
  0
LINE
  5
457
  8
05
 10
42.235458
 20
232.732781
 30
0.0
 11
44.579764
 21
230.765674
 31
0.0
  0
ARC
  5
458
  8
05
 10
41.961008
 20
230.221716
 30
0.0
 40
0.6
 50
334.841734
 51
50.0
  0
LINE
  5
459
  8
05
 10
43.388024
 20
232.94053
 30
0.0
 11
45.021057
 21
231.570252
 31
0.0
  0
ARC
  5
45A
  8
05
 10
45.981579
 20
231.432727
 30
0.0
 40
3.0
 50
106.912465
 51
149.827777
  0
ARC
  5
45B
  8
05
 10
61.581315
 20
215.3
 30
0.0
 40
7.2
 50
280.806923
 51
133.183422
  0
LINE
  5
45C
  8
05
 10
52.581315
 20
216.8
 30
0.0
 11
54.381315
 21
218.6
 31
0.0
  0
LINE
  5
45D
  8
05
 10
46.131315
 20
215.75
 30
0.0
 11
46.131315
 21
231.65
 31
0.0
  0
LINE
  5
45E
  8
05
 10
48.231315
 20
221.3
 30
0.0
 11
48.231315
 21
209.3
 31
0.0
  0
LINE
  5
45F
  8
05
 10
76.731315
 20
223.206995
 30
0.0
 11
76.731315
 21
215.3
 31
0.0
  0
LINE
  5
460
  8
05
 10
70.731315
 20
223.206995
 30
0.0
 11
70.731315
 21
215.3
 31
0.0
  0
ARC
  5
461
  8
05
 10
73.731315
 20
215.3
 30
0.0
 40
24.0
 50
167.364375
 51
192.635625
  0
ARC
  5
462
  8
035
 10
61.581315
 20
215.3
 30
0.0
 40
1.35
 50
360.0
 51
180.0
  0
ARC
  5
463
  8
035
 10
61.581315
 20
215.3
 30
0.0
 40
2.7
 50
300.0
 51
240.0
  0
LINE
  5
464
  8
05
 10
46.131315
 20
197.210224
 30
0.0
 11
46.131315
 21
214.85
 31
0.0
  0
LINE
  5
465
  8
05
 10
51.231315
 20
198.95
 30
0.0
 11
51.231315
 21
208.1
 31
0.0
  0
ARC
  5
466
  8
05
 10
73.731315
 20
215.3
 30
0.0
 40
24.0
 50
214.75873
 51
220.736469
  0
ARC
  5
467
  8
05
 10
48.681315
 20
198.95
 30
0.0
 40
2.55
 50
180.0
 51
0.0
  0
LINE
  5
468
  8
05
 10
51.231315
 20
204.425
 30
0.0
 11
46.131315
 21
204.425
 31
0.0
  0
LINE
  5
469
  8
05
 10
53.520937
 20
201.875
 30
0.0
 11
46.131315
 21
201.875
 31
0.0
  0
ARC
  5
46A
  8
05
 10
53.520937
 20
201.275
 30
0.0
 40
0.6
 50
34.75873
 51
90.0
  0
ARC
  5
46B
  8
05
 10
55.731315
 20
195.141875
 30
0.0
 40
4.5
 50
0.0
 51
92.359455
  0
LINE
  5
46C
  8
05
 10
52.581315
 20
213.8
 30
0.0
 11
54.381315
 21
212.0
 31
0.0
  0
LINE
  5
46D
  8
05
 10
49.581315
 20
210.05
 30
0.0
 11
56.654095
 21
210.05
 31
0.0
  0
LINE
  5
46E
  8
05
 10
50.031315
 20
209.3
 30
0.0
 11
48.231315
 21
209.3
 31
0.0
  0
LINE
  5
46F
  8
05
 10
48.231315
 20
209.3
 30
0.0
 11
48.981315
 21
209.3
 31
0.0
  0
LINE
  5
470
  8
05
 10
48.981315
 20
209.3
 30
0.0
 11
48.981315
 21
209.45
 31
0.0
  0
ARC
  5
471
  8
05
 10
49.581315
 20
209.45
 30
0.0
 40
0.6
 50
90.0
 51
180.0
  0
ARC
  5
472
  8
05
 10
50.031315
 20
208.1
 30
0.0
 40
1.2
 50
360.0
 51
90.0
  0
LINE
  5
473
  8
05
 10
47.331315
 20
215.75
 30
0.0
 11
48.231315
 21
216.65
 31
0.0
  0
LINE
  5
474
  8
05
 10
47.331315
 20
215.75
 30
0.0
 11
46.131315
 21
215.75
 31
0.0
  0
LINE
  5
475
  8
05
 10
47.331315
 20
214.85
 30
0.0
 11
46.131315
 21
214.85
 31
0.0
  0
LINE
  5
476
  8
05
 10
47.331315
 20
214.85
 30
0.0
 11
48.231315
 21
213.95
 31
0.0
  0
LINE
  5
477
  8
05
 10
48.156315
 20
216.575
 30
0.0
 11
46.131315
 21
216.575
 31
0.0
  0
LINE
  5
478
  8
05
 10
48.156315
 20
214.025
 30
0.0
 11
46.131315
 21
214.025
 31
0.0
  0
LINE
  5
479
  8
05
 10
52.581315
 20
216.8
 30
0.0
 11
52.581315
 21
213.8
 31
0.0
  0
ARC
  5
47A
  8
05
 10
61.581315
 20
215.3
 30
0.0
 40
7.2
 50
226.816578
 51
259.193077
  0
LINE
  5
47B
  8
05
 10
54.381315
 20
210.05
 30
0.0
 11
54.381315
 21
212.0
 31
0.0
  0
LINE
  5
47C
  8
05
 10
56.181315
 20
215.75
 30
0.0
 11
58.919079
 21
215.75
 31
0.0
  0
LINE
  5
47D
  8
05
 10
56.181315
 20
214.85
 30
0.0
 11
58.919079
 21
214.85
 31
0.0
  0
LINE
  5
47E
  8
05
 10
56.181315
 20
215.75
 30
0.0
 11
56.181315
 21
214.85
 31
0.0
  0
LINE
  5
47F
  8
05
 10
68.331315
 20
203.9
 30
0.0
 11
71.069079
 21
203.9
 31
0.0
  0
LINE
  5
480
  8
05
 10
68.331315
 20
203.0
 30
0.0
 11
71.069079
 21
203.0
 31
0.0
  0
LINE
  5
481
  8
05
 10
72.381315
 20
196.25
 30
0.0
 11
68.481315
 21
196.25
 31
0.0
  0
LINE
  5
482
  8
05
 10
68.331315
 20
203.9
 30
0.0
 11
68.331315
 21
203.0
 31
0.0
  0
ARC
  5
483
  8
035
 10
73.731315
 20
203.45
 30
0.0
 40
1.35
 50
360.0
 51
180.0
  0
ARC
  5
484
  8
035
 10
73.731315
 20
203.45
 30
0.0
 40
2.7
 50
300.0
 51
240.0
  0
LINE
  5
485
  8
05
 10
64.243551
 20
215.75
 30
0.0
 11
66.981315
 21
215.75
 31
0.0
  0
LINE
  5
486
  8
05
 10
64.243551
 20
214.85
 30
0.0
 11
66.981315
 21
214.85
 31
0.0
  0
LINE
  5
487
  8
05
 10
66.981315
 20
215.75
 30
0.0
 11
66.981315
 21
214.85
 31
0.0
  0
ARC
  5
488
  8
05
 10
73.731315
 20
215.3
 30
0.0
 40
3.0
 50
180.0
 51
0.0
  0
LINE
  5
489
  8
035
 10
66.077359
 20
240.122814
 30
0.0
 11
61.731315
 21
240.122814
 31
0.0
  0
LINE
  5
48A
  8
035
 10
66.077359
 20
238.922814
 30
0.0
 11
61.731315
 21
238.922814
 31
0.0
  0
ARC
  5
48B
  8
05
 10
48.681315
 20
231.65
 30
0.0
 40
2.55
 50
0.0
 51
180.0
  0
LINE
  5
48C
  8
05
 10
51.231315
 20
222.2
 30
0.0
 11
51.231315
 21
231.65
 31
0.0
  0
LINE
  5
48D
  8
05
 10
49.581315
 20
220.55
 30
0.0
 11
56.654095
 21
220.55
 31
0.0
  0
LINE
  5
48E
  8
05
 10
50.331315
 20
221.3
 30
0.0
 11
48.231315
 21
221.3
 31
0.0
  0
LINE
  5
48F
  8
05
 10
48.981315
 20
221.3
 30
0.0
 11
48.231315
 21
221.3
 31
0.0
  0
ARC
  5
490
  8
05
 10
49.581315
 20
221.15
 30
0.0
 40
0.6
 50
180.0
 51
270.0
  0
LINE
  5
491
  8
05
 10
48.981315
 20
221.3
 30
0.0
 11
48.981315
 21
221.15
 31
0.0
  0
ARC
  5
492
  8
05
 10
50.331315
 20
222.2
 30
0.0
 40
0.9
 50
270.0
 51
0.0
  0
LINE
  5
493
  8
05
 10
51.231315
 20
226.175
 30
0.0
 11
46.131315
 21
226.175
 31
0.0
  0
LINE
  5
494
  8
05
 10
51.231315
 20
228.725
 30
0.0
 11
46.131315
 21
228.725
 31
0.0
  0
TEXT
  5
495
  8
035
 10
55.49652
 20
222.532034
 30
0.0
 40
4.5
  1
2
  7
HELV
  0
LINE
  5
496
  8
05
 10
54.381315
 20
218.6
 30
0.0
 11
54.381315
 21
220.55
 31
0.0
  0
ARC
  5
497
  8
05
 10
57.185017
 20
231.846299
 30
0.0
 40
6.0
 50
76.194756
 51
177.537457
  0
LINE
  5
498
  8
035
 10
61.731315
 20
238.903772
 30
0.0
 11
61.731315
 21
240.103772
 31
0.0
  0
ARC
  5
499
  8
05
 10
60.713878
 20
239.637345
 30
0.0
 40
0.6
 50
298.141214
 51
20.646496
  0
LINE
  5
49A
  8
05
 10
60.857478
 20
240.957881
 30
0.0
 11
61.275342
 21
239.848905
 31
0.0
  0
ARC
  5
49B
  8
05
 10
73.731315
 20
215.3
 30
0.0
 40
27.0
 50
118.141214
 51
124.041877
  0
LINE
  5
49C
  8
05
 10
76.577045
 20
223.608648
 30
0.0
 11
74.734206
 21
225.653719
 31
0.0
  0
LINE
  5
49D
  8
05
 10
70.885585
 20
223.608648
 30
0.0
 11
72.728425
 21
225.653719
 31
0.0
  0
ARC
  5
49E
  8
05
 10
71.331315
 20
223.206995
 30
0.0
 40
0.6
 50
137.977591
 51
180.0
  0
ARC
  5
49F
  8
05
 10
76.131315
 20
223.206995
 30
0.0
 40
0.6
 50
0.0
 51
42.022409
  0
ARC
  5
4A0
  8
05
 10
73.731317
 20
224.75
 30
0.0
 40
1.35
 50
42.022409
 51
137.977591
  0
ARC
  5
4A1
  8
035
 10
66.077359
 20
240.722814
 30
0.0
 40
1.8
 50
270.0
 51
286.755286
  0
LINE
  5
4A2
  8
035
 10
64.870232
 20
238.409386
 30
0.0
 11
64.673362
 21
238.922814
 31
0.0
  0
ARC
  5
4A3
  8
035
 10
66.077359
 20
240.722814
 30
0.0
 40
0.6
 50
270.0
 51
286.755286
  0
LINE
  5
4A4
  8
05
 10
65.004437
 20
238.460399
 30
0.0
 11
65.818479
 21
236.3
 31
0.0
  0
ARC
  5
4A5
  8
05
 10
62.365617
 20
242.739222
 30
0.0
 40
0.6
 50
264.110395
 51
112.5
  0
ARC
  5
4A6
  8
05
 10
73.731315
 20
215.3
 30
0.0
 40
36.0
 50
104.477512
 51
118.386842
  0
ARC
  5
4A7
  8
05
 10
73.731315
 20
215.3
 30
0.0
 40
34.5
 50
118.386842
 51
125.923725
  0
LINE
  5
4A8
  8
05
 10
51.089728
 20
242.119063
 30
0.0
 11
51.094179
 21
243.290195
 31
0.0
  0
LINE
  5
4A9
  8
05
 10
51.094179
 20
243.290195
 30
0.0
 11
53.438486
 21
241.323088
 31
0.0
  0
ARC
  5
4AA
  8
05
 10
51.110556
 20
244.45132
 30
0.0
 40
0.6
 50
50.0
 51
127.810648
  0
LINE
  5
4AB
  8
05
 10
51.496228
 20
244.910946
 30
0.0
 11
53.489899
 21
243.238058
 31
0.0
  0
LINE
  5
4AC
  8
05
 10
61.985852
 20
242.088181
 30
0.0
 11
60.550522
 21
245.553375
 31
0.0
  0
ARC
  5
4AD
  8
05
 10
62.242483
 20
241.545557
 30
0.0
 40
0.6
 50
84.110395
 51
113.641106
  0
LINE
  5
4AE
  8
05
 10
62.136007
 20
243.29355
 30
0.0
 11
61.102762
 21
245.788025
 31
0.0
  0
LINE
  5
4AF
  8
05
 10
64.731315
 20
251.702423
 30
0.0
 11
64.731315
 21
250.15685
 31
0.0
  0
LINE
  5
4B0
  8
MITTE
 10
103.4298
 20
251.898485
 30
0.0
 11
103.4298
 21
238.098485
 31
0.0
  0
LINE
  5
4B1
  8
05
 10
192.08283
 20
245.05132
 30
0.0
 11
192.08283
 21
224.3
 31
0.0
  0
LINE
  5
4B2
  8
05
 10
202.28283
 20
241.032915
 30
0.0
 11
202.28283
 21
246.97128
 31
0.0
  0
LINE
  5
4B3
  8
05
 10
202.88283
 20
241.312754
 30
0.0
 11
202.88283
 21
252.798485
 31
0.0
  0
LINE
  5
4B4
  8
05
 10
183.38283
 20
234.504695
 30
0.0
 11
183.38283
 21
243.683229
 31
0.0
  0
LINE
  5
4B5
  8
05
 10
172.88283
 20
240.55266
 30
0.0
 11
172.88283
 21
252.798485
 31
0.0
  0
LINE
  5
4B6
  8
05
 10
164.78283
 20
184.1
 30
0.0
 11
164.78283
 21
242.119027
 31
0.0
  0
LINE
  5
4B7
  8
05
 10
87.106634
 20
241.312754
 30
0.0
 11
90.316282
 21
247.252134
 31
0.0
  0
LINE
  5
4B8
  8
05
 10
87.637414
 20
241.032915
 30
0.0
 11
90.846514
 21
246.97128
 31
0.0
  0
ARC
  5
4B9
  8
05
 10
103.4298
 20
244.998485
 30
0.0
 40
7.8
 50
256.355622
 51
193.644378
  0
ARC
  5
4BA
  8
05
 10
73.731315
 20
215.3
 30
0.0
 40
34.5
 50
20.050501
 51
61.613158
  0
ARC
  5
4BB
  8
05
 10
73.731315
 20
215.3
 30
0.0
 40
29.25
 50
59.827777
 51
66.358894
  0
LINE
  5
4BC
  8
05
 10
88.432391
 20
240.587168
 30
0.0
 11
90.317145
 21
243.829113
 31
0.0
  0
LINE
  5
4BD
  8
05
 10
195.08283
 20
243.829113
 30
0.0
 11
195.08283
 21
218.3
 31
0.0
  0
LINE
  5
4BE
  8
05
 10
192.08283
 20
243.829113
 30
0.0
 11
192.08283
 21
179.301516
 31
0.0
  0
LINE
  5
4BF
  8
05
 10
174.38283
 20
241.436777
 30
0.0
 11
174.38283
 21
234.504695
 31
0.0
  0
ARC
  5
4C0
  8
05
 10
73.731315
 20
215.3
 30
0.0
 40
33.0
 50
24.433471
 51
61.613158
  0
ARC
  5
4C1
  8
05
 10
86.043688
 20
241.169441
 30
0.0
 40
0.6
 50
339.353504
 51
64.548226
  0
LINE
  5
4C2
  8
05
 10
82.267244
 20
243.746932
 30
0.0
 11
81.189475
 21
240.155148
 31
0.0
  0
LINE
  5
4C3
  8
05
 10
208.28283
 20
236.3
 30
0.0
 11
208.28283
 21
248.0
 31
0.0
  0
LINE
  5
4C4
  8
035
 10
84.531315
 20
215.3
 30
0.0
 11
84.531315
 21
176.474349
 31
0.0
  0
LINE
  5
4C5
  8
035
 10
87.231315
 20
215.3
 30
0.0
 11
87.231315
 21
176.297077
 31
0.0
  0
ARC
  5
4C6
  8
05
 10
73.731315
 20
215.3
 30
0.0
 40
35.998485
 50
299.544489
 51
330.947577
  0
ARC
  5
4C7
  8
05
 10
73.731315
 20
215.300004
 30
0.0
 40
37.498485
 50
299.93929
 51
331.412194
  0
ARC
  5
4C8
  8
05
 10
73.731315
 20
215.3
 30
0.0
 40
35.098485
 50
300.157611
 51
329.842389
  0
ARC
  5
4C9
  8
05
 10
118.571124
 20
170.460192
 30
0.0
 40
30.413065
 50
120.75417
 51
149.24583
  0
LINE
  5
4CA
  8
MITTE
 10
85.881315
 20
224.09524
 30
0.0
 11
85.881315
 21
176.682958
 31
0.0
  0
ARC
  5
4CB
  8
05
 10
73.731315
 20
215.3
 30
0.0
 40
33.0
 50
300.0
 51
335.566529
  0
LINE
  5
4CC
  8
05
 10
78.981315
 20
191.15
 30
0.0
 11
78.981315
 21
196.25
 31
0.0
  0
TEXT
  5
4CD
  8
035
 10
79.592729
 20
194.557316
 30
0.0
 40
4.5
  1
3
  7
HELV
  0
POLYLINE
  5
4CE
  8
MITTE
 66
     1
 10
0.0
 20
0.0
 30
0.0
  0
VERTEX
  5
A08
  8
MITTE
 10
85.662181
 20
166.319505
 30
0.0
  0
VERTEX
  5
A09
  8
MITTE
 10
86.722465
 20
170.703407
 30
0.0
 42
0.105039
  0
VERTEX
  5
A0A
  8
MITTE
 10
86.746889
 20
171.575765
 30
0.0
  0
VERTEX
  5
A0B
  8
MITTE
 10
85.913282
 20
176.12271
 30
0.0
 42
-0.045361
  0
VERTEX
  5
A0C
  8
MITTE
 10
85.881315
 20
176.474349
 30
0.0
  0
SEQEND
  5
A0D
  8
MITTE
  0
ARC
  5
4CF
  8
035
 10
84.791873
 20
171.248577
 30
0.0
 40
3.3
 50
346.403624
 51
10.388857
  0
LINE
  5
4D0
  8
035
 10
85.41902
 20
171.332322
 30
0.0
 11
84.585414
 21
175.879268
 31
0.0
  0
LINE
  5
4D1
  8
035
 10
87.123553
 20
166.851516
 30
0.0
 11
84.552333
 21
167.473387
 31
0.0
  0
ARC
  5
4D2
  8
035
 10
84.681315
 20
171.197076
 30
0.0
 40
0.75
 50
346.403624
 51
10.388857
  0
LINE
  5
4D3
  8
035
 10
84.552333
 20
167.473387
 30
0.0
 11
85.410297
 21
171.020766
 31
0.0
  0
LINE
  5
4D4
  8
035
 10
87.123553
 20
166.851516
 30
0.0
 11
87.999394
 21
170.472811
 31
0.0
  0
ARC
  5
4D5
  8
05
 10
90.081315
 20
181.851516
 30
0.0
 40
2.55
 50
270.0
 51
90.0
  0
LINE
  5
4D6
  8
05
 10
82.911315
 20
179.301516
 30
0.0
 11
82.911315
 21
173.901516
 31
0.0
  0
ARC
  5
4D7
  8
035
 10
87.831315
 20
176.474349
 30
0.0
 40
3.3
 50
180.0
 51
190.388857
  0
LINE
  5
4D8
  8
05
 10
83.511315
 20
173.301516
 30
0.0
 11
82.911315
 21
173.901516
 31
0.0
  0
LINE
  5
4D9
  8
05
 10
84.948001
 20
173.901516
 30
0.0
 11
82.911315
 21
173.901516
 31
0.0
  0
LINE
  5
4DA
  8
05
 10
85.058001
 20
173.301516
 30
0.0
 11
83.511315
 21
173.301516
 31
0.0
  0
LINE
  5
4DB
  8
05
 10
82.731315
 20
179.301516
 30
0.0
 11
84.531315
 21
179.301516
 31
0.0
  0
LINE
  5
4DC
  8
05
 10
79.731315
 20
177.801516
 30
0.0
 11
82.731315
 21
177.801516
 31
0.0
  0
LINE
  5
4DD
  8
05
 10
82.731315
 20
179.301516
 30
0.0
 11
82.731315
 21
177.801516
 31
0.0
  0
LINE
  5
4DE
  8
05
 10
79.731315
 20
179.301516
 30
0.0
 11
79.731315
 21
177.801516
 31
0.0
  0
LINE
  5
4DF
  8
05
 10
87.411315
 20
179.301516
 30
0.0
 11
87.411315
 21
175.260713
 31
0.0
  0
LINE
  5
4E0
  8
035
 10
88.037775
 20
171.843659
 30
0.0
 11
87.241151
 21
176.18888
 31
0.0
  0
ARC
  5
4E1
  8
035
 10
87.831315
 20
176.297077
 30
0.0
 40
0.6
 50
180.0
 51
190.388857
  0
LINE
  5
4E2
  8
05
 10
87.231315
 20
179.301516
 30
0.0
 11
90.081315
 21
179.301516
 31
0.0
  0
LINE
  5
4E3
  8
05
 10
87.411315
 20
177.801516
 30
0.0
 11
89.331315
 21
177.801516
 31
0.0
  0
LINE
  5
4E4
  8
05
 10
89.331315
 20
179.301516
 30
0.0
 11
89.331315
 21
177.801516
 31
0.0
  0
LINE
  5
4E5
  8
035
 10
80.100931
 20
189.8
 30
0.0
 11
80.100931
 21
190.55
 31
0.0
  0
LINE
  5
4E6
  8
035
 10
79.731315
 20
190.55
 30
0.0
 11
79.581315
 21
190.55
 31
0.0
  0
ARC
  5
4E7
  8
05
 10
79.581315
 20
191.15
 30
0.0
 40
0.6
 50
180.0
 51
270.0
  0
LINE
  5
4E8
  8
05
 10
90.231315
 20
190.401516
 30
0.0
 11
90.231315
 21
184.3971
 31
0.0
  0
LINE
  5
4E9
  8
05
 10
91.364106
 20
184.952211
 30
0.0
 11
90.231315
 21
186.085001
 31
0.0
  0
LINE
  5
4EA
  8
05
 10
87.231315
 20
184.401516
 30
0.0
 11
90.081315
 21
184.401516
 31
0.0
  0
LINE
  5
4EB
  8
05
 10
91.364106
 20
184.952211
 30
0.0
 11
91.251233
 21
184.117303
 31
0.0
  0
ARC
  5
4EC
  8
05
 10
89.856965
 20
187.546151
 30
0.0
 40
3.0
 50
300.157611
 51
329.24583
  0
LINE
  5
4ED
  8
05
 10
90.231315
 20
190.401516
 30
0.0
 11
87.231315
 21
190.401516
 31
0.0
  0
LINE
  5
4EE
  8
05
 10
94.881315
 20
216.8
 30
0.0
 11
93.081315
 21
218.6
 31
0.0
  0
LINE
  5
4EF
  8
05
 10
106.731315
 20
197.643895
 30
0.0
 11
106.731315
 21
230.4422
 31
0.0
  0
LINE
  5
4F0
  8
05
 10
99.231315
 20
221.3
 30
0.0
 11
99.231315
 21
209.3
 31
0.0
  0
LINE
  5
4F1
  8
05
 10
101.331315
 20
215.75
 30
0.0
 11
101.331315
 21
231.65
 31
0.0
  0
ARC
  5
4F2
  8
05
 10
73.731315
 20
215.3
 30
0.0
 40
24.0
 50
347.364375
 51
12.635625
  0
LINE
  5
4F3
  8
05
 10
97.881315
 20
210.05
 30
0.0
 11
90.808536
 21
210.05
 31
0.0
  0
LINE
  5
4F4
  8
05
 10
93.941693
 20
201.875
 30
0.0
 11
101.331315
 21
201.875
 31
0.0
  0
LINE
  5
4F5
  8
MITTE
 10
93.526257
 20
203.15
 30
0.0
 11
108.579641
 21
203.15
 31
0.0
  0
ARC
  5
4F6
  8
05
 10
91.731315
 20
195.141875
 30
0.0
 40
4.5
 50
87.640545
 51
180.0
  0
LINE
  5
4F7
  8
05
 10
79.131315
 20
203.9
 30
0.0
 11
79.131315
 21
203.0
 31
0.0
  0
ARC
  5
4F8
  8
05
 10
73.731315
 20
215.3
 30
0.0
 40
24.0
 50
319.263531
 51
325.24127
  0
ARC
  5
4F9
  8
05
 10
93.941693
 20
201.275
 30
0.0
 40
0.6
 50
90.0
 51
145.24127
  0
ARC
  5
4FA
  8
035
 10
85.881315
 20
215.3
 30
0.0
 40
1.35
 50
0.0
 51
180.0
  0
ARC
  5
4FB
  8
035
 10
85.881315
 20
215.3
 30
0.0
 40
2.7
 50
300.0
 51
240.0
  0
LINE
  5
4FC
  8
05
 10
83.219079
 20
215.75
 30
0.0
 11
80.481315
 21
215.75
 31
0.0
  0
LINE
  5
4FD
  8
05
 10
83.219079
 20
214.85
 30
0.0
 11
80.481315
 21
214.85
 31
0.0
  0
LINE
  5
4FE
  8
05
 10
80.481315
 20
215.75
 30
0.0
 11
80.481315
 21
214.85
 31
0.0
  0
LINE
  5
4FF
  8
05
 10
94.881315
 20
213.8
 30
0.0
 11
93.081315
 21
212.0
 31
0.0
  0
ARC
  5
500
  8
05
 10
85.881315
 20
215.3
 30
0.0
 40
7.2
 50
280.806923
 51
313.183422
  0
LINE
  5
501
  8
05
 10
93.081315
 20
210.05
 30
0.0
 11
93.081315
 21
212.0
 31
0.0
  0
LINE
  5
502
  8
05
 10
91.281315
 20
214.85
 30
0.0
 11
88.543551
 21
214.85
 31
0.0
  0
LINE
  5
503
  8
05
 10
91.281315
 20
215.75
 30
0.0
 11
88.543551
 21
215.75
 31
0.0
  0
LINE
  5
504
  8
05
 10
91.281315
 20
215.75
 30
0.0
 11
91.281315
 21
214.85
 31
0.0
  0
LINE
  5
505
  8
05
 10
94.881315
 20
216.8
 30
0.0
 11
94.881315
 21
213.8
 31
0.0
  0
ARC
  5
506
  8
05
 10
73.731315
 20
215.3
 30
0.0
 40
33.0
 50
341.172061
 51
354.784091
  0
LINE
  5
507
  8
05
 10
101.331315
 20
197.210224
 30
0.0
 11
101.331315
 21
214.85
 31
0.0
  0
LINE
  5
508
  8
05
 10
96.231315
 20
198.95
 30
0.0
 11
96.231315
 21
208.1
 31
0.0
  0
LINE
  5
509
  8
05
 10
104.079105
 20
197.66721
 30
0.0
 11
102.54059
 21
199.205725
 31
0.0
  0
ARC
  5
50A
  8
05
 10
101.485165
 20
199.174351
 30
0.0
 40
3.0
 50
300.75417
 51
329.842389
  0
LINE
  5
50B
  8
05
 10
101.331315
 20
204.65
 30
0.0
 11
106.731315
 21
204.65
 31
0.0
  0
LINE
  5
50C
  8
05
 10
101.331315
 20
201.65
 30
0.0
 11
106.731315
 21
201.65
 31
0.0
  0
ARC
  5
50D
  8
05
 10
98.781315
 20
198.95
 30
0.0
 40
2.55
 50
180.0
 51
0.0
  0
LINE
  5
50E
  8
05
 10
96.231315
 20
204.425
 30
0.0
 11
101.331315
 21
204.425
 31
0.0
  0
LINE
  5
50F
  8
05
 10
105.200318
 20
197.818789
 30
0.0
 11
105.200318
 21
201.65
 31
0.0
  0
LINE
  5
510
  8
05
 10
104.079105
 20
197.66721
 30
0.0
 11
104.079105
 21
201.65
 31
0.0
  0
LINE
  5
511
  8
05
 10
104.079105
 20
197.66721
 30
0.0
 11
105.200318
 21
197.818789
 31
0.0
  0
ARC
  5
512
  8
05
 10
106.131315
 20
197.643895
 30
0.0
 40
0.6
 50
331.412194
 51
0.0
  0
LINE
  5
513
  8
05
 10
105.200318
 20
204.65
 30
0.0
 11
105.200318
 21
205.36512
 31
0.0
  0
ARC
  5
514
  8
05
 10
73.731315
 20
215.3
 30
0.0
 40
33.0
 50
342.478901
 51
344.17338
  0
LINE
  5
515
  8
05
 10
105.480331
 20
206.3
 30
0.0
 11
106.731315
 21
206.3
 31
0.0
  0
LINE
  5
516
  8
05
 10
106.731315
 20
212.3
 30
0.0
 11
101.931315
 21
212.3
 31
0.0
  0
ARC
  5
517
  8
05
 10
101.931315
 20
211.7
 30
0.0
 40
0.6
 50
90.0
 51
180.0
  0
LINE
  5
518
  8
05
 10
97.431315
 20
209.3
 30
0.0
 11
99.231315
 21
209.3
 31
0.0
  0
LINE
  5
519
  8
05
 10
99.231315
 20
209.3
 30
0.0
 11
98.481315
 21
209.3
 31
0.0
  0
ARC
  5
51A
  8
05
 10
97.431315
 20
208.1
 30
0.0
 40
1.2
 50
90.0
 51
180.0
  0
LINE
  5
51B
  8
05
 10
98.481315
 20
209.3
 30
0.0
 11
98.481315
 21
209.45
 31
0.0
  0
ARC
  5
51C
  8
05
 10
97.881315
 20
209.45
 30
0.0
 40
0.6
 50
0.0
 51
90.0
  0
LINE
  5
51D
  8
05
 10
100.131315
 20
215.75
 30
0.0
 11
99.231315
 21
216.65
 31
0.0
  0
LINE
  5
51E
  8
05
 10
100.131315
 20
214.85
 30
0.0
 11
99.231315
 21
213.95
 31
0.0
  0
LINE
  5
51F
  8
05
 10
99.306315
 20
214.025
 30
0.0
 11
101.331315
 21
214.025
 31
0.0
  0
LINE
  5
520
  8
05
 10
99.306315
 20
216.575
 30
0.0
 11
101.331315
 21
216.575
 31
0.0
  0
LINE
  5
521
  8
05
 10
100.131315
 20
215.75
 30
0.0
 11
101.331315
 21
215.75
 31
0.0
  0
LINE
  5
522
  8
05
 10
100.131315
 20
214.85
 30
0.0
 11
101.331315
 21
214.85
 31
0.0
  0
LINE
  5
523
  8
05
 10
106.731315
 20
216.95
 30
0.0
 11
109.731315
 21
216.95
 31
0.0
  0
LINE
  5
524
  8
05
 10
106.731315
 20
213.05
 30
0.0
 11
108.981315
 21
213.05
 31
0.0
  0
LINE
  5
525
  8
05
 10
108.981315
 20
213.770294
 30
0.0
 11
106.731315
 21
213.770294
 31
0.0
  0
LINE
  5
526
  8
05
 10
108.981315
 20
213.05
 30
0.0
 11
108.981315
 21
216.95
 31
0.0
  0
LINE
  5
527
  8
05
 10
108.981315
 20
213.05
 30
0.0
 11
109.731315
 21
213.8
 31
0.0
  0
LINE
  5
528
  8
05
 10
109.731315
 20
213.8
 30
0.0
 11
109.731315
 21
216.95
 31
0.0
  0
LINE
  5
529
  8
05
 10
109.731315
 20
214.1
 30
0.0
 11
108.981315
 21
213.770294
 31
0.0
  0
LINE
  5
52A
  8
05
 10
97.881315
 20
220.55
 30
0.0
 11
90.808536
 21
220.55
 31
0.0
  0
LINE
  5
52B
  8
MITTE
 10
93.526257
 20
227.45
 30
0.0
 11
101.331315
 21
227.45
 31
0.0
  0
ARC
  5
52C
  8
05
 10
95.395802
 20
232.4
 30
0.0
 40
0.6
 50
218.284391
 51
270.0
  0
ARC
  5
52D
  8
05
 10
73.731315
 20
215.3
 30
0.0
 40
27.0
 50
38.284391
 51
61.858786
  0
TEXT
  5
52E
  8
035
 10
88.649136
 20
222.154207
 30
0.0
 40
4.5
  1
1
  7
HELV
  0
LINE
  5
52F
  8
05
 10
93.081315
 20
218.6
 30
0.0
 11
93.081315
 21
220.55
 31
0.0
  0
LINE
  5
530
  8
035
 10
81.448237
 20
240.103772
 30
0.0
 11
85.731315
 21
240.103772
 31
0.0
  0
LINE
  5
531
  8
035
 10
81.448237
 20
238.903772
 30
0.0
 11
85.731315
 21
238.903772
 31
0.0
  0
LINE
  5
532
  8
035
 10
82.772302
 20
238.903772
 30
0.0
 11
82.592399
 21
238.409386
 31
0.0
  0
ARC
  5
533
  8
035
 10
81.448237
 20
240.703772
 30
0.0
 40
0.6
 50
253.102755
 51
270.0
  0
ARC
  5
534
  8
035
 10
81.448237
 20
240.703772
 30
0.0
 40
1.8
 50
253.102755
 51
270.0
  0
LINE
  5
535
  8
05
 10
82.458194
 20
238.460399
 30
0.0
 11
81.644152
 21
236.3
 31
0.0
  0
LINE
  5
536
  8
035
 10
85.731315
 20
238.903772
 30
0.0
 11
85.731315
 21
240.103772
 31
0.0
  0
ARC
  5
537
  8
05
 10
86.748753
 20
239.637345
 30
0.0
 40
0.6
 50
159.353504
 51
241.858786
  0
LINE
  5
538
  8
05
 10
86.605152
 20
240.957881
 30
0.0
 11
86.187289
 21
239.848905
 31
0.0
  0
ARC
  5
539
  8
05
 10
86.748753
 20
239.637345
 30
0.0
 40
0.6
 50
159.353504
 51
241.858786
  0
ARC
  5
53A
  8
05
 10
98.781315
 20
231.65
 30
0.0
 40
2.55
 50
360.0
 51
180.0
  0
LINE
  5
53B
  8
05
 10
96.231315
 20
222.2
 30
0.0
 11
96.231315
 21
231.65
 31
0.0
  0
LINE
  5
53C
  8
05
 10
101.331315
 20
222.95
 30
0.0
 11
106.731315
 21
222.95
 31
0.0
  0
LINE
  5
53D
  8
05
 10
101.331315
 20
228.95
 30
0.0
 11
105.226516
 21
228.95
 31
0.0
  0
LINE
  5
53E
  8
05
 10
106.731315
 20
218.3
 30
0.0
 11
101.931315
 21
218.3
 31
0.0
  0
ARC
  5
53F
  8
05
 10
97.131315
 20
222.2
 30
0.0
 40
0.9
 50
180.0
 51
270.0
  0
LINE
  5
540
  8
05
 10
97.131315
 20
221.3
 30
0.0
 11
99.231315
 21
221.3
 31
0.0
  0
LINE
  5
541
  8
05
 10
98.481315
 20
221.3
 30
0.0
 11
99.231315
 21
221.3
 31
0.0
  0
ARC
  5
542
  8
05
 10
97.881315
 20
221.15
 30
0.0
 40
0.6
 50
270.0
 51
0.0
  0
LINE
  5
543
  8
05
 10
98.481315
 20
221.3
 30
0.0
 11
98.481315
 21
221.15
 31
0.0
  0
ARC
  5
544
  8
05
 10
101.931315
 20
218.9
 30
0.0
 40
0.6
 50
180.0
 51
270.0
  0
LINE
  5
545
  8
05
 10
96.231315
 20
228.725
 30
0.0
 11
101.331315
 21
228.725
 31
0.0
  0
LINE
  5
546
  8
05
 10
96.231315
 20
226.175
 30
0.0
 11
101.331315
 21
226.175
 31
0.0
  0
ARC
  5
547
  8
05
 10
73.731315
 20
215.3
 30
0.0
 40
33.0
 50
5.215909
 51
13.404139
  0
LINE
  5
548
  8
05
 10
106.731315
 20
225.95
 30
0.0
 11
105.226516
 21
228.95
 31
0.0
  0
LINE
  5
549
  8
05
 10
95.395802
 20
231.8
 30
0.0
 11
96.235731
 21
231.8
 31
0.0
  0
ARC
  5
54A
  8
05
 10
101.448283
 20
236.835545
 30
0.0
 40
0.6
 50
76.355622
 51
217.846511
  0
ARC
  5
54B
  8
05
 10
124.731315
 20
230.4422
 30
0.0
 40
18.0
 50
145.653444
 51
180.0
  0
LINE
  5
54C
  8
05
 10
177.38283
 20
193.591499
 30
0.0
 11
177.38283
 21
205.237694
 31
0.0
  0
LINE
  5
54D
  8
05
 10
186.38283
 20
197.639998
 30
0.0
 11
186.38283
 21
177.801516
 31
0.0
  0
LINE
  5
54E
  8
05
 10
172.88283
 20
177.801516
 30
0.0
 11
172.88283
 21
234.504695
 31
0.0
  0
LINE
  5
54F
  8
05
 10
192.08283
 20
206.3
 30
0.0
 11
192.08283
 21
193.123828
 31
0.0
  0
LINE
  5
550
  8
05
 10
195.08283
 20
212.3
 30
0.0
 11
195.08283
 21
186.721162
 31
0.0
  0
LINE
  5
551
  8
05
 10
186.38283
 20
177.801516
 30
0.0
 11
172.88283
 21
177.801516
 31
0.0
  0
ARC
  5
552
  8
05
 10
166.28283
 20
184.1
 30
0.0
 40
1.5
 50
180.0
 51
270.0
  0
LINE
  5
553
  8
05
 10
166.28283
 20
182.6
 30
0.0
 11
172.88283
 21
182.6
 31
0.0
  0
LINE
  5
554
  8
MITTE
 10
184.31283
 20
180.706816
 30
0.0
 11
184.31283
 21
170.684091
 31
0.0
  0
LINE
  5
555
  8
MITTE
 10
199.55283
 20
180.706816
 30
0.0
 11
199.55283
 21
170.684091
 31
0.0
  0
LINE
  5
556
  8
05
 10
191.607207
 20
186.721162
 30
0.0
 11
195.08283
 21
186.721162
 31
0.0
  0
LINE
  5
557
  8
05
 10
192.08283
 20
186.721162
 30
0.0
 11
192.08283
 21
180.8
 31
0.0
  0
LINE
  5
558
  8
05
 10
186.56283
 20
173.901516
 30
0.0
 11
182.06283
 21
173.901516
 31
0.0
  0
LINE
  5
559
  8
05
 10
185.96283
 20
173.301516
 30
0.0
 11
182.66283
 21
173.301516
 31
0.0
  0
LINE
  5
55A
  8
05
 10
182.06283
 20
177.801516
 30
0.0
 11
182.06283
 21
173.901516
 31
0.0
  0
LINE
  5
55B
  8
05
 10
182.66283
 20
173.301516
 30
0.0
 11
182.06283
 21
173.901516
 31
0.0
  0
LINE
  5
55C
  8
05
 10
186.56283
 20
180.8
 30
0.0
 11
186.56283
 21
173.901516
 31
0.0
  0
LINE
  5
55D
  8
05
 10
186.56283
 20
173.901516
 30
0.0
 11
185.96283
 21
173.301516
 31
0.0
  0
LINE
  5
55E
  8
05
 10
186.38283
 20
180.8
 30
0.0
 11
192.08283
 21
180.8
 31
0.0
  0
LINE
  5
55F
  8
05
 10
188.23083
 20
187.204015
 30
0.0
 11
188.23083
 21
193.123828
 31
0.0
  0
LINE
  5
560
  8
05
 10
186.38283
 20
187.204015
 30
0.0
 11
191.18283
 21
187.204015
 31
0.0
  0
LINE
  5
561
  8
05
 10
186.38283
 20
184.490515
 30
0.0
 11
192.08283
 21
184.490515
 31
0.0
  0
LINE
  5
562
  8
05
 10
186.38283
 20
188.867315
 30
0.0
 11
188.23083
 21
188.867315
 31
0.0
  0
LINE
  5
563
  8
05
 10
191.18283
 20
187.204015
 30
0.0
 11
192.08283
 21
186.180001
 31
0.0
  0
LINE
  5
564
  8
05
 10
186.38283
 20
193.123828
 30
0.0
 11
192.08283
 21
193.123828
 31
0.0
  0
LINE
  5
565
  8
05
 10
201.80283
 20
173.901516
 30
0.0
 11
197.30283
 21
173.901516
 31
0.0
  0
LINE
  5
566
  8
05
 10
201.80283
 20
173.901516
 30
0.0
 11
201.20283
 21
173.301516
 31
0.0
  0
LINE
  5
567
  8
05
 10
197.30283
 20
179.301516
 30
0.0
 11
197.30283
 21
173.901516
 31
0.0
  0
LINE
  5
568
  8
05
 10
197.90283
 20
173.301516
 30
0.0
 11
197.30283
 21
173.901516
 31
0.0
  0
LINE
  5
569
  8
05
 10
201.20283
 20
173.301516
 30
0.0
 11
197.90283
 21
173.301516
 31
0.0
  0
LINE
  5
56A
  8
05
 10
201.80283
 20
179.301516
 30
0.0
 11
201.80283
 21
173.901516
 31
0.0
  0
LINE
  5
56B
  8
05
 10
172.88283
 20
234.504695
 30
0.0
 11
183.38283
 21
234.504695
 31
0.0
  0
LINE
  5
56C
  8
025
 10
177.38283
 20
232.671501
 30
0.0
 11
172.88283
 21
232.671501
 31
0.0
  0
POLYLINE
  5
56D
  8
05
 66
     1
 10
0.0
 20
0.0
 30
0.0
  0
VERTEX
  5
A0E
  8
05
 10
174.38283
 20
232.495175
 30
0.0
  0
VERTEX
  5
A0F
  8
05
 10
174.38283
 20
232.495175
 30
0.0
 42
0.140967
  0
SEQEND
  5
A10
  8
05
  0
LINE
  5
56E
  8
05
 10
172.88283
 20
240.55266
 30
0.0
 11
174.38283
 21
240.55266
 31
0.0
  0
LINE
  5
56F
  8
05
 10
188.23083
 20
206.3
 30
0.0
 11
188.23083
 21
224.3
 31
0.0
  0
ARC
  5
570
  8
05
 10
152.293741
 20
215.3
 30
0.0
 40
34.18509
 50
344.73566
 51
15.26434
  0
LINE
  5
571
  8
05
 10
209.78283
 20
218.3
 30
0.0
 11
209.78283
 21
212.3
 31
0.0
  0
ARC
  5
572
  8
05
 10
193.85283
 20
215.3
 30
0.0
 40
1.5
 50
233.130102
 51
306.869898
  0
LINE
  5
573
  8
05
 10
192.20283
 20
216.95
 30
0.0
 11
195.50283
 21
216.95
 31
0.0
  0
ARC
  5
574
  8
05
 10
193.85283
 20
215.3
 30
0.0
 40
2.25
 50
222.833428
 51
317.166572
  0
LINE
  5
575
  8
05
 10
192.08283
 20
212.3
 30
0.0
 11
209.78283
 21
212.3
 31
0.0
  0
LINE
  5
576
  8
05
 10
192.08283
 20
205.237694
 30
0.0
 11
177.38283
 21
205.237694
 31
0.0
  0
LINE
  5
577
  8
05
 10
185.27283
 20
206.3
 30
0.0
 11
192.08283
 21
206.3
 31
0.0
  0
LINE
  5
578
  8
05
 10
192.20283
 20
216.95
 30
0.0
 11
192.20283
 21
213.770294
 31
0.0
  0
LINE
  5
579
  8
05
 10
192.95283
 20
216.95
 30
0.0
 11
192.95283
 21
214.1
 31
0.0
  0
LINE
  5
57A
  8
05
 10
192.20283
 20
213.770294
 30
0.0
 11
192.95283
 21
214.1
 31
0.0
  0
LINE
  5
57B
  8
05
 10
209.78283
 20
201.65
 30
0.0
 11
209.78283
 21
204.65
 31
0.0
  0
LINE
  5
57C
  8
05
 10
201.71283
 20
213.770294
 30
0.0
 11
202.46283
 21
214.1
 31
0.0
  0
LINE
  5
57D
  8
05
 10
201.71283
 20
216.95
 30
0.0
 11
205.01283
 21
216.95
 31
0.0
  0
ARC
  5
57E
  8
05
 10
203.36283
 20
215.3
 30
0.0
 40
2.25
 50
222.833428
 51
317.166572
  0
LINE
  5
57F
  8
05
 10
195.50283
 20
216.95
 30
0.0
 11
195.50283
 21
213.770294
 31
0.0
  0
LINE
  5
580
  8
05
 10
194.75283
 20
216.95
 30
0.0
 11
194.75283
 21
214.1
 31
0.0
  0
LINE
  5
581
  8
05
 10
194.75283
 20
214.1
 30
0.0
 11
195.50283
 21
213.770294
 31
0.0
  0
LINE
  5
582
  8
05
 10
201.71283
 20
216.95
 30
0.0
 11
201.71283
 21
213.770294
 31
0.0
  0
LINE
  5
583
  8
05
 10
205.01283
 20
216.95
 30
0.0
 11
205.01283
 21
213.770294
 31
0.0
  0
LINE
  5
584
  8
05
 10
204.26283
 20
216.95
 30
0.0
 11
204.26283
 21
214.1
 31
0.0
  0
LINE
  5
585
  8
05
 10
202.46283
 20
216.95
 30
0.0
 11
202.46283
 21
214.1
 31
0.0
  0
ARC
  5
586
  8
05
 10
203.36283
 20
215.3
 30
0.0
 40
1.5
 50
233.130102
 51
306.869898
  0
LINE
  5
587
  8
05
 10
204.26283
 20
214.1
 30
0.0
 11
205.01283
 21
213.770294
 31
0.0
  0
LINE
  5
588
  8
05
 10
192.08283
 20
218.3
 30
0.0
 11
209.78283
 21
218.3
 31
0.0
  0
LINE
  5
589
  8
05
 10
177.38283
 20
225.362306
 30
0.0
 11
177.38283
 21
232.671501
 31
0.0
  0
LINE
  5
58A
  8
05
 10
192.08283
 20
225.362306
 30
0.0
 11
177.38283
 21
225.362306
 31
0.0
  0
LINE
  5
58B
  8
05
 10
185.27283
 20
224.3
 30
0.0
 11
192.08283
 21
224.3
 31
0.0
  0
LINE
  5
58C
  8
05
 10
177.38283
 20
232.671501
 30
0.0
 11
192.08283
 21
232.671501
 31
0.0
  0
LINE
  5
58D
  8
025
 10
177.38283
 20
230.4422
 30
0.0
 11
192.08283
 21
230.4422
 31
0.0
  0
LINE
  5
58E
  8
05
 10
195.08283
 20
241.032915
 30
0.0
 11
202.28283
 21
241.032915
 31
0.0
  0
LINE
  5
58F
  8
025
 10
196.220097
 20
239.52634
 30
0.0
 11
207.332248
 21
239.52634
 31
0.0
  0
LINE
  5
590
  8
025
 10
203.171635
 20
241.023466
 30
0.0
 11
207.332248
 21
241.023466
 31
0.0
  0
LINE
  5
591
  8
05
 10
202.28283
 20
241.032915
 30
0.0
 11
202.88283
 21
241.312754
 31
0.0
  0
LINE
  5
592
  8
BEM1
 10
138.766824
 20
264.179096
 30
0.0
 11
172.88283
 21
264.179096
 31
0.0
  0
TEXT
  5
593
  8
BEM1
 62
     3
 10
138.726777
 20
265.929096
 30
0.0
 40
3.5
  1
2.70 [0.106"]
 41
0.7
 51
15.0
  0
ARC
  5
594
  8
05
 10
95.26686
 20
243.016968
 30
0.0
 40
0.6
 50
232.153489
 51
13.644378
  0
ARC
  5
595
  8
05
 10
91.502874
 20
267.876169
 30
0.0
 40
18.0
 50
251.323951
 51
297.534586
  0
ARC
  5
596
  8
05
 10
73.731315
 20
215.3
 30
0.0
 40
36.0
 50
61.613158
 51
75.522488
  0
LINE
  5
597
  8
05
 10
85.476778
 20
242.088181
 30
0.0
 11
86.912109
 21
245.553375
 31
0.0
  0
ARC
  5
598
  8
05
 10
85.097013
 20
242.739222
 30
0.0
 40
0.6
 50
67.5
 51
275.889605
  0
ARC
  5
599
  8
05
 10
85.220148
 20
241.545557
 30
0.0
 40
0.6
 50
66.358894
 51
95.889605
  0
LINE
  5
59A
  8
05
 10
85.326623
 20
243.29355
 30
0.0
 11
86.359869
 21
245.788025
 31
0.0
  0
LINE
  5
59B
  8
05
 10
82.731315
 20
251.702423
 30
0.0
 11
82.731315
 21
250.15685
 31
0.0
  0
LINE
  5
59C
  8
MITTE
 10
109.4298
 20
244.998485
 30
0.0
 11
97.4298
 21
244.998485
 31
0.0
  0
CIRCLE
  5
59D
  8
05
 10
103.4298
 20
244.998485
 30
0.0
 40
3.3
  0
LINE
  5
59E
  8
05
 10
182.78283
 20
242.315735
 30
0.0
 11
174.927107
 21
241.831314
 31
0.0
  0
LINE
  5
59F
  8
05
 10
172.88283
 20
243.683229
 30
0.0
 11
183.38283
 21
243.683229
 31
0.0
  0
LINE
  5
5A0
  8
05
 10
172.88283
 20
252.798485
 30
0.0
 11
202.88283
 21
252.798485
 31
0.0
  0
LINE
  5
5A1
  8
BEM1
 10
164.78283
 20
247.763673
 30
0.0
 11
164.78283
 21
264.979096
 31
0.0
  0
LINE
  5
5A2
  8
BEM1
 10
172.88283
 20
253.598485
 30
0.0
 11
172.88283
 21
264.979096
 31
0.0
  0
SOLID
  5
5A3
  8
BEM1
 10
161.28283
 20
263.595763
 30
0.0
 11
161.28283
 21
264.762429
 31
0.0
 12
164.78283
 22
264.179096
 32
0.0
 13
164.78283
 23
264.179096
 33
0.0
  0
LINE
  5
5A4
  8
BEM1
 10
172.88283
 20
253.598485
 30
0.0
 11
172.88283
 21
264.979096
 31
0.0
  0
SOLID
  5
5A5
  8
BEM1
 10
176.38283
 20
263.595763
 30
0.0
 11
176.38283
 21
264.762429
 31
0.0
 12
172.88283
 22
264.179096
 32
0.0
 13
172.88283
 23
264.179096
 33
0.0
  0
LINE
  5
5A6
  8
05
 10
172.88283
 20
248.0
 30
0.0
 11
166.28283
 21
248.0
 31
0.0
  0
LINE
  5
5A7
  8
05
 10
172.88283
 20
245.510861
 30
0.0
 11
166.28283
 21
245.510861
 31
0.0
  0
LINE
  5
5A8
  8
05
 10
172.88283
 20
243.619027
 30
0.0
 11
166.28283
 21
243.619027
 31
0.0
  0
LINE
  5
5A9
  8
05
 10
166.28283
 20
243.619027
 30
0.0
 11
172.88283
 21
243.619027
 31
0.0
  0
ARC
  5
5AA
  8
05
 10
166.28283
 20
246.5
 30
0.0
 40
1.5
 50
90.0
 51
180.0
  0
ARC
  5
5AB
  8
05
 10
166.28283
 20
242.119027
 30
0.0
 40
1.5
 50
90.0
 51
180.0
  0
POLYLINE
  5
5AC
  8
05
 66
     1
 10
0.0
 20
0.0
 30
0.0
  0
VERTEX
  5
A11
  8
05
 10
166.28283
 20
245.510861
 30
0.0
 42
0.091628
  0
VERTEX
  5
A12
  8
05
 10
165.703404
 20
245.403779
 30
0.0
 42
0.095378
  0
VERTEX
  5
A13
  8
05
 10
165.22217
 20
245.104964
 30
0.0
 42
0.101211
  0
VERTEX
  5
A14
  8
05
 10
164.895112
 20
244.649935
 30
0.0
 42
0.10576
  0
VERTEX
  5
A15
  8
05
 10
164.78283
 20
244.125042
 30
0.0
 42
0.10576
  0
SEQEND
  5
A16
  8
05
  0
LINE
  5
5AD
  8
05
 10
164.78283
 20
246.5
 30
0.0
 11
164.78283
 21
242.119027
 31
0.0
  0
POLYLINE
  5
5AE
  8
05
 66
     1
 10
0.0
 20
0.0
 30
0.0
  0
VERTEX
  5
A17
  8
05
 10
174.927107
 20
241.831314
 30
0.0
 42
0.051404
  0
VERTEX
  5
A18
  8
05
 10
174.743941
 20
241.800945
 30
0.0
 42
0.079327
  0
VERTEX
  5
A19
  8
05
 10
174.558566
 20
241.71697
 30
0.0
 42
0.107145
  0
VERTEX
  5
A1A
  8
05
 10
174.423716
 20
241.578915
 30
0.0
 42
0.140967
  0
VERTEX
  5
A1B
  8
05
 10
174.38283
 20
241.436777
 30
0.0
 42
0.140967
  0
SEQEND
  5
A1C
  8
05
  0
LINE
  5
5AF
  8
05
 10
192.08283
 20
243.829113
 30
0.0
 11
195.08283
 21
243.829113
 31
0.0
  0
LINE
  5
5B0
  8
05
 10
177.38283
 20
251.702423
 30
0.0
 11
202.88283
 21
251.702423
 31
0.0
  0
LINE
  5
5B1
  8
05
 10
202.28283
 20
246.97128
 30
0.0
 11
177.38283
 21
246.97128
 31
0.0
  0
LINE
  5
5B2
  8
05
 10
202.88283
 20
250.15685
 30
0.0
 11
177.38283
 21
250.15685
 31
0.0
  0
LINE
  5
5B3
  8
05
 10
177.38283
 20
245.05132
 30
0.0
 11
192.08283
 21
245.05132
 31
0.0
  0
LINE
  5
5B4
  8
05
 10
177.38283
 20
245.05132
 30
0.0
 11
177.38283
 21
251.702423
 31
0.0
  0
LINE
  5
5B5
  8
05
 10
183.38283
 20
242.315735
 30
0.0
 11
182.78283
 21
242.315735
 31
0.0
  0
LINE
  5
5B6
  8
05
 10
202.88283
 20
247.252134
 30
0.0
 11
202.28283
 21
246.97128
 31
0.0
  0
LINE
  5
5B7
  8
05
 10
208.28283
 20
245.510861
 30
0.0
 11
202.88283
 21
245.510861
 31
0.0
  0
LINE
  5
5B8
  8
025
 10
202.88283
 20
243.115039
 30
0.0
 11
207.332248
 21
243.115039
 31
0.0
  0
LINE
  5
5B9
  8
05
 10
208.28283
 20
248.0
 30
0.0
 11
202.88283
 21
248.0
 31
0.0
  0
TEXT
  5
5BA
  8
BEM1
 62
     3
 10
188.812086
 20
265.929096
 30
0.0
 40
3.5
  1
19.50
 41
0.7
 51
15.0
  0
TEXT
  5
5BB
  8
035
 10
321.897079
 20
147.15593
 30
0.0
 40
3.5
  1
min. Einbauabstand
  7
ARIAL
  0
TEXT
  5
5BC
  8
035
 10
321.897079
 20
141.15593
 30
0.0
 40
3.0
  1
min assembling distance
  7
ARIAL
  0
LINE
  5
5BD
  8
035
 10
341.32294
 20
109.662219
 30
0.0
 11
340.72294
 21
110.262219
 31
0.0
  0
LINE
  5
5BE
  8
035
 10
341.32294
 20
108.662219
 30
0.0
 11
340.72294
 21
108.062219
 31
0.0
  0
ARC
  5
5BF
  8
035
 10
334.27294
 20
109.162219
 30
0.0
 40
10.9
 50
122.755667
 51
57.244333
  0
LINE
  5
5C0
  8
035
 10
342.441502
 20
118.623295
 30
0.0
 11
341.19788
 21
117.579772
 31
0.0
  0
ARC
  5
5C1
  8
035
 10
334.27294
 20
109.162219
 30
0.0
 40
12.499495
 50
28.587806
 51
90.0
  0
ARC
  5
5C2
  8
035
 10
334.27294
 20
109.162219
 30
0.0
 40
9.75
 50
113.641106
 51
66.358894
  0
TEXT
  5
5C3
  8
BEM1
 62
     3
 10
332.569296
 20
130.090023
 30
0.0
 40
3.5
  1
23.00 [0.906"]
 41
0.7
 51
15.0
  0
LINE
  5
5C4
  8
BEM1
 10
337.77294
 20
128.321521
 30
0.0
 11
353.77294
 21
128.321521
 31
0.0
  0
LINE
  5
5C5
  8
035
 10
344.172435
 20
96.662724
 30
0.0
 11
328.77294
 21
96.662724
 31
0.0
  0
LINE
  5
5C6
  8
MITTE
 10
346.630642
 20
109.162219
 30
0.0
 11
321.850585
 21
109.162219
 31
0.0
  0
ARC
  5
5C7
  8
035
 10
334.27294
 20
109.162219
 30
0.0
 40
8.0
 50
52.11123
 51
37.88877
  0
LINE
  5
5C8
  8
035
 10
342.079188
 20
110.912219
 30
0.0
 11
340.72294
 21
110.912219
 31
0.0
  0
LINE
  5
5C9
  8
035
 10
342.079188
 20
107.412219
 30
0.0
 11
340.72294
 21
107.412219
 31
0.0
  0
TEXT
  5
5CA
  8
025
 10
320.686773
 20
38.837136
 30
0.0
 40
2.5
  1
- UL94V-0
 41
0.7
 51
15.0
  0
TEXT
  5
5CB
  8
025
 10
320.686773
 20
43.003802
 30
0.0
 40
2.5
  1
Zytel FR 51
 41
0.7
 51
15.0
  0
TEXT
  5
5CC
  8
025
 10
320.686773
 20
47.170469
 30
0.0
 40
2.5
  1
Plastic:
 41
0.7
 51
15.0
  0
LINE
  5
5CD
  8
BEM1
 10
221.484198
 20
96.510103
 30
0.0
 11
221.484198
 21
106.301327
 31
0.0
  0
LINE
  5
5CE
  8
BEM1
 10
246.623888
 20
95.955558
 30
0.0
 11
246.623888
 21
119.125558
 31
0.0
  0
LINE
  5
5CF
  8
MITTE
 10
210.054198
 20
126.368315
 30
0.0
 11
210.054198
 21
61.902447
 31
0.0
  0
TEXT
  5
5D0
  8
BEM1
 62
     3
 10
234.676075
 20
95.735919
 30
0.0
 40
3.5
  1
3.81
 50
90.0
 41
0.7
 51
15.0
  0
LINE
  5
5D1
  8
BEM1
 10
225.651607
 20
92.455558
 30
0.0
 11
247.348603
 21
92.455558
 31
0.0
  0
TEXT
  5
5D2
  8
BEM1
 62
     3
 10
232.90392
 20
77.720812
 30
0.0
 40
3.5
  1
%%c1.20 [0.047"]
 41
0.7
 51
15.0
  0
TEXT
  5
5D3
  8
BEM1
 62
     3
 10
244.937601
 20
93.497544
 30
0.0
 40
3.5
  1
8.89
 50
90.0
 41
0.7
 51
15.0
  0
TEXT
  5
5D4
  8
BEM1
 62
     3
 10
223.8959
 20
77.597102
 30
0.0
 40
3.5
  1
(2x)
 41
0.7
 51
15.0
  0
LINE
  5
5D5
  8
BEM1
 10
211.994874
 20
70.392201
 30
0.0
 11
215.546024
 21
79.551968
 31
0.0
  0
LINE
  5
5D6
  8
BEM1
 10
210.054198
 20
64.285558
 30
0.0
 11
210.054198
 21
67.285558
 31
0.0
  0
LINE
  5
5D7
  8
BEM1
 10
221.484198
 20
64.25119
 30
0.0
 11
221.484198
 21
76.799898
 31
0.0
  0
LINE
  5
5D8
  8
BEM1
 10
210.054198
 20
64.285558
 30
0.0
 11
210.054198
 21
67.285558
 31
0.0
  0
CIRCLE
  5
5D9
  8
05
 10
221.484198
 20
65.785558
 30
0.0
 40
2.4
  0
LINE
  5
5DA
  8
BEM1
 10
218.459059
 20
65.785558
 30
0.0
 11
212.545776
 21
65.785558
 31
0.0
  0
LINE
  5
5DB
  8
BEM1
 10
219.984198
 20
65.785558
 30
0.0
 11
222.984198
 21
65.785558
 31
0.0
  0
SOLID
  5
5DC
  8
BEM1
 10
211.582302
 20
70.902164
 30
0.0
 11
212.649671
 21
70.43117
 31
0.0
 12
210.703004
 22
67.464561
 32
0.0
 13
210.703004
 23
67.464561
 33
0.0
  0
TEXT
  5
5DD
  8
035
 10
223.875071
 20
68.094762
 30
0.0
 40
4.5
  1
1
  7
HELV
  0
CIRCLE
  5
5DE
  8
05
 10
221.484198
 20
92.455558
 30
0.0
 40
2.4
  0
LINE
  5
5DF
  8
BEM1
 10
215.546024
 20
79.551968
 30
0.0
 11
223.008374
 21
79.551968
 31
0.0
  0
LINE
  5
5E0
  8
BEM1
 10
210.054198
 20
81.430558
 30
0.0
 11
210.054198
 21
84.430558
 31
0.0
  0
LINE
  5
5E1
  8
BEM1
 10
210.054198
 20
81.430558
 30
0.0
 11
210.054198
 21
84.430558
 31
0.0
  0
LINE
  5
5E2
  8
BEM1
 10
221.484198
 20
90.205558
 30
0.0
 11
221.484198
 21
82.599045
 31
0.0
  0
LINE
  5
5E3
  8
BEM1
 10
221.484198
 20
82.03295
 30
0.0
 11
221.484198
 21
82.525558
 31
0.0
  0
LINE
  5
5E4
  8
BEM1
 10
217.546802
 20
92.455558
 30
0.0
 11
225.145056
 21
92.455558
 31
0.0
  0
LINE
  5
5E5
  8
BEM1
 10
219.984198
 20
92.455558
 30
0.0
 11
222.984198
 21
92.455558
 31
0.0
  0
LINE
  5
5E6
  8
BEM1
 10
221.484198
 20
90.955558
 30
0.0
 11
221.484198
 21
93.955558
 31
0.0
  0
SOLID
  5
5E7
  8
BEM1
 10
247.207221
 20
95.955558
 30
0.0
 11
246.040554
 21
95.955558
 31
0.0
 12
246.623888
 22
92.455558
 32
0.0
 13
246.623888
 23
92.455558
 33
0.0
  0
TEXT
  5
5E8
  8
BEM1
 62
     3
 10
244.945111
 20
103.449899
 30
0.0
 40
3.5
  1
[0.350"]
 50
90.0
 41
0.7
 51
15.0
  0
LINE
  5
5E9
  8
BEM1
 10
221.484198
 20
108.863662
 30
0.0
 11
221.484198
 21
132.160145
 31
0.0
  0
LINE
  5
5EA
  8
BEM1
 10
210.054198
 20
121.820261
 30
0.0
 11
210.054198
 21
132.160145
 31
0.0
  0
LINE
  5
5EB
  8
BEM1
 10
236.426075
 20
111.195558
 30
0.0
 11
236.426075
 21
115.625558
 31
0.0
  0
TEXT
  5
5EC
  8
BEM1
 62
     3
 10
234.532792
 20
104.515523
 30
0.0
 40
3.5
  1
[0.150"]
 50
90.0
 41
0.7
 51
15.0
  0
SOLID
  5
5ED
  8
BEM1
 10
237.009409
 20
111.195558
 30
0.0
 11
235.842742
 21
111.195558
 31
0.0
 12
236.426075
 22
107.695558
 32
0.0
 13
236.426075
 23
107.695558
 33
0.0
  0
LINE
  5
5EE
  8
BEM1
 10
235.370288
 20
107.695558
 30
0.0
 11
237.692799
 21
107.695558
 31
0.0
  0
SOLID
  5
5EF
  8
BEM1
 10
237.009409
 20
115.625558
 30
0.0
 11
235.842742
 21
115.625558
 31
0.0
 12
236.426075
 22
119.125558
 32
0.0
 13
236.426075
 23
119.125558
 33
0.0
  0
TEXT
  5
5F0
  8
BEM1
 62
     3
 10
211.596098
 20
133.131694
 30
0.0
 40
3.5
  1
3.81 [0.150"]
 41
0.7
 51
15.0
  0
LINE
  5
5F1
  8
025
 10
210.054198
 20
130.560145
 30
0.0
 11
210.054198
 21
129.560145
 31
0.0
  0
SOLID
  5
5F2
  8
BEM1
 10
224.984198
 20
130.776811
 30
0.0
 11
224.984198
 21
131.943478
 31
0.0
 12
221.484198
 22
131.360145
 32
0.0
 13
221.484198
 23
131.360145
 33
0.0
  0
LINE
  5
5F3
  8
05
 10
243.054198
 20
119.125558
 30
0.0
 11
259.404067
 21
119.125558
 31
0.0
  0
LINE
  5
5F4
  8
05
 10
243.054198
 20
125.125558
 30
0.0
 11
259.404067
 21
125.125558
 31
0.0
  0
POLYLINE
  5
5F5
  8
025
 66
     1
 10
0.0
 20
0.0
 30
0.0
  0
VERTEX
  5
A1D
  8
025
 10
259.404067
 20
125.125558
 30
0.0
  0
VERTEX
  5
A1E
  8
025
 10
258.734721
 20
123.15754
 30
0.0
  0
VERTEX
  5
A1F
  8
025
 10
259.265531
 20
121.858108
 30
0.0
  0
VERTEX
  5
A20
  8
025
 10
260.150213
 20
121.115576
 30
0.0
  0
VERTEX
  5
A21
  8
025
 10
259.404067
 20
119.125558
 30
0.0
  0
SEQEND
  5
A22
  8
025
  0
LINE
  5
5F6
  8
05
 10
243.054198
 20
125.125558
 30
0.0
 11
243.054198
 21
119.125558
 31
0.0
  0
SOLID
  5
5F7
  8
BEM1
 10
247.207221
 20
115.625558
 30
0.0
 11
246.040554
 21
115.625558
 31
0.0
 12
246.623888
 22
119.125558
 32
0.0
 13
246.623888
 23
119.125558
 33
0.0
  0
ARC
  5
5F8
  8
035
 10
334.27294
 20
109.162219
 30
0.0
 40
11.8
 50
210.286897
 51
239.713104
  0
ARC
  5
5F9
  8
035
 10
334.27294
 20
109.16222
 30
0.0
 40
12.499495
 50
208.587806
 51
243.719557
  0
LINE
  5
5FA
  8
MITTE
 10
334.27294
 20
122.503722
 30
0.0
 11
334.27294
 21
94.781725
 31
0.0
  0
LINE
  5
5FB
  8
035
 10
332.52294
 20
101.355971
 30
0.0
 11
332.52294
 21
102.812219
 31
0.0
  0
LINE
  5
5FC
  8
035
 10
336.02294
 20
101.355971
 30
0.0
 11
336.02294
 21
102.812219
 31
0.0
  0
LINE
  5
5FD
  8
035
 10
329.71294
 20
96.662724
 30
0.0
 11
329.71294
 21
95.362724
 31
0.0
  0
LINE
  5
5FE
  8
035
 10
331.21294
 20
96.662724
 30
0.0
 11
331.21294
 21
95.362724
 31
0.0
  0
LINE
  5
5FF
  8
035
 10
329.91294
 20
95.162724
 30
0.0
 11
329.71294
 21
95.362724
 31
0.0
  0
LINE
  5
600
  8
035
 10
331.21294
 20
95.362724
 30
0.0
 11
331.01294
 21
95.162724
 31
0.0
  0
LINE
  5
601
  8
035
 10
331.21294
 20
95.362724
 30
0.0
 11
329.71294
 21
95.362724
 31
0.0
  0
LINE
  5
602
  8
035
 10
331.01294
 20
95.162724
 30
0.0
 11
329.91294
 21
95.162724
 31
0.0
  0
ARC
  5
603
  8
035
 10
328.47294
 20
97.41672
 30
0.0
 40
0.6
 50
0.0
 51
63.719557
  0
LINE
  5
604
  8
035
 10
327.811442
 20
98.462387
 30
0.0
 11
328.981699
 21
99.632645
 31
0.0
  0
ARC
  5
605
  8
035
 10
328.82294
 20
97.512724
 30
0.0
 40
0.85
 50
128.010035
 51
266.627713
  0
LINE
  5
606
  8
035
 10
329.07294
 20
97.41672
 30
0.0
 11
329.07294
 21
96.662724
 31
0.0
  0
LINE
  5
607
  8
035
 10
337.33294
 20
96.662724
 30
0.0
 11
337.33294
 21
95.362724
 31
0.0
  0
LINE
  5
608
  8
035
 10
338.83294
 20
96.662724
 30
0.0
 11
338.83294
 21
95.362724
 31
0.0
  0
LINE
  5
609
  8
035
 10
337.53294
 20
95.162724
 30
0.0
 11
337.33294
 21
95.362724
 31
0.0
  0
LINE
  5
60A
  8
035
 10
338.83294
 20
95.362724
 30
0.0
 11
338.63294
 21
95.162724
 31
0.0
  0
LINE
  5
60B
  8
035
 10
338.83294
 20
95.362724
 30
0.0
 11
337.33294
 21
95.362724
 31
0.0
  0
LINE
  5
60C
  8
035
 10
338.63294
 20
95.162724
 30
0.0
 11
337.53294
 21
95.162724
 31
0.0
  0
LINE
  5
60D
  8
BEM1
 10
334.27294
 20
122.503722
 30
0.0
 11
334.27294
 21
128.805243
 31
0.0
  0
CIRCLE
  5
60E
  8
035
 10
324.373445
 20
119.061714
 30
0.0
 40
1.4
  0
ARC
  5
60F
  8
035
 10
324.373445
 20
119.061714
 30
0.0
 40
2.6
 50
62.465414
 51
214.346556
  0
CIRCLE
  5
610
  8
035
 10
324.373445
 20
119.061714
 30
0.0
 40
1.1
  0
LINE
  5
611
  8
035
 10
323.27294
 20
103.27685
 30
0.0
 11
323.27294
 21
114.209618
 31
0.0
  0
LINE
  5
612
  8
035
 10
323.573109
 20
102.70072
 30
0.0
 11
324.743366
 21
103.870978
 31
0.0
  0
LINE
  5
613
  8
035
 10
322.47294
 20
108.662219
 30
0.0
 11
322.27294
 21
108.862219
 31
0.0
  0
LINE
  5
614
  8
035
 10
323.27294
 20
109.662219
 30
0.0
 11
322.27294
 21
109.662219
 31
0.0
  0
LINE
  5
615
  8
035
 10
323.27294
 20
108.662219
 30
0.0
 11
322.47294
 21
108.662219
 31
0.0
  0
LINE
  5
616
  8
035
 10
322.47294
 20
108.662219
 30
0.0
 11
322.47294
 21
109.662219
 31
0.0
  0
LINE
  5
617
  8
035
 10
322.27294
 20
108.862219
 30
0.0
 11
322.27294
 21
109.662219
 31
0.0
  0
ARC
  5
618
  8
035
 10
317.27294
 20
114.209618
 30
0.0
 40
6.0
 50
360.0
 51
34.346556
  0
INSERT
  5
619
  8
025
  2
NT
 10
334.27294
 20
109.162219
 30
0.0
 41
3.0
 42
3.0
 43
3.0
  0
LINE
  5
622
  8
035
 10
333.092432
 20
105.362219
 30
0.0
 11
332.07294
 21
105.362219
 31
0.0
  0
LINE
  5
623
  8
035
 10
333.092432
 20
105.062219
 30
0.0
 11
332.07294
 21
105.062219
 31
0.0
  0
LINE
  5
624
  8
MITTE
 10
337.240472
 20
105.212219
 30
0.0
 11
331.48613
 21
105.212219
 31
0.0
  0
POLYLINE
  5
625
  8
025
 66
     1
 10
0.0
 20
0.0
 30
0.0
  0
VERTEX
  5
A3E
  8
025
 10
331.974991
 20
111.887153
 30
0.0
 42
0.242955
  0
VERTEX
  5
A3F
  8
025
 10
332.013551
 20
111.812481
 30
0.0
 42
0.083039
  0
VERTEX
  5
A40
  8
025
 10
332.223878
 20
111.710428
 30
0.0
 42
0.041229
  0
VERTEX
  5
A41
  8
025
 10
332.475813
 20
111.658402
 30
0.0
 42
0.030317
  0
VERTEX
  5
A42
  8
025
 10
332.824742
 20
111.637226
 30
0.0
 42
0.030317
  0
VERTEX
  5
A43
  8
025
 10
333.173671
 20
111.658402
 30
0.0
 42
0.041229
  0
VERTEX
  5
A44
  8
025
 10
333.425606
 20
111.710428
 30
0.0
 42
0.083039
  0
VERTEX
  5
A45
  8
025
 10
333.635933
 20
111.812481
 30
0.0
 42
0.186877
  0
VERTEX
  5
A46
  8
025
 10
333.672397
 20
111.867671
 30
0.0
 42
0.242955
  0
SEQEND
  5
A47
  8
025
  0
POLYLINE
  5
626
  8
025
 66
     1
 10
0.0
 20
0.0
 30
0.0
  0
VERTEX
  5
A48
  8
025
 10
332.53923
 20
111.962131
 30
0.0
 42
0.199105
  0
VERTEX
  5
A49
  8
025
 10
332.556034
 20
111.921604
 30
0.0
 42
0.098437
  0
VERTEX
  5
A4A
  8
025
 10
332.627723
 20
111.873768
 30
0.0
 42
0.055684
  0
VERTEX
  5
A4B
  8
025
 10
332.718295
 20
111.847633
 30
0.0
 42
0.042444
  0
VERTEX
  5
A4C
  8
025
 10
332.841364
 20
111.837167
 30
0.0
 42
0.042444
  0
VERTEX
  5
A4D
  8
025
 10
332.964434
 20
111.847633
 30
0.0
 42
0.055684
  0
VERTEX
  5
A4E
  8
025
 10
333.055006
 20
111.873768
 30
0.0
 42
0.098437
  0
VERTEX
  5
A4F
  8
025
 10
333.126695
 20
111.921604
 30
0.0
 42
0.141327
  0
VERTEX
  5
A50
  8
025
 10
333.142061
 20
111.949378
 30
0.0
 42
0.199105
  0
SEQEND
  5
A51
  8
025
  0
LINE
  5
627
  8
035
 10
336.02294
 20
102.812219
 30
0.0
 11
332.52294
 21
102.812219
 31
0.0
  0
LINE
  5
628
  8
035
 10
327.82294
 20
107.412219
 30
0.0
 11
327.82294
 21
108.062219
 31
0.0
  0
LINE
  5
629
  8
MITTE
 10
330.22294
 20
110.462219
 30
0.0
 11
330.22294
 21
107.862219
 31
0.0
  0
LINE
  5
62A
  8
035
 10
326.466693
 20
107.412219
 30
0.0
 11
327.82294
 21
107.412219
 31
0.0
  0
LINE
  5
62B
  8
035
 10
332.07294
 20
105.362219
 30
0.0
 11
332.07294
 21
105.062219
 31
0.0
  0
LINE
  5
62C
  8
035
 10
329.042432
 20
109.012219
 30
0.0
 11
328.02294
 21
109.012219
 31
0.0
  0
LINE
  5
62D
  8
035
 10
329.042432
 20
109.312219
 30
0.0
 11
328.02294
 21
109.312219
 31
0.0
  0
LINE
  5
62E
  8
025
 10
328.773589
 20
112.112087
 30
0.0
 11
329.27368
 21
111.662219
 31
0.0
  0
LINE
  5
62F
  8
025
 10
328.95113
 20
112.461984
 30
0.0
 11
329.448391
 21
112.112087
 31
0.0
  0
LINE
  5
630
  8
035
 10
327.82294
 20
110.262219
 30
0.0
 11
327.82294
 21
110.912219
 31
0.0
  0
LINE
  5
631
  8
035
 10
328.02294
 20
109.312219
 30
0.0
 11
328.02294
 21
109.012219
 31
0.0
  0
LINE
  5
632
  8
035
 10
327.22294
 20
109.662219
 30
0.0
 11
327.22294
 21
108.662219
 31
0.0
  0
LINE
  5
633
  8
035
 10
327.22294
 20
108.662219
 30
0.0
 11
327.82294
 21
108.062219
 31
0.0
  0
LINE
  5
634
  8
035
 10
327.22294
 20
109.662219
 30
0.0
 11
327.82294
 21
110.262219
 31
0.0
  0
LINE
  5
635
  8
025
 10
328.124017
 20
111.662219
 30
0.0
 11
328.673855
 21
111.662219
 31
0.0
  0
LINE
  5
636
  8
025
 10
328.301321
 20
112.461984
 30
0.0
 11
328.95113
 21
112.461984
 31
0.0
  0
LINE
  5
637
  8
025
 10
328.124017
 20
111.662219
 30
0.0
 11
328.301321
 21
112.461984
 31
0.0
  0
LINE
  5
638
  8
025
 10
328.673855
 20
111.662219
 30
0.0
 11
328.773589
 21
112.112087
 31
0.0
  0
LINE
  5
639
  8
035
 10
326.466693
 20
110.912219
 30
0.0
 11
327.82294
 21
110.912219
 31
0.0
  0
LINE
  5
63A
  8
035
 10
332.42294
 20
109.312219
 30
0.0
 11
332.42294
 21
109.012219
 31
0.0
  0
LINE
  5
63B
  8
035
 10
331.403448
 20
109.012219
 30
0.0
 11
332.42294
 21
109.012219
 31
0.0
  0
LINE
  5
63C
  8
035
 10
331.403448
 20
109.312219
 30
0.0
 11
332.42294
 21
109.312219
 31
0.0
  0
LINE
  5
63D
  8
025
 10
329.898496
 20
111.662219
 30
0.0
 11
330.0758
 21
112.461984
 31
0.0
  0
LINE
  5
63E
  8
025
 10
329.448391
 20
112.112087
 30
0.0
 11
329.525961
 21
112.461984
 31
0.0
  0
LINE
  5
63F
  8
025
 10
329.525961
 20
112.461984
 30
0.0
 11
330.0758
 21
112.461984
 31
0.0
  0
LINE
  5
640
  8
025
 10
329.27368
 20
111.662219
 30
0.0
 11
329.898496
 21
111.662219
 31
0.0
  0
LINE
  5
641
  8
025
 10
330.173416
 20
111.662219
 30
0.0
 11
330.350719
 21
112.461984
 31
0.0
  0
LINE
  5
642
  8
025
 10
330.765364
 20
111.852163
 30
0.0
 11
330.790851
 21
111.967129
 31
0.0
  0
LINE
  5
643
  8
025
 10
331.665595
 20
111.967129
 30
0.0
 11
331.707704
 21
112.157073
 31
0.0
  0
LINE
  5
644
  8
025
 10
331.672976
 20
111.662219
 30
0.0
 11
331.715085
 21
111.852163
 31
0.0
  0
LINE
  5
645
  8
025
 10
330.765364
 20
111.852163
 30
0.0
 11
331.715085
 21
111.852163
 31
0.0
  0
LINE
  5
646
  8
025
 10
330.858448
 20
112.27204
 30
0.0
 11
331.80817
 21
112.27204
 31
0.0
  0
LINE
  5
647
  8
025
 10
330.173416
 20
111.662219
 30
0.0
 11
331.672976
 21
111.662219
 31
0.0
  0
LINE
  5
648
  8
025
 10
330.350719
 20
112.461984
 30
0.0
 11
331.850279
 21
112.461984
 31
0.0
  0
LINE
  5
649
  8
025
 10
330.832961
 20
112.157073
 30
0.0
 11
331.707704
 21
112.157073
 31
0.0
  0
LINE
  5
64A
  8
025
 10
330.790851
 20
111.967129
 30
0.0
 11
331.665595
 21
111.967129
 31
0.0
  0
LINE
  5
64B
  8
025
 10
330.832961
 20
112.157073
 30
0.0
 11
330.858448
 21
112.27204
 31
0.0
  0
LINE
  5
64C
  8
025
 10
331.80817
 20
112.27204
 30
0.0
 11
331.850279
 21
112.461984
 31
0.0
  0
LINE
  5
64D
  8
025
 10
331.977061
 20
111.906514
 30
0.0
 11
332.100206
 21
112.461984
 31
0.0
  0
LINE
  5
64E
  8
025
 10
332.540767
 20
111.97531
 30
0.0
 11
332.64866
 21
112.461984
 31
0.0
  0
LINE
  5
64F
  8
025
 10
332.100206
 20
112.461984
 30
0.0
 11
332.64866
 21
112.461984
 31
0.0
  0
POLYLINE
  5
650
  8
025
 66
     1
 10
0.0
 20
0.0
 30
0.0
  0
VERTEX
  5
A52
  8
025
 10
331.977061
 20
111.906514
 30
0.0
 42
0.053304
  0
VERTEX
  5
A53
  8
025
 10
331.974991
 20
111.887153
 30
0.0
 42
0.242955
  0
SEQEND
  5
A54
  8
025
  0
POLYLINE
  5
651
  8
025
 66
     1
 10
0.0
 20
0.0
 30
0.0
  0
VERTEX
  5
A55
  8
025
 10
332.540767
 20
111.97531
 30
0.0
 42
0.058115
  0
VERTEX
  5
A56
  8
025
 10
332.53923
 20
111.962131
 30
0.0
 42
0.199105
  0
SEQEND
  5
A57
  8
025
  0
CIRCLE
  5
652
  8
025
 10
330.22294
 20
109.162219
 30
0.0
 40
1.19
  0
LINE
  5
653
  8
035
 10
340.72294
 20
107.412219
 30
0.0
 11
340.72294
 21
108.062219
 31
0.0
  0
LINE
  5
654
  8
MITTE
 10
338.32294
 20
110.462219
 30
0.0
 11
338.32294
 21
107.862219
 31
0.0
  0
LINE
  5
655
  8
035
 10
335.453448
 20
105.362219
 30
0.0
 11
336.47294
 21
105.362219
 31
0.0
  0
LINE
  5
656
  8
035
 10
335.453448
 20
105.062219
 30
0.0
 11
336.47294
 21
105.062219
 31
0.0
  0
LINE
  5
657
  8
035
 10
336.47294
 20
105.362219
 30
0.0
 11
336.47294
 21
105.062219
 31
0.0
  0
CIRCLE
  5
658
  8
025
 10
334.27294
 20
105.212219
 30
0.0
 40
1.19
  0
LINE
  5
659
  8
025
 10
336.670243
 20
111.662219
 30
0.0
 11
337.226896
 21
111.662219
 31
0.0
  0
POLYLINE
  5
65A
  8
025
 66
     1
 10
0.0
 20
0.0
 30
0.0
  0
VERTEX
  5
A58
  8
025
 10
337.168187
 20
112.020518
 30
0.0
 42
0.015369
  0
VERTEX
  5
A59
  8
025
 10
337.204782
 20
112.039247
 30
0.0
 42
0.073981
  0
VERTEX
  5
A5A
  8
025
 10
337.310078
 20
112.119536
 30
0.0
 42
0.106894
  0
VERTEX
  5
A5B
  8
025
 10
337.375923
 20
112.224874
 30
0.0
 42
0.153048
  0
VERTEX
  5
A5C
  8
025
 10
337.379604
 20
112.312589
 30
0.0
 42
0.153048
  0
VERTEX
  5
A5D
  8
025
 10
337.332559
 20
112.386712
 30
0.0
 42
0.106894
  0
VERTEX
  5
A5E
  8
025
 10
337.222866
 20
112.445015
 30
0.0
 42
0.067948
  0
VERTEX
  5
A5F
  8
025
 10
337.102335
 20
112.461984
 30
0.0
 42
0.060566
  0
SEQEND
  5
A60
  8
025
  0
CIRCLE
  5
65B
  8
025
 10
338.32294
 20
109.162219
 30
0.0
 40
1.19
  0
LINE
  5
65C
  8
035
 10
336.12294
 20
109.312219
 30
0.0
 11
336.12294
 21
109.012219
 31
0.0
  0
LINE
  5
65D
  8
035
 10
337.142432
 20
109.012219
 30
0.0
 11
336.12294
 21
109.012219
 31
0.0
  0
LINE
  5
65E
  8
035
 10
337.142432
 20
109.312219
 30
0.0
 11
336.12294
 21
109.312219
 31
0.0
  0
LINE
  5
65F
  8
025
 10
333.142061
 20
111.949378
 30
0.0
 11
333.255703
 21
112.461984
 31
0.0
  0
LINE
  5
660
  8
025
 10
333.672397
 20
111.867671
 30
0.0
 11
333.804153
 21
112.461984
 31
0.0
  0
LINE
  5
661
  8
025
 10
333.255703
 20
112.461984
 30
0.0
 11
333.804153
 21
112.461984
 31
0.0
  0
LINE
  5
662
  8
025
 10
333.905338
 20
112.262043
 30
0.0
 11
333.949663
 21
112.461984
 31
0.0
  0
LINE
  5
663
  8
025
 10
334.272213
 20
111.662219
 30
0.0
 11
334.405191
 21
112.262043
 31
0.0
  0
LINE
  5
664
  8
025
 10
334.822052
 20
111.662219
 30
0.0
 11
334.95503
 21
112.262043
 31
0.0
  0
LINE
  5
665
  8
025
 10
335.479876
 20
112.262043
 30
0.0
 11
335.524202
 21
112.461984
 31
0.0
  0
LINE
  5
666
  8
025
 10
333.905338
 20
112.262043
 30
0.0
 11
334.405191
 21
112.262043
 31
0.0
  0
LINE
  5
667
  8
025
 10
334.272213
 20
111.662219
 30
0.0
 11
334.822052
 21
111.662219
 31
0.0
  0
LINE
  5
668
  8
025
 10
333.949663
 20
112.461984
 30
0.0
 11
335.524202
 21
112.461984
 31
0.0
  0
LINE
  5
669
  8
025
 10
334.95503
 20
112.262043
 30
0.0
 11
335.479876
 21
112.262043
 31
0.0
  0
LINE
  5
66A
  8
025
 10
335.521846
 20
111.662219
 30
0.0
 11
335.69915
 21
112.461984
 31
0.0
  0
LINE
  5
66B
  8
025
 10
336.071685
 20
111.662219
 30
0.0
 11
336.127093
 21
111.912145
 31
0.0
  0
LINE
  5
66C
  8
025
 10
335.521846
 20
111.662219
 30
0.0
 11
336.071685
 21
111.662219
 31
0.0
  0
LINE
  5
66D
  8
025
 10
335.69915
 20
112.461984
 30
0.0
 11
337.102335
 21
112.461984
 31
0.0
  0
LINE
  5
66E
  8
025
 10
336.650972
 20
111.725938
 30
0.0
 11
336.661038
 21
111.872443
 31
0.0
  0
LINE
  5
66F
  8
025
 10
336.127093
 20
111.912145
 30
0.0
 11
336.604269
 21
111.912145
 31
0.0
  0
LINE
  5
670
  8
025
 10
336.169202
 20
112.10209
 30
0.0
 11
336.596454
 21
112.10209
 31
0.0
  0
LINE
  5
671
  8
025
 10
336.169202
 20
112.10209
 30
0.0
 11
336.206879
 21
112.27204
 31
0.0
  0
LINE
  5
672
  8
025
 10
336.206879
 20
112.27204
 30
0.0
 11
336.670429
 21
112.27204
 31
0.0
  0
ARC
  5
673
  8
025
 10
336.771314
 20
111.727559
 30
0.0
 40
0.120353
 50
180.772005
 51
212.881875
  0
POLYLINE
  5
674
  8
025
 66
     1
 10
0.0
 20
0.0
 30
0.0
  0
VERTEX
  5
A61
  8
025
 10
336.596454
 20
112.10209
 30
0.0
 42
0.065514
  0
VERTEX
  5
A62
  8
025
 10
336.654549
 20
112.10994
 30
0.0
 42
0.060566
  0
VERTEX
  5
A63
  8
025
 10
336.704809
 20
112.130176
 30
0.0
 42
0.073981
  0
VERTEX
  5
A64
  8
025
 10
336.740144
 20
112.15712
 30
0.0
 42
0.106894
  0
VERTEX
  5
A65
  8
025
 10
336.762241
 20
112.19247
 30
0.0
 42
0.153048
  0
VERTEX
  5
A66
  8
025
 10
336.763476
 20
112.221905
 30
0.0
 42
0.153048
  0
VERTEX
  5
A67
  8
025
 10
336.747689
 20
112.24678
 30
0.0
 42
0.106894
  0
VERTEX
  5
A68
  8
025
 10
336.710878
 20
112.266345
 30
0.0
 42
0.067948
  0
VERTEX
  5
A69
  8
025
 10
336.670429
 20
112.27204
 30
0.0
 42
0.060506
  0
SEQEND
  5
A6A
  8
025
  0
POLYLINE
  5
675
  8
025
 66
     1
 10
0.0
 20
0.0
 30
0.0
  0
VERTEX
  5
A6B
  8
025
 10
336.661038
 20
111.872443
 30
0.0
 42
0.082344
  0
VERTEX
  5
A6C
  8
025
 10
336.660097
 20
111.882065
 30
0.0
 42
0.153048
  0
VERTEX
  5
A6D
  8
025
 10
336.650625
 20
111.896989
 30
0.0
 42
0.106894
  0
VERTEX
  5
A6E
  8
025
 10
336.628538
 20
111.908729
 30
0.0
 42
0.067948
  0
VERTEX
  5
A6F
  8
025
 10
336.604269
 20
111.912145
 30
0.0
 42
0.060506
  0
SEQEND
  5
A70
  8
025
  0
LINE
  5
676
  8
035
 10
339.503448
 20
109.012219
 30
0.0
 11
340.52294
 21
109.012219
 31
0.0
  0
LINE
  5
677
  8
035
 10
339.503448
 20
109.312219
 30
0.0
 11
340.52294
 21
109.312219
 31
0.0
  0
LINE
  5
678
  8
035
 10
340.52294
 20
109.312219
 30
0.0
 11
340.52294
 21
109.012219
 31
0.0
  0
LINE
  5
679
  8
035
 10
340.72294
 20
110.262219
 30
0.0
 11
340.72294
 21
110.912219
 31
0.0
  0
LINE
  5
67A
  8
025
 10
337.202208
 20
111.745914
 30
0.0
 11
337.215231
 21
111.93216
 31
0.0
  0
ARC
  5
67B
  8
025
 10
337.326867
 20
111.737197
 30
0.0
 40
0.124963
 50
176.0
 51
216.869898
  0
POLYLINE
  5
67C
  8
025
 66
     1
 10
0.0
 20
0.0
 30
0.0
  0
VERTEX
  5
A71
  8
025
 10
337.215231
 20
111.93216
 30
0.0
 42
0.084831
  0
VERTEX
  5
A72
  8
025
 10
337.212376
 20
111.962931
 30
0.0
 42
0.153048
  0
VERTEX
  5
A73
  8
025
 10
337.182972
 20
112.009257
 30
0.0
 42
0.025315
  0
VERTEX
  5
A74
  8
025
 10
337.168187
 20
112.020518
 30
0.0
 42
0.067948
  0
SEQEND
  5
A75
  8
025
  0
LINE
  5
67D
  8
025
 10
337.471275
 20
111.662219
 30
0.0
 11
337.648578
 21
112.461984
 31
0.0
  0
LINE
  5
67E
  8
025
 10
338.021113
 20
111.662219
 30
0.0
 11
338.198417
 21
112.461984
 31
0.0
  0
LINE
  5
67F
  8
025
 10
337.471275
 20
111.662219
 30
0.0
 11
338.021113
 21
111.662219
 31
0.0
  0
LINE
  5
680
  8
025
 10
337.648578
 20
112.461984
 30
0.0
 11
338.198417
 21
112.461984
 31
0.0
  0
LINE
  5
681
  8
025
 10
338.346018
 20
111.662219
 30
0.0
 11
338.523322
 21
112.461984
 31
0.0
  0
LINE
  5
682
  8
025
 10
338.870864
 20
111.662219
 30
0.0
 11
338.91519
 21
111.86216
 31
0.0
  0
LINE
  5
683
  8
025
 10
338.523322
 20
112.461984
 30
0.0
 11
339.048168
 21
112.461984
 31
0.0
  0
LINE
  5
684
  8
025
 10
338.346018
 20
111.662219
 30
0.0
 11
338.870864
 21
111.662219
 31
0.0
  0
LINE
  5
685
  8
025
 10
338.91519
 20
111.86216
 30
0.0
 11
339.149791
 21
111.962131
 31
0.0
  0
LINE
  5
686
  8
025
 10
338.988197
 20
112.191475
 30
0.0
 11
339.622999
 21
112.461984
 31
0.0
  0
LINE
  5
687
  8
025
 10
339.622999
 20
112.461984
 30
0.0
 11
340.322794
 21
112.461984
 31
0.0
  0
LINE
  5
688
  8
025
 10
339.149791
 20
111.962131
 30
0.0
 11
339.445695
 21
111.662219
 31
0.0
  0
LINE
  5
689
  8
025
 10
339.677642
 20
112.187065
 30
0.0
 11
340.195475
 21
111.662219
 31
0.0
  0
LINE
  5
68A
  8
025
 10
339.677642
 20
112.187065
 30
0.0
 11
340.322794
 21
112.461984
 31
0.0
  0
LINE
  5
68B
  8
025
 10
338.988197
 20
112.191475
 30
0.0
 11
339.048168
 21
112.461984
 31
0.0
  0
LINE
  5
68C
  8
025
 10
339.445695
 20
111.662219
 30
0.0
 11
340.195475
 21
111.662219
 31
0.0
  0
ARC
  5
68D
  8
035
 10
334.27294
 20
109.162219
 30
0.0
 40
12.499495
 50
90.0
 51
108.676048
  0
ARC
  5
68E
  8
035
 10
334.27294
 20
109.162219
 30
0.0
 40
11.0
 50
67.5
 51
112.5
  0
ARC
  5
68F
  8
035
 10
334.27294
 20
109.162219
 30
0.0
 40
10.9
 50
68.571012
 51
111.428988
  0
ARC
  5
690
  8
035
 10
334.27294
 20
109.162219
 30
0.0
 40
8.65
 50
69.353504
 51
110.646496
  0
ARC
  5
691
  8
035
 10
328.64594
 20
117.908468
 30
0.0
 40
0.5
 50
30.0
 51
122.755667
  0
LINE
  5
692
  8
035
 10
329.154041
 20
118.028411
 30
0.0
 11
328.77294
 21
118.688498
 31
0.0
  0
ARC
  5
693
  8
035
 10
334.27294
 20
109.162218
 30
0.0
 40
11.0
 50
112.499998
 51
119.999998
  0
ARC
  5
694
  8
035
 10
330.484374
 20
118.308626
 30
0.0
 40
0.2
 50
264.110395
 51
112.5
  0
ARC
  5
695
  8
035
 10
330.443329
 20
117.910737
 30
0.0
 40
0.2
 50
84.110395
 51
113.641106
  0
ARC
  5
696
  8
035
 10
328.721029
 20
117.778411
 30
0.0
 40
0.5
 50
302.796026
 51
30.0
  0
LINE
  5
697
  8
035
 10
330.266379
 20
118.050974
 30
0.0
 11
329.786258
 21
119.210088
 31
0.0
  0
LINE
  5
698
  8
035
 10
330.407837
 20
118.493402
 30
0.0
 11
330.063422
 21
119.324894
 31
0.0
  0
ARC
  5
699
  8
035
 10
330.363719
 20
119.122539
 30
0.0
 40
0.2
 50
111.428988
 51
202.5
  0
ARC
  5
69A
  8
035
 10
330.503508
 20
118.262432
 30
0.0
 40
0.25
 50
226.746295
 51
112.5
  0
LINE
  5
69B
  8
035
 10
330.618313
 20
117.985268
 30
0.0
 11
330.599179
 21
118.031462
 31
0.0
  0
LINE
  5
69C
  8
035
 10
331.22294
 20
117.256661
 30
0.0
 11
331.452131
 21
116.648408
 31
0.0
  0
ARC
  5
69D
  8
035
 10
328.349087
 20
126.687608
 30
0.0
 40
6.0
 50
242.465414
 51
288.676049
  0
LINE
  5
69E
  8
035
 10
337.32294
 20
117.256661
 30
0.0
 11
337.093749
 21
116.648408
 31
0.0
  0
ARC
  5
69F
  8
035
 10
338.102551
 20
117.910737
 30
0.0
 40
0.2
 50
66.358894
 51
95.889605
  0
ARC
  5
6A0
  8
035
 10
338.061506
 20
118.308626
 30
0.0
 40
0.2
 50
67.5
 51
275.889605
  0
LINE
  5
6A1
  8
035
 10
338.138043
 20
118.493402
 30
0.0
 11
338.482458
 21
119.324894
 31
0.0
  0
ARC
  5
6A2
  8
035
 10
339.89994
 20
117.908468
 30
0.0
 40
0.5
 50
57.244333
 51
150.0
  0
ARC
  5
6A3
  8
035
 10
339.824852
 20
117.778411
 30
0.0
 40
0.5
 50
150.0
 51
237.203974
  0
LINE
  5
6A4
  8
035
 10
338.279501
 20
118.050974
 30
0.0
 11
338.759622
 21
119.210088
 31
0.0
  0
LINE
  5
6A5
  8
035
 10
339.391839
 20
118.028411
 30
0.0
 11
339.77294
 21
118.688498
 31
0.0
  0
ARC
  5
6A6
  8
035
 10
334.27294
 20
109.162218
 30
0.0
 40
11.0
 50
60.000002
 51
67.500002
  0
ARC
  5
6A7
  8
035
 10
338.182161
 20
119.122539
 30
0.0
 40
0.2
 50
337.5
 51
68.571012
  0
ARC
  5
6A8
  8
035
 10
338.042372
 20
118.262432
 30
0.0
 40
0.25
 50
67.5
 51
313.253705
  0
LINE
  5
6A9
  8
035
 10
337.927567
 20
117.985268
 30
0.0
 11
337.946701
 21
118.031462
 31
0.0
  0
ARC
  5
6AA
  8
035
 10
339.788373
 20
114.677652
 30
0.0
 40
1.0
 50
322.958832
 51
127.041168
  0
SOLID
  5
6AB
  8
BEM1
 10
337.77294
 20
127.738187
 30
0.0
 11
337.77294
 21
128.904854
 31
0.0
 12
334.27294
 22
128.321521
 32
0.0
 13
334.27294
 23
128.321521
 33
0.0
  0
ARC
  5
6AC
  8
035
 10
374.27294
 20
104.114819
 30
0.0
 40
6.0
 50
180.0
 51
214.346556
  0
ARC
  5
6AD
  8
035
 10
357.27294
 20
109.162219
 30
0.0
 40
11.8
 50
210.286897
 51
239.713104
  0
ARC
  5
6AE
  8
035
 10
357.27294
 20
109.16222
 30
0.0
 40
12.499495
 50
208.587806
 51
243.719557
  0
ARC
  5
6AF
  8
035
 10
357.27294
 20
109.162219
 30
0.0
 40
9.75
 50
113.641106
 51
66.358894
  0
ARC
  5
6B0
  8
035
 10
357.27294
 20
109.162219
 30
0.0
 40
10.9
 50
122.755667
 51
57.244333
  0
ARC
  5
6B1
  8
035
 10
351.27294
 20
104.114819
 30
0.0
 40
6.0
 50
180.0
 51
214.346556
  0
LINE
  5
6B2
  8
035
 10
359.02294
 20
101.355971
 30
0.0
 11
359.02294
 21
102.812219
 31
0.0
  0
LINE
  5
6B3
  8
035
 10
355.52294
 20
101.355971
 30
0.0
 11
355.52294
 21
102.812219
 31
0.0
  0
ARC
  5
6B4
  8
035
 10
357.27294
 20
109.162219
 30
0.0
 40
8.0
 50
52.11123
 51
37.88877
  0
LINE
  5
6B5
  8
MITTE
 10
357.27294
 20
122.503722
 30
0.0
 11
357.27294
 21
94.781725
 31
0.0
  0
LINE
  5
6B6
  8
035
 10
367.172435
 20
96.662724
 30
0.0
 11
351.77294
 21
96.662724
 31
0.0
  0
ARC
  5
6B7
  8
035
 10
344.172435
 20
99.262724
 30
0.0
 40
2.6
 50
270.0
 51
34.346556
  0
CIRCLE
  5
6B8
  8
035
 10
344.172435
 20
99.262724
 30
0.0
 40
1.6
  0
CIRCLE
  5
6B9
  8
035
 10
344.172435
 20
99.262724
 30
0.0
 40
1.1
  0
LINE
  5
6BA
  8
035
 10
354.21294
 20
96.662724
 30
0.0
 11
354.21294
 21
95.362724
 31
0.0
  0
LINE
  5
6BB
  8
035
 10
352.71294
 20
96.662724
 30
0.0
 11
352.71294
 21
95.362724
 31
0.0
  0
LINE
  5
6BC
  8
035
 10
354.01294
 20
95.162724
 30
0.0
 11
352.91294
 21
95.162724
 31
0.0
  0
LINE
  5
6BD
  8
035
 10
354.21294
 20
95.362724
 30
0.0
 11
352.71294
 21
95.362724
 31
0.0
  0
LINE
  5
6BE
  8
035
 10
352.91294
 20
95.162724
 30
0.0
 11
352.71294
 21
95.362724
 31
0.0
  0
LINE
  5
6BF
  8
035
 10
354.21294
 20
95.362724
 30
0.0
 11
354.01294
 21
95.162724
 31
0.0
  0
ARC
  5
6C0
  8
035
 10
351.47294
 20
97.41672
 30
0.0
 40
0.6
 50
0.0
 51
63.719557
  0
LINE
  5
6C1
  8
035
 10
352.07294
 20
97.41672
 30
0.0
 11
352.07294
 21
96.662724
 31
0.0
  0
LINE
  5
6C2
  8
035
 10
350.811442
 20
98.462387
 30
0.0
 11
351.981699
 21
99.632645
 31
0.0
  0
ARC
  5
6C3
  8
035
 10
351.82294
 20
97.512724
 30
0.0
 40
0.85
 50
128.010035
 51
266.627713
  0
CIRCLE
  5
6C4
  8
035
 10
367.172435
 20
99.262724
 30
0.0
 40
1.6
  0
LINE
  5
6C5
  8
035
 10
361.83294
 20
96.662724
 30
0.0
 11
361.83294
 21
95.362724
 31
0.0
  0
LINE
  5
6C6
  8
035
 10
360.33294
 20
96.662724
 30
0.0
 11
360.33294
 21
95.362724
 31
0.0
  0
LINE
  5
6C7
  8
035
 10
361.83294
 20
95.362724
 30
0.0
 11
360.33294
 21
95.362724
 31
0.0
  0
LINE
  5
6C8
  8
035
 10
361.83294
 20
95.362724
 30
0.0
 11
361.63294
 21
95.162724
 31
0.0
  0
LINE
  5
6C9
  8
035
 10
361.63294
 20
95.162724
 30
0.0
 11
360.53294
 21
95.162724
 31
0.0
  0
LINE
  5
6CA
  8
035
 10
360.53294
 20
95.162724
 30
0.0
 11
360.33294
 21
95.362724
 31
0.0
  0
ARC
  5
6CB
  8
035
 10
367.172435
 20
99.262724
 30
0.0
 40
2.6
 50
270.0
 51
34.346556
  0
CIRCLE
  5
6CC
  8
035
 10
367.172435
 20
99.262724
 30
0.0
 40
1.1
  0
LINE
  5
6CD
  8
BEM1
 10
357.27294
 20
122.503722
 30
0.0
 11
357.27294
 21
128.805243
 31
0.0
  0
INSERT
  5
6CE
  8
025
  2
NT
 10
357.27294
 20
109.162219
 30
0.0
 41
3.0
 42
3.0
 43
3.0
  0
ARC
  5
6CF
  8
035
 10
357.27294
 20
109.162219
 30
0.0
 40
10.9
 50
68.571012
 51
111.428988
  0
ARC
  5
6D0
  8
035
 10
357.27294
 20
109.162219
 30
0.0
 40
11.0
 50
67.5
 51
112.5
  0
ARC
  5
6D1
  8
035
 10
357.27294
 20
109.162219
 30
0.0
 40
12.499495
 50
28.587806
 51
90.0
  0
CIRCLE
  5
6D2
  8
025
 10
357.27294
 20
105.212219
 30
0.0
 40
1.19
  0
LINE
  5
6D3
  8
035
 10
359.02294
 20
102.812219
 30
0.0
 11
355.52294
 21
102.812219
 31
0.0
  0
ARC
  5
6D4
  8
035
 10
357.27294
 20
109.162219
 30
0.0
 40
8.65
 50
69.353504
 51
110.646496
  0
LINE
  5
6D5
  8
025
 10
356.949663
 20
112.461984
 30
0.0
 11
358.524202
 21
112.461984
 31
0.0
  0
LINE
  5
6D6
  8
025
 10
357.272213
 20
111.662219
 30
0.0
 11
357.822052
 21
111.662219
 31
0.0
  0
LINE
  5
6D7
  8
MITTE
 10
369.630642
 20
109.162219
 30
0.0
 11
344.850585
 21
109.162219
 31
0.0
  0
LINE
  5
6D8
  8
MITTE
 10
359.909866
 20
105.212219
 30
0.0
 11
354.498894
 21
105.212219
 31
0.0
  0
LINE
  5
6D9
  8
035
 10
346.27294
 20
103.27685
 30
0.0
 11
346.27294
 21
114.209618
 31
0.0
  0
LINE
  5
6DA
  8
035
 10
345.27294
 20
104.114819
 30
0.0
 11
345.27294
 21
115.047588
 31
0.0
  0
LINE
  5
6DB
  8
035
 10
346.573109
 20
102.70072
 30
0.0
 11
347.743366
 21
103.870978
 31
0.0
  0
LINE
  5
6DC
  8
035
 10
345.27294
 20
108.662219
 30
0.0
 11
346.07294
 21
108.662219
 31
0.0
  0
LINE
  5
6DD
  8
035
 10
345.27294
 20
109.662219
 30
0.0
 11
346.27294
 21
109.662219
 31
0.0
  0
LINE
  5
6DE
  8
035
 10
346.27294
 20
109.662219
 30
0.0
 11
345.27294
 21
109.662219
 31
0.0
  0
LINE
  5
6DF
  8
035
 10
341.32294
 20
109.662219
 30
0.0
 11
341.32294
 21
108.662219
 31
0.0
  0
LINE
  5
6E0
  8
035
 10
345.126972
 20
108.162219
 30
0.0
 11
345.27294
 21
108.162219
 31
0.0
  0
LINE
  5
6E1
  8
035
 10
345.27294
 20
108.862219
 30
0.0
 11
345.27294
 21
109.662219
 31
0.0
  0
LINE
  5
6E2
  8
035
 10
346.27294
 20
108.862219
 30
0.0
 11
346.27294
 21
109.662219
 31
0.0
  0
LINE
  5
6E3
  8
035
 10
346.27294
 20
108.662219
 30
0.0
 11
345.47294
 21
108.662219
 31
0.0
  0
LINE
  5
6E4
  8
035
 10
350.82294
 20
107.412219
 30
0.0
 11
350.82294
 21
108.062219
 31
0.0
  0
LINE
  5
6E5
  8
MITTE
 10
353.22294
 20
110.462219
 30
0.0
 11
353.22294
 21
107.862219
 31
0.0
  0
LINE
  5
6E6
  8
035
 10
349.466693
 20
107.412219
 30
0.0
 11
350.82294
 21
107.412219
 31
0.0
  0
LINE
  5
6E7
  8
035
 10
356.092432
 20
105.062219
 30
0.0
 11
355.07294
 21
105.062219
 31
0.0
  0
LINE
  5
6E8
  8
035
 10
356.092432
 20
105.362219
 30
0.0
 11
355.07294
 21
105.362219
 31
0.0
  0
LINE
  5
6E9
  8
035
 10
355.07294
 20
105.362219
 30
0.0
 11
355.07294
 21
105.062219
 31
0.0
  0
CIRCLE
  5
6EA
  8
025
 10
353.22294
 20
109.162219
 30
0.0
 40
1.19
  0
LINE
  5
6EB
  8
025
 10
353.350719
 20
112.461984
 30
0.0
 11
354.850279
 21
112.461984
 31
0.0
  0
LINE
  5
6EC
  8
025
 10
353.173416
 20
111.662219
 30
0.0
 11
354.672976
 21
111.662219
 31
0.0
  0
LINE
  5
6ED
  8
035
 10
352.042432
 20
109.312219
 30
0.0
 11
351.02294
 21
109.312219
 31
0.0
  0
LINE
  5
6EE
  8
035
 10
351.02294
 20
109.312219
 30
0.0
 11
351.02294
 21
109.012219
 31
0.0
  0
LINE
  5
6EF
  8
035
 10
352.042432
 20
109.012219
 30
0.0
 11
351.02294
 21
109.012219
 31
0.0
  0
LINE
  5
6F0
  8
035
 10
350.22294
 20
109.662219
 30
0.0
 11
350.22294
 21
108.662219
 31
0.0
  0
LINE
  5
6F1
  8
035
 10
350.22294
 20
108.662219
 30
0.0
 11
350.82294
 21
108.062219
 31
0.0
  0
LINE
  5
6F2
  8
035
 10
350.82294
 20
110.262219
 30
0.0
 11
350.82294
 21
110.912219
 31
0.0
  0
LINE
  5
6F3
  8
035
 10
350.22294
 20
109.662219
 30
0.0
 11
350.82294
 21
110.262219
 31
0.0
  0
LINE
  5
6F4
  8
035
 10
349.466693
 20
110.912219
 30
0.0
 11
350.82294
 21
110.912219
 31
0.0
  0
LINE
  5
6F5
  8
025
 10
353.173416
 20
111.662219
 30
0.0
 11
353.350719
 21
112.461984
 31
0.0
  0
LINE
  5
6F6
  8
025
 10
352.27368
 20
111.662219
 30
0.0
 11
352.898496
 21
111.662219
 31
0.0
  0
LINE
  5
6F7
  8
025
 10
352.525961
 20
112.461984
 30
0.0
 11
353.0758
 21
112.461984
 31
0.0
  0
LINE
  5
6F8
  8
025
 10
351.95113
 20
112.461984
 30
0.0
 11
352.448391
 21
112.112087
 31
0.0
  0
LINE
  5
6F9
  8
025
 10
351.773589
 20
112.112087
 30
0.0
 11
352.27368
 21
111.662219
 31
0.0
  0
LINE
  5
6FA
  8
025
 10
352.448391
 20
112.112087
 30
0.0
 11
352.525961
 21
112.461984
 31
0.0
  0
LINE
  5
6FB
  8
025
 10
352.898496
 20
111.662219
 30
0.0
 11
353.0758
 21
112.461984
 31
0.0
  0
LINE
  5
6FC
  8
025
 10
351.673855
 20
111.662219
 30
0.0
 11
351.773589
 21
112.112087
 31
0.0
  0
LINE
  5
6FD
  8
025
 10
351.124017
 20
111.662219
 30
0.0
 11
351.301321
 21
112.461984
 31
0.0
  0
LINE
  5
6FE
  8
025
 10
351.301321
 20
112.461984
 30
0.0
 11
351.95113
 21
112.461984
 31
0.0
  0
LINE
  5
6FF
  8
025
 10
351.124017
 20
111.662219
 30
0.0
 11
351.673855
 21
111.662219
 31
0.0
  0
LINE
  5
700
  8
035
 10
355.42294
 20
109.312219
 30
0.0
 11
355.42294
 21
109.012219
 31
0.0
  0
LINE
  5
701
  8
035
 10
354.403448
 20
109.312219
 30
0.0
 11
355.42294
 21
109.312219
 31
0.0
  0
LINE
  5
702
  8
035
 10
354.403448
 20
109.012219
 30
0.0
 11
355.42294
 21
109.012219
 31
0.0
  0
LINE
  5
703
  8
025
 10
356.905338
 20
112.262043
 30
0.0
 11
357.405191
 21
112.262043
 31
0.0
  0
LINE
  5
704
  8
025
 10
357.272213
 20
111.662219
 30
0.0
 11
357.405191
 21
112.262043
 31
0.0
  0
LINE
  5
705
  8
025
 10
356.905338
 20
112.262043
 30
0.0
 11
356.949663
 21
112.461984
 31
0.0
  0
LINE
  5
706
  8
025
 10
356.255703
 20
112.461984
 30
0.0
 11
356.804153
 21
112.461984
 31
0.0
  0
POLYLINE
  5
707
  8
025
 66
     1
 10
0.0
 20
0.0
 30
0.0
  0
VERTEX
  5
A76
  8
025
 10
355.540767
 20
111.97531
 30
0.0
 42
0.058115
  0
VERTEX
  5
A77
  8
025
 10
355.53923
 20
111.962131
 30
0.0
 42
0.199105
  0
SEQEND
  5
A78
  8
025
  0
POLYLINE
  5
708
  8
025
 66
     1
 10
0.0
 20
0.0
 30
0.0
  0
VERTEX
  5
A79
  8
025
 10
355.53923
 20
111.962131
 30
0.0
 42
0.199105
  0
VERTEX
  5
A7A
  8
025
 10
355.556034
 20
111.921604
 30
0.0
 42
0.098437
  0
VERTEX
  5
A7B
  8
025
 10
355.627723
 20
111.873768
 30
0.0
 42
0.055684
  0
VERTEX
  5
A7C
  8
025
 10
355.718295
 20
111.847633
 30
0.0
 42
0.042444
  0
VERTEX
  5
A7D
  8
025
 10
355.841364
 20
111.837167
 30
0.0
 42
0.042444
  0
VERTEX
  5
A7E
  8
025
 10
355.964434
 20
111.847633
 30
0.0
 42
0.055684
  0
VERTEX
  5
A7F
  8
025
 10
356.055006
 20
111.873768
 30
0.0
 42
0.098437
  0
VERTEX
  5
A80
  8
025
 10
356.126695
 20
111.921604
 30
0.0
 42
0.141327
  0
VERTEX
  5
A81
  8
025
 10
356.142061
 20
111.949378
 30
0.0
 42
0.199105
  0
SEQEND
  5
A82
  8
025
  0
POLYLINE
  5
709
  8
025
 66
     1
 10
0.0
 20
0.0
 30
0.0
  0
VERTEX
  5
A83
  8
025
 10
354.974991
 20
111.887153
 30
0.0
 42
0.242955
  0
VERTEX
  5
A84
  8
025
 10
355.013551
 20
111.812481
 30
0.0
 42
0.083039
  0
VERTEX
  5
A85
  8
025
 10
355.223878
 20
111.710428
 30
0.0
 42
0.041229
  0
VERTEX
  5
A86
  8
025
 10
355.475813
 20
111.658402
 30
0.0
 42
0.030317
  0
VERTEX
  5
A87
  8
025
 10
355.824742
 20
111.637226
 30
0.0
 42
0.030317
  0
VERTEX
  5
A88
  8
025
 10
356.173671
 20
111.658402
 30
0.0
 42
0.041229
  0
VERTEX
  5
A89
  8
025
 10
356.425606
 20
111.710428
 30
0.0
 42
0.083039
  0
VERTEX
  5
A8A
  8
025
 10
356.635933
 20
111.812481
 30
0.0
 42
0.186877
  0
VERTEX
  5
A8B
  8
025
 10
356.672397
 20
111.867671
 30
0.0
 42
0.242955
  0
SEQEND
  5
A8C
  8
025
  0
POLYLINE
  5
70A
  8
025
 66
     1
 10
0.0
 20
0.0
 30
0.0
  0
VERTEX
  5
A8D
  8
025
 10
354.977061
 20
111.906514
 30
0.0
 42
0.053304
  0
VERTEX
  5
A8E
  8
025
 10
354.974991
 20
111.887153
 30
0.0
 42
0.242955
  0
SEQEND
  5
A8F
  8
025
  0
LINE
  5
70B
  8
025
 10
355.100206
 20
112.461984
 30
0.0
 11
355.64866
 21
112.461984
 31
0.0
  0
LINE
  5
70C
  8
025
 10
356.672397
 20
111.867671
 30
0.0
 11
356.804153
 21
112.461984
 31
0.0
  0
LINE
  5
70D
  8
025
 10
356.142061
 20
111.949378
 30
0.0
 11
356.255703
 21
112.461984
 31
0.0
  0
LINE
  5
70E
  8
025
 10
355.540767
 20
111.97531
 30
0.0
 11
355.64866
 21
112.461984
 31
0.0
  0
LINE
  5
70F
  8
025
 10
354.977061
 20
111.906514
 30
0.0
 11
355.100206
 21
112.461984
 31
0.0
  0
LINE
  5
710
  8
025
 10
354.80817
 20
112.27204
 30
0.0
 11
354.850279
 21
112.461984
 31
0.0
  0
LINE
  5
711
  8
025
 10
353.832961
 20
112.157073
 30
0.0
 11
353.858448
 21
112.27204
 31
0.0
  0
LINE
  5
712
  8
025
 10
353.790851
 20
111.967129
 30
0.0
 11
354.665595
 21
111.967129
 31
0.0
  0
LINE
  5
713
  8
025
 10
353.832961
 20
112.157073
 30
0.0
 11
354.707704
 21
112.157073
 31
0.0
  0
LINE
  5
714
  8
025
 10
353.858448
 20
112.27204
 30
0.0
 11
354.80817
 21
112.27204
 31
0.0
  0
LINE
  5
715
  8
025
 10
353.765364
 20
111.852163
 30
0.0
 11
354.715085
 21
111.852163
 31
0.0
  0
LINE
  5
716
  8
025
 10
354.672976
 20
111.662219
 30
0.0
 11
354.715085
 21
111.852163
 31
0.0
  0
LINE
  5
717
  8
025
 10
354.665595
 20
111.967129
 30
0.0
 11
354.707704
 21
112.157073
 31
0.0
  0
LINE
  5
718
  8
025
 10
353.765364
 20
111.852163
 30
0.0
 11
353.790851
 21
111.967129
 31
0.0
  0
ARC
  5
719
  8
035
 10
351.349087
 20
126.687608
 30
0.0
 40
6.0
 50
242.465414
 51
288.676049
  0
ARC
  5
71A
  8
035
 10
347.373445
 20
119.061714
 30
0.0
 40
2.6
 50
62.465414
 51
214.346556
  0
CIRCLE
  5
71B
  8
035
 10
347.373445
 20
119.061714
 30
0.0
 40
1.4
  0
CIRCLE
  5
71C
  8
035
 10
347.373445
 20
119.061714
 30
0.0
 40
1.1
  0
ARC
  5
71D
  8
035
 10
340.27294
 20
114.209618
 30
0.0
 40
6.0
 50
360.0
 51
34.346556
  0
ARC
  5
71E
  8
035
 10
334.27294
 20
109.162219
 30
0.0
 40
11.8
 50
30.25675
 51
49.74325
  0
ARC
  5
71F
  8
035
 10
345.07294
 20
115.047588
 30
0.0
 40
0.2
 50
0.0
 51
28.587806
  0
LINE
  5
720
  8
035
 10
345.008737
 20
115.563784
 30
0.0
 11
343.765115
 21
114.520261
 31
0.0
  0
ARC
  5
721
  8
035
 10
353.503508
 20
118.262432
 30
0.0
 40
0.25
 50
226.746295
 51
112.5
  0
ARC
  5
722
  8
035
 10
353.484374
 20
118.308626
 30
0.0
 40
0.2
 50
264.110395
 51
112.5
  0
LINE
  5
723
  8
035
 10
353.266379
 20
118.050974
 30
0.0
 11
352.786258
 21
119.210088
 31
0.0
  0
ARC
  5
724
  8
035
 10
353.363719
 20
119.122539
 30
0.0
 40
0.2
 50
111.428988
 51
202.5
  0
LINE
  5
725
  8
035
 10
353.407837
 20
118.493402
 30
0.0
 11
353.063422
 21
119.324894
 31
0.0
  0
ARC
  5
726
  8
035
 10
353.443329
 20
117.910737
 30
0.0
 40
0.2
 50
84.110395
 51
113.641106
  0
ARC
  5
727
  8
035
 10
351.64594
 20
117.908468
 30
0.0
 40
0.5
 50
30.0
 51
122.755667
  0
ARC
  5
728
  8
035
 10
357.27294
 20
109.162218
 30
0.0
 40
11.0
 50
112.499998
 51
119.999998
  0
LINE
  5
729
  8
035
 10
352.154041
 20
118.028411
 30
0.0
 11
351.77294
 21
118.688498
 31
0.0
  0
ARC
  5
72A
  8
035
 10
351.721029
 20
117.778411
 30
0.0
 40
0.5
 50
302.796026
 51
30.0
  0
LINE
  5
72B
  8
035
 10
353.618313
 20
117.985268
 30
0.0
 11
353.599179
 21
118.031462
 31
0.0
  0
LINE
  5
72C
  8
035
 10
354.22294
 20
117.256661
 30
0.0
 11
354.452131
 21
116.648408
 31
0.0
  0
ARC
  5
72D
  8
035
 10
357.27294
 20
109.162219
 30
0.0
 40
12.499495
 50
90.0
 51
108.676048
  0
LINE
  5
72E
  8
035
 10
368.27294
 20
104.114819
 30
0.0
 11
368.27294
 21
115.047588
 31
0.0
  0
LINE
  5
72F
  8
035
 10
363.72294
 20
107.412219
 30
0.0
 11
363.72294
 21
108.062219
 31
0.0
  0
LINE
  5
730
  8
MITTE
 10
361.32294
 20
110.462219
 30
0.0
 11
361.32294
 21
107.862219
 31
0.0
  0
LINE
  5
731
  8
035
 10
359.47294
 20
105.362219
 30
0.0
 11
359.47294
 21
105.062219
 31
0.0
  0
LINE
  5
732
  8
035
 10
358.453448
 20
105.062219
 30
0.0
 11
359.47294
 21
105.062219
 31
0.0
  0
LINE
  5
733
  8
035
 10
358.453448
 20
105.362219
 30
0.0
 11
359.47294
 21
105.362219
 31
0.0
  0
LINE
  5
734
  8
035
 10
365.079188
 20
107.412219
 30
0.0
 11
363.72294
 21
107.412219
 31
0.0
  0
CIRCLE
  5
735
  8
025
 10
361.32294
 20
109.162219
 30
0.0
 40
1.19
  0
LINE
  5
736
  8
025
 10
361.346018
 20
111.662219
 30
0.0
 11
361.870864
 21
111.662219
 31
0.0
  0
LINE
  5
737
  8
025
 10
361.523322
 20
112.461984
 30
0.0
 11
362.048168
 21
112.461984
 31
0.0
  0
LINE
  5
738
  8
035
 10
360.142432
 20
109.012219
 30
0.0
 11
359.12294
 21
109.012219
 31
0.0
  0
LINE
  5
739
  8
035
 10
360.142432
 20
109.312219
 30
0.0
 11
359.12294
 21
109.312219
 31
0.0
  0
LINE
  5
73A
  8
035
 10
359.12294
 20
109.312219
 30
0.0
 11
359.12294
 21
109.012219
 31
0.0
  0
LINE
  5
73B
  8
025
 10
361.346018
 20
111.662219
 30
0.0
 11
361.523322
 21
112.461984
 31
0.0
  0
LINE
  5
73C
  8
025
 10
360.648578
 20
112.461984
 30
0.0
 11
361.198417
 21
112.461984
 31
0.0
  0
LINE
  5
73D
  8
025
 10
360.471275
 20
111.662219
 30
0.0
 11
361.021113
 21
111.662219
 31
0.0
  0
LINE
  5
73E
  8
025
 10
361.021113
 20
111.662219
 30
0.0
 11
361.198417
 21
112.461984
 31
0.0
  0
LINE
  5
73F
  8
025
 10
360.471275
 20
111.662219
 30
0.0
 11
360.648578
 21
112.461984
 31
0.0
  0
POLYLINE
  5
740
  8
025
 66
     1
 10
0.0
 20
0.0
 30
0.0
  0
VERTEX
  5
A90
  8
025
 10
359.661038
 20
111.872443
 30
0.0
 42
0.082344
  0
VERTEX
  5
A91
  8
025
 10
359.660097
 20
111.882065
 30
0.0
 42
0.153048
  0
VERTEX
  5
A92
  8
025
 10
359.650625
 20
111.896989
 30
0.0
 42
0.106894
  0
VERTEX
  5
A93
  8
025
 10
359.628538
 20
111.908729
 30
0.0
 42
0.067948
  0
VERTEX
  5
A94
  8
025
 10
359.604269
 20
111.912145
 30
0.0
 42
0.060506
  0
SEQEND
  5
A95
  8
025
  0
POLYLINE
  5
741
  8
025
 66
     1
 10
0.0
 20
0.0
 30
0.0
  0
VERTEX
  5
A96
  8
025
 10
359.596454
 20
112.10209
 30
0.0
 42
0.065514
  0
VERTEX
  5
A97
  8
025
 10
359.654549
 20
112.10994
 30
0.0
 42
0.060566
  0
VERTEX
  5
A98
  8
025
 10
359.704809
 20
112.130176
 30
0.0
 42
0.073981
  0
VERTEX
  5
A99
  8
025
 10
359.740144
 20
112.15712
 30
0.0
 42
0.106894
  0
VERTEX
  5
A9A
  8
025
 10
359.762241
 20
112.19247
 30
0.0
 42
0.153048
  0
VERTEX
  5
A9B
  8
025
 10
359.763476
 20
112.221905
 30
0.0
 42
0.153048
  0
VERTEX
  5
A9C
  8
025
 10
359.747689
 20
112.24678
 30
0.0
 42
0.106894
  0
VERTEX
  5
A9D
  8
025
 10
359.710878
 20
112.266345
 30
0.0
 42
0.067948
  0
VERTEX
  5
A9E
  8
025
 10
359.670429
 20
112.27204
 30
0.0
 42
0.060506
  0
SEQEND
  5
A9F
  8
025
  0
POLYLINE
  5
742
  8
025
 66
     1
 10
0.0
 20
0.0
 30
0.0
  0
VERTEX
  5
AA0
  8
025
 10
360.168187
 20
112.020518
 30
0.0
 42
0.015369
  0
VERTEX
  5
AA1
  8
025
 10
360.204782
 20
112.039247
 30
0.0
 42
0.073981
  0
VERTEX
  5
AA2
  8
025
 10
360.310078
 20
112.119536
 30
0.0
 42
0.106894
  0
VERTEX
  5
AA3
  8
025
 10
360.375923
 20
112.224874
 30
0.0
 42
0.153048
  0
VERTEX
  5
AA4
  8
025
 10
360.379604
 20
112.312589
 30
0.0
 42
0.153048
  0
VERTEX
  5
AA5
  8
025
 10
360.332559
 20
112.386712
 30
0.0
 42
0.106894
  0
VERTEX
  5
AA6
  8
025
 10
360.222866
 20
112.445015
 30
0.0
 42
0.067948
  0
VERTEX
  5
AA7
  8
025
 10
360.102335
 20
112.461984
 30
0.0
 42
0.060566
  0
SEQEND
  5
AA8
  8
025
  0
POLYLINE
  5
743
  8
025
 66
     1
 10
0.0
 20
0.0
 30
0.0
  0
VERTEX
  5
AA9
  8
025
 10
360.215231
 20
111.93216
 30
0.0
 42
0.084831
  0
VERTEX
  5
AAA
  8
025
 10
360.212376
 20
111.962931
 30
0.0
 42
0.153048
  0
VERTEX
  5
AAB
  8
025
 10
360.182972
 20
112.009257
 30
0.0
 42
0.025315
  0
VERTEX
  5
AAC
  8
025
 10
360.168187
 20
112.020518
 30
0.0
 42
0.067948
  0
SEQEND
  5
AAD
  8
025
  0
LINE
  5
744
  8
025
 10
359.670243
 20
111.662219
 30
0.0
 11
360.226896
 21
111.662219
 31
0.0
  0
ARC
  5
745
  8
025
 10
359.771314
 20
111.727559
 30
0.0
 40
0.120353
 50
180.772005
 51
212.881875
  0
ARC
  5
746
  8
025
 10
360.326867
 20
111.737197
 30
0.0
 40
0.124963
 50
176.0
 51
216.869898
  0
LINE
  5
747
  8
025
 10
359.206879
 20
112.27204
 30
0.0
 11
359.670429
 21
112.27204
 31
0.0
  0
LINE
  5
748
  8
025
 10
359.169202
 20
112.10209
 30
0.0
 11
359.206879
 21
112.27204
 31
0.0
  0
LINE
  5
749
  8
025
 10
359.169202
 20
112.10209
 30
0.0
 11
359.596454
 21
112.10209
 31
0.0
  0
LINE
  5
74A
  8
025
 10
359.127093
 20
111.912145
 30
0.0
 11
359.604269
 21
111.912145
 31
0.0
  0
LINE
  5
74B
  8
025
 10
359.650972
 20
111.725938
 30
0.0
 11
359.661038
 21
111.872443
 31
0.0
  0
LINE
  5
74C
  8
025
 10
360.202208
 20
111.745914
 30
0.0
 11
360.215231
 21
111.93216
 31
0.0
  0
LINE
  5
74D
  8
025
 10
358.69915
 20
112.461984
 30
0.0
 11
360.102335
 21
112.461984
 31
0.0
  0
LINE
  5
74E
  8
025
 10
358.521846
 20
111.662219
 30
0.0
 11
359.071685
 21
111.662219
 31
0.0
  0
LINE
  5
74F
  8
025
 10
359.071685
 20
111.662219
 30
0.0
 11
359.127093
 21
111.912145
 31
0.0
  0
LINE
  5
750
  8
025
 10
358.521846
 20
111.662219
 30
0.0
 11
358.69915
 21
112.461984
 31
0.0
  0
LINE
  5
751
  8
025
 10
357.95503
 20
112.262043
 30
0.0
 11
358.479876
 21
112.262043
 31
0.0
  0
LINE
  5
752
  8
025
 10
358.479876
 20
112.262043
 30
0.0
 11
358.524202
 21
112.461984
 31
0.0
  0
LINE
  5
753
  8
025
 10
357.822052
 20
111.662219
 30
0.0
 11
357.95503
 21
112.262043
 31
0.0
  0
LINE
  5
754
  8
035
 10
364.32294
 20
108.662219
 30
0.0
 11
363.72294
 21
108.062219
 31
0.0
  0
LINE
  5
755
  8
035
 10
363.72294
 20
110.262219
 30
0.0
 11
363.72294
 21
110.912219
 31
0.0
  0
LINE
  5
756
  8
035
 10
364.32294
 20
109.662219
 30
0.0
 11
364.32294
 21
108.662219
 31
0.0
  0
LINE
  5
757
  8
035
 10
364.32294
 20
109.662219
 30
0.0
 11
363.72294
 21
110.262219
 31
0.0
  0
LINE
  5
758
  8
035
 10
363.52294
 20
109.312219
 30
0.0
 11
363.52294
 21
109.012219
 31
0.0
  0
LINE
  5
759
  8
035
 10
362.503448
 20
109.012219
 30
0.0
 11
363.52294
 21
109.012219
 31
0.0
  0
LINE
  5
75A
  8
035
 10
362.503448
 20
109.312219
 30
0.0
 11
363.52294
 21
109.312219
 31
0.0
  0
LINE
  5
75B
  8
035
 10
365.079188
 20
110.912219
 30
0.0
 11
363.72294
 21
110.912219
 31
0.0
  0
LINE
  5
75C
  8
025
 10
362.445695
 20
111.662219
 30
0.0
 11
363.195475
 21
111.662219
 31
0.0
  0
LINE
  5
75D
  8
025
 10
361.988197
 20
112.191475
 30
0.0
 11
362.048168
 21
112.461984
 31
0.0
  0
LINE
  5
75E
  8
025
 10
362.677642
 20
112.187065
 30
0.0
 11
363.322794
 21
112.461984
 31
0.0
  0
LINE
  5
75F
  8
025
 10
362.677642
 20
112.187065
 30
0.0
 11
363.195475
 21
111.662219
 31
0.0
  0
LINE
  5
760
  8
025
 10
362.149791
 20
111.962131
 30
0.0
 11
362.445695
 21
111.662219
 31
0.0
  0
LINE
  5
761
  8
025
 10
362.622999
 20
112.461984
 30
0.0
 11
363.322794
 21
112.461984
 31
0.0
  0
LINE
  5
762
  8
025
 10
361.988197
 20
112.191475
 30
0.0
 11
362.622999
 21
112.461984
 31
0.0
  0
LINE
  5
763
  8
025
 10
361.91519
 20
111.86216
 30
0.0
 11
362.149791
 21
111.962131
 31
0.0
  0
LINE
  5
764
  8
025
 10
361.870864
 20
111.662219
 30
0.0
 11
361.91519
 21
111.86216
 31
0.0
  0
LINE
  5
765
  8
035
 10
368.126972
 20
108.162219
 30
0.0
 11
368.27294
 21
108.162219
 31
0.0
  0
LINE
  5
766
  8
035
 10
369.07294
 20
108.662219
 30
0.0
 11
369.27294
 21
108.862219
 31
0.0
  0
LINE
  5
767
  8
035
 10
368.27294
 20
109.662219
 30
0.0
 11
369.27294
 21
109.662219
 31
0.0
  0
LINE
  5
768
  8
035
 10
368.27294
 20
108.662219
 30
0.0
 11
369.07294
 21
108.662219
 31
0.0
  0
LINE
  5
769
  8
035
 10
369.07294
 20
108.662219
 30
0.0
 11
369.07294
 21
109.662219
 31
0.0
  0
LINE
  5
76A
  8
035
 10
369.27294
 20
108.862219
 30
0.0
 11
369.27294
 21
109.662219
 31
0.0
  0
ARC
  5
76B
  8
035
 10
357.27294
 20
109.162219
 30
0.0
 40
11.8
 50
30.25675
 51
49.74325
  0
ARC
  5
76C
  8
035
 10
357.27294
 20
109.162218
 30
0.0
 40
11.0
 50
60.000002
 51
67.500002
  0
ARC
  5
76D
  8
035
 10
361.182161
 20
119.122539
 30
0.0
 40
0.2
 50
337.5
 51
68.571012
  0
LINE
  5
76E
  8
035
 10
360.927567
 20
117.985268
 30
0.0
 11
360.946701
 21
118.031462
 31
0.0
  0
ARC
  5
76F
  8
035
 10
361.042372
 20
118.262432
 30
0.0
 40
0.25
 50
67.5
 51
313.253705
  0
LINE
  5
770
  8
035
 10
361.138043
 20
118.493402
 30
0.0
 11
361.482458
 21
119.324894
 31
0.0
  0
ARC
  5
771
  8
035
 10
361.061506
 20
118.308626
 30
0.0
 40
0.2
 50
67.5
 51
275.889605
  0
ARC
  5
772
  8
035
 10
361.102551
 20
117.910737
 30
0.0
 40
0.2
 50
66.358894
 51
95.889605
  0
LINE
  5
773
  8
035
 10
361.279501
 20
118.050974
 30
0.0
 11
361.759622
 21
119.210088
 31
0.0
  0
LINE
  5
774
  8
035
 10
360.32294
 20
117.256661
 30
0.0
 11
360.093749
 21
116.648408
 31
0.0
  0
LINE
  5
775
  8
035
 10
365.441502
 20
118.623295
 30
0.0
 11
364.19788
 21
117.579772
 31
0.0
  0
LINE
  5
776
  8
035
 10
362.391839
 20
118.028411
 30
0.0
 11
362.77294
 21
118.688498
 31
0.0
  0
ARC
  5
777
  8
035
 10
362.824852
 20
117.778411
 30
0.0
 40
0.5
 50
150.0
 51
237.203974
  0
ARC
  5
778
  8
035
 10
362.89994
 20
117.908468
 30
0.0
 40
0.5
 50
57.244333
 51
150.0
  0
ARC
  5
779
  8
035
 10
362.788373
 20
114.677652
 30
0.0
 40
1.0
 50
322.958832
 51
127.041168
  0
ARC
  5
77A
  8
035
 10
368.07294
 20
115.047588
 30
0.0
 40
0.2
 50
0.0
 51
28.587806
  0
LINE
  5
77B
  8
035
 10
368.008737
 20
115.563784
 30
0.0
 11
366.765115
 21
114.520261
 31
0.0
  0
SOLID
  5
77C
  8
BEM1
 10
353.77294
 20
127.738187
 30
0.0
 11
353.77294
 21
128.904854
 31
0.0
 12
357.27294
 22
128.321521
 32
0.0
 13
357.27294
 23
128.321521
 33
0.0
  0
LINE
  5
77D
  8
05
 10
341.706415
 20
203.0
 30
0.0
 11
338.64794
 21
203.0
 31
0.0
  0
LINE
  5
77E
  8
05
 10
341.706415
 20
203.9
 30
0.0
 11
338.64794
 21
203.9
 31
0.0
  0
ARC
  5
77F
  8
05
 10
345.24794
 20
215.3
 30
0.0
 40
32.7
 50
68.571012
 51
111.428988
  0
ARC
  5
780
  8
05
 10
345.24794
 20
215.3
 30
0.0
 40
33.0
 50
67.5
 51
112.5
  0
ARC
  5
781
  8
05
 10
345.24794
 20
215.3
 30
0.0
 40
37.498485
 50
90.0
 51
108.676048
  0
ARC
  5
782
  8
05
 10
345.24794
 20
215.3
 30
0.0
 40
29.25
 50
113.641106
 51
66.358894
  0
ARC
  5
783
  8
05
 10
345.24794
 20
215.3
 30
0.0
 40
32.7
 50
122.755667
 51
57.244333
  0
TEXT
  5
784
  8
BEM1
 62
     3
 10
333.435761
 20
273.316062
 30
0.0
 40
3.5
  1
25.00 [0.984"]
 41
0.7
 51
15.0
  0
LINE
  5
785
  8
MITTE
 10
338.068022
 20
203.45
 30
0.0
 11
352.467197
 21
203.45
 31
0.0
  0
ARC
  5
786
  8
035
 10
345.24794
 20
215.3
 30
0.0
 40
24.75
 50
72.494437
 51
107.44911
  0
LINE
  5
787
  8
05
 10
374.946425
 20
177.801516
 30
0.0
 11
329.64794
 21
177.801516
 31
0.0
  0
ARC
  5
788
  8
05
 10
345.24794
 20
215.3
 30
0.0
 40
24.0
 50
110.646496
 51
37.88877
  0
LINE
  5
789
  8
05
 10
337.335104
 20
236.3
 30
0.0
 11
353.160776
 21
236.3
 31
0.0
  0
LINE
  5
78A
  8
MITTE
 10
382.410464
 20
215.3
 30
0.0
 11
308.411408
 21
215.3
 31
0.0
  0
POLYLINE
  5
78B
  8
035
 66
     1
 10
0.0
 20
0.0
 30
0.0
  0
VERTEX
  5
AAE
  8
035
 10
338.354094
 20
221.974802
 30
0.0
 42
0.242955
  0
VERTEX
  5
AAF
  8
035
 10
338.469773
 20
221.750789
 30
0.0
 42
0.083039
  0
VERTEX
  5
AB0
  8
035
 10
339.100752
 20
221.444628
 30
0.0
 42
0.041229
  0
VERTEX
  5
AB1
  8
035
 10
339.85656
 20
221.288551
 30
0.0
 42
0.030317
  0
VERTEX
  5
AB2
  8
035
 10
340.903346
 20
221.225022
 30
0.0
 42
0.030317
  0
VERTEX
  5
AB3
  8
035
 10
341.950132
 20
221.288551
 30
0.0
 42
0.041229
  0
VERTEX
  5
AB4
  8
035
 10
342.705939
 20
221.444628
 30
0.0
 42
0.083039
  0
VERTEX
  5
AB5
  8
035
 10
343.336919
 20
221.750789
 30
0.0
 42
0.186877
  0
VERTEX
  5
AB6
  8
035
 10
343.44631
 20
221.916357
 30
0.0
 42
0.242955
  0
SEQEND
  5
AB7
  8
035
  0
POLYLINE
  5
78C
  8
035
 66
     1
 10
0.0
 20
0.0
 30
0.0
  0
VERTEX
  5
AB8
  8
035
 10
340.04681
 20
222.199736
 30
0.0
 42
0.199105
  0
VERTEX
  5
AB9
  8
035
 10
340.097223
 20
222.078156
 30
0.0
 42
0.098437
  0
VERTEX
  5
ABA
  8
035
 10
340.312289
 20
221.934649
 30
0.0
 42
0.055684
  0
VERTEX
  5
ABB
  8
035
 10
340.584006
 20
221.856244
 30
0.0
 42
0.042444
  0
VERTEX
  5
ABC
  8
035
 10
340.953213
 20
221.824846
 30
0.0
 42
0.042444
  0
VERTEX
  5
ABD
  8
035
 10
341.322421
 20
221.856244
 30
0.0
 42
0.055684
  0
VERTEX
  5
ABE
  8
035
 10
341.594138
 20
221.934649
 30
0.0
 42
0.098437
  0
VERTEX
  5
ABF
  8
035
 10
341.809204
 20
222.078156
 30
0.0
 42
0.141327
  0
VERTEX
  5
AC0
  8
035
 10
341.855304
 20
222.161479
 30
0.0
 42
0.199105
  0
SEQEND
  5
AC1
  8
035
  0
CIRCLE
  5
78D
  8
035
 62
     4
 10
345.24794
 20
230.671513
 30
0.0
 40
4.5
  0
INSERT
  5
78E
  8
035
 62
     4
  2
*X4
 10
275.991751
 20
-28.419521
 30
0.0
 41
1.285714
 42
1.285714
 43
1.285714
  0
ARC
  5
7C6
  8
05
 10
345.24794
 20
215.3
 30
0.0
 40
25.95
 50
69.353504
 51
110.646496
  0
LINE
  5
7C7
  8
05
 10
350.49794
 20
196.25
 30
0.0
 11
339.99794
 21
196.25
 31
0.0
  0
LINE
  5
7C8
  8
BEM1
 10
319.049455
 20
264.179096
 30
0.0
 11
371.446425
 21
264.179096
 31
0.0
  0
LINE
  5
7C9
  8
BEM1
 10
311.249455
 20
271.566062
 30
0.0
 11
379.246425
 21
271.566062
 31
0.0
  0
LINE
  5
7CA
  8
BEM1
 10
365.427137
 20
185.601516
 30
0.0
 11
298.372122
 21
185.601516
 31
0.0
  0
ARC
  5
7CB
  8
05
 10
315.549455
 20
244.998485
 30
0.0
 40
7.8
 50
62.465414
 51
214.346556
  0
ARC
  5
7CC
  8
05
 10
328.592206
 20
241.148579
 30
0.0
 40
1.5
 50
302.796026
 51
30.0
  0
CIRCLE
  5
7CD
  8
05
 10
315.549455
 20
244.998485
 30
0.0
 40
4.2
  0
LINE
  5
7CE
  8
MITTE
 10
315.549455
 20
251.719835
 30
0.0
 11
315.549455
 21
237.919835
 31
0.0
  0
LINE
  5
7CF
  8
BEM1
 10
290.525297
 20
249.298485
 30
0.0
 11
290.525297
 21
181.301516
 31
0.0
  0
LINE
  5
7D0
  8
BEM1
 10
299.172122
 20
241.498485
 30
0.0
 11
299.172122
 21
189.101516
 31
0.0
  0
LINE
  5
7D1
  8
BEM1
 10
231.38283
 20
236.588545
 30
0.0
 11
231.38283
 21
264.979096
 31
0.0
  0
LINE
  5
7D2
  8
BEM1
 10
231.38283
 20
236.588545
 30
0.0
 11
231.38283
 21
264.979096
 31
0.0
  0
LINE
  5
7D3
  8
035
 10
229.110546
 20
186.6738
 30
0.0
 11
230.58545
 21
196.4
 31
0.0
  0
LINE
  5
7D4
  8
035
 10
226.739265
 20
189.045081
 30
0.0
 11
227.854582
 21
196.4
 31
0.0
  0
LINE
  5
7D5
  8
035
 10
227.122441
 20
196.4
 30
0.0
 11
226.49294
 21
189.291406
 31
0.0
  0
LINE
  5
7D6
  8
05
 10
225.38283
 20
198.95
 30
0.0
 11
225.38283
 21
186.721162
 31
0.0
  0
LINE
  5
7D7
  8
05
 10
219.38283
 20
198.8
 30
0.0
 11
219.38283
 21
186.721162
 31
0.0
  0
LINE
  5
7D8
  8
BEM1
 10
242.926842
 20
167.301516
 30
0.0
 11
214.272646
 21
167.301516
 31
0.0
  0
LINE
  5
7D9
  8
035
 10
213.38283
 20
168.5
 30
0.0
 11
213.38283
 21
179.301516
 31
0.0
  0
LINE
  5
7DA
  8
035
 10
210.98283
 20
168.5
 30
0.0
 11
210.98283
 21
179.301516
 31
0.0
  0
LINE
  5
7DB
  8
035
 10
228.77283
 20
177.8
 30
0.0
 11
228.77283
 21
168.65
 31
0.0
  0
LINE
  5
7DC
  8
035
 10
226.07283
 20
177.8
 30
0.0
 11
226.07283
 21
168.65
 31
0.0
  0
LINE
  5
7DD
  8
BEM1
 10
241.81774
 20
162.046733
 30
0.0
 11
241.81774
 21
193.238066
 31
0.0
  0
TEXT
  5
7DE
  8
BEM1
 62
     3
 10
240.06774
 20
168.388599
 30
0.0
 40
3.5
  1
3.50 [0.138"]
 50
90.0
 41
0.7
 51
15.0
  0
ARC
  5
7DF
  8
035
 10
227.42283
 20
168.65
 30
0.0
 40
1.35
 50
180.0
 51
0.0
  0
ARC
  5
7E0
  8
035
 10
212.18283
 20
168.5
 30
0.0
 40
1.2
 50
180.0
 51
0.0
  0
SOLID
  5
7E1
  8
BEM1
 10
242.401074
 20
163.801516
 30
0.0
 11
241.234407
 21
163.801516
 31
0.0
 12
241.81774
 22
167.301516
 32
0.0
 13
241.81774
 23
167.301516
 33
0.0
  0
LINE
  5
7E2
  8
05
 10
219.38283
 20
177.8
 30
0.0
 11
231.38283
 21
177.8
 31
0.0
  0
LINE
  5
7E3
  8
05
 10
231.38283
 20
184.401516
 30
0.0
 11
225.38283
 21
190.401516
 31
0.0
  0
LINE
  5
7E4
  8
05
 10
219.38283
 20
184.401516
 30
0.0
 11
231.38283
 21
184.401516
 31
0.0
  0
LINE
  5
7E5
  8
05
 10
219.38283
 20
184.401516
 30
0.0
 11
219.38283
 21
177.8
 31
0.0
  0
LINE
  5
7E6
  8
05
 10
219.38283
 20
186.721162
 30
0.0
 11
225.38283
 21
186.721162
 31
0.0
  0
LINE
  5
7E7
  8
05
 10
231.38283
 20
184.401516
 30
0.0
 11
231.38283
 21
177.8
 31
0.0
  0
LINE
  5
7E8
  8
BEM1
 10
235.874805
 20
177.801516
 30
0.0
 11
229.372356
 21
177.801516
 31
0.0
  0
LINE
  5
7E9
  8
BEM1
 10
242.501971
 20
177.801516
 30
0.0
 11
240.805937
 21
177.801516
 31
0.0
  0
SOLID
  5
7EA
  8
BEM1
 10
242.401074
 20
181.301516
 30
0.0
 11
241.234407
 21
181.301516
 31
0.0
 12
241.81774
 22
177.801516
 32
0.0
 13
241.81774
 23
177.801516
 33
0.0
  0
LINE
  5
7EB
  8
05
 10
231.38283
 20
225.575
 30
0.0
 11
231.38283
 21
217.175
 31
0.0
  0
LINE
  5
7EC
  8
05
 10
225.47283
 20
204.425
 30
0.0
 11
230.78283
 21
204.425
 31
0.0
  0
LINE
  5
7ED
  8
05
 10
225.47283
 20
201.875
 30
0.0
 11
230.78283
 21
201.875
 31
0.0
  0
LINE
  5
7EE
  8
05
 10
225.47283
 20
216.575
 30
0.0
 11
230.78283
 21
216.575
 31
0.0
  0
LINE
  5
7EF
  8
05
 10
225.47283
 20
214.025
 30
0.0
 11
230.78283
 21
214.025
 31
0.0
  0
LINE
  5
7F0
  8
MITTE
 10
222.797575
 20
203.15
 30
0.0
 11
232.675324
 21
203.15
 31
0.0
  0
LINE
  5
7F1
  8
05
 10
225.38283
 20
196.4
 30
0.0
 11
231.38283
 21
196.4
 31
0.0
  0
LINE
  5
7F2
  8
05
 10
219.38283
 20
197.210224
 30
0.0
 11
225.38283
 21
197.210224
 31
0.0
  0
LINE
  5
7F3
  8
05
 10
224.87283
 20
204.65
 30
0.0
 11
224.87283
 21
201.65
 31
0.0
  0
LINE
  5
7F4
  8
05
 10
225.98283
 20
204.425
 30
0.0
 11
225.98283
 21
201.875
 31
0.0
  0
ARC
  5
7F5
  8
05
 10
225.47283
 20
203.825
 30
0.0
 40
0.6
 50
90.0
 51
180.0
  0
ARC
  5
7F6
  8
05
 10
225.47283
 20
202.475
 30
0.0
 40
0.6
 50
180.0
 51
270.0
  0
LINE
  5
7F7
  8
05
 10
224.87283
 20
215.975
 30
0.0
 11
224.87283
 21
215.75
 31
0.0
  0
LINE
  5
7F8
  8
05
 10
225.98283
 20
216.575
 30
0.0
 11
225.98283
 21
214.025
 31
0.0
  0
ARC
  5
7F9
  8
05
 10
225.47283
 20
215.975
 30
0.0
 40
0.6
 50
90.0
 51
180.0
  0
ARC
  5
7FA
  8
05
 10
225.47283
 20
214.625
 30
0.0
 40
0.6
 50
180.0
 51
270.0
  0
LINE
  5
7FB
  8
05
 10
224.87283
 20
214.85
 30
0.0
 11
224.87283
 21
214.625
 31
0.0
  0
LINE
  5
7FC
  8
05
 10
231.38283
 20
213.425
 30
0.0
 11
231.38283
 21
205.025
 31
0.0
  0
LINE
  5
7FD
  8
05
 10
231.38283
 20
201.275
 30
0.0
 11
231.38283
 21
196.4
 31
0.0
  0
LINE
  5
7FE
  8
035
 10
230.479577
 20
203.701338
 30
0.0
 11
230.54366
 21
204.425
 31
0.0
  0
ARC
  5
7FF
  8
035
 10
228.021099
 20
201.5
 30
0.0
 40
3.3
 50
0.704674
 51
62.419801
  0
ARC
  5
800
  8
035
 10
228.021099
 20
201.5
 30
0.0
 40
0.6
 50
38.682187
 51
90.0
  0
LINE
  5
801
  8
035
 10
228.021099
 20
202.1
 30
0.0
 11
227.631388
 21
201.875
 31
0.0
  0
LINE
  5
802
  8
035
 10
228.021099
 20
202.1
 30
0.0
 11
228.021099
 21
204.425
 31
0.0
  0
ARC
  5
803
  8
05
 10
230.78283
 20
205.025
 30
0.0
 40
0.6
 50
270.0
 51
0.0
  0
ARC
  5
804
  8
05
 10
230.78283
 20
201.275
 30
0.0
 40
0.6
 50
0.0
 51
90.0
  0
ARC
  5
805
  8
035
 10
228.021099
 20
213.35
 30
0.0
 40
3.3
 50
11.802892
 51
77.761244
  0
LINE
  5
806
  8
035
 10
228.021099
 20
214.025
 30
0.0
 11
228.021099
 21
216.575
 31
0.0
  0
ARC
  5
807
  8
05
 10
230.78283
 20
217.175
 30
0.0
 40
0.6
 50
270.0
 51
0.0
  0
ARC
  5
808
  8
05
 10
230.78283
 20
213.425
 30
0.0
 40
0.6
 50
0.0
 51
90.0
  0
LINE
  5
809
  8
05
 10
231.38283
 20
217.175
 30
0.0
 11
231.38283
 21
213.009793
 31
0.0
  0
LINE
  5
80A
  8
05
 10
225.47283
 20
228.725
 30
0.0
 11
230.78283
 21
228.725
 31
0.0
  0
LINE
  5
80B
  8
05
 10
225.47283
 20
226.175
 30
0.0
 11
230.78283
 21
226.175
 31
0.0
  0
LINE
  5
80C
  8
MITTE
 10
222.797575
 20
227.45
 30
0.0
 11
232.563148
 21
227.45
 31
0.0
  0
LINE
  5
80D
  8
05
 10
224.87283
 20
228.95
 30
0.0
 11
224.87283
 21
225.95
 31
0.0
  0
LINE
  5
80E
  8
05
 10
225.98283
 20
228.725
 30
0.0
 11
225.98283
 21
226.175
 31
0.0
  0
ARC
  5
80F
  8
05
 10
225.47283
 20
228.125
 30
0.0
 40
0.6
 50
90.0
 51
180.0
  0
ARC
  5
810
  8
05
 10
225.47283
 20
226.775
 30
0.0
 40
0.6
 50
180.0
 51
270.0
  0
LINE
  5
811
  8
035
 62
     3
 10
216.877658
 20
238.922814
 30
0.0
 11
220.127657
 21
238.25
 31
0.0
  0
LINE
  5
812
  8
035
 62
     3
 10
211.204963
 20
241.04
 30
0.0
 11
221.854963
 21
241.04
 31
0.0
  0
LINE
  5
813
  8
05
 10
210.98283
 20
234.2
 30
0.0
 11
210.98283
 21
236.3
 31
0.0
  0
ARC
  5
814
  8
035
 62
     3
 10
211.340649
 20
239.15
 30
0.0
 40
2.1
 50
78.303867
 51
90.0
  0
LINE
  5
815
  8
035
 62
     3
 10
211.766359
 20
241.206398
 30
0.0
 11
212.570136
 21
241.04
 31
0.0
  0
POLYLINE
  5
816
  8
035
 62
     3
 66
     1
 10
0.0
 20
0.0
 30
0.0
  0
VERTEX
  5
AC2
  8
035
 62
     3
 10
211.204963
 20
241.25
 30
0.0
 42
0.038037
  0
VERTEX
  5
AC3
  8
035
 62
     3
 10
211.088998
 20
241.241166
 30
0.0
 42
0.050619
  0
VERTEX
  5
AC4
  8
035
 62
     3
 10
211.004297
 20
241.219247
 30
0.0
 42
0.09395
  0
VERTEX
  5
AC5
  8
035
 62
     3
 10
210.936021
 20
241.178159
 30
0.0
 42
0.213592
  0
VERTEX
  5
AC6
  8
035
 62
     3
 10
210.921179
 20
241.145
 30
0.0
 42
0.213592
  0
SEQEND
  5
AC7
  8
035
 62
     3
  0
POLYLINE
  5
817
  8
035
 62
     3
 66
     1
 10
0.0
 20
0.0
 30
0.0
  0
VERTEX
  5
AC8
  8
035
 62
     3
 10
210.921179
 20
241.145
 30
0.0
 42
0.213592
  0
VERTEX
  5
AC9
  8
035
 62
     3
 10
210.936021
 20
241.111842
 30
0.0
 42
0.09395
  0
VERTEX
  5
ACA
  8
035
 62
     3
 10
211.004297
 20
241.070754
 30
0.0
 42
0.050619
  0
VERTEX
  5
ACB
  8
035
 62
     3
 10
211.088998
 20
241.048835
 30
0.0
 42
0.038037
  0
VERTEX
  5
ACC
  8
035
 62
     3
 10
211.204963
 20
241.04
 30
0.0
 42
0.038037
  0
SEQEND
  5
ACD
  8
035
 62
     3
  0
LINE
  5
818
  8
035
 62
     3
 10
221.854963
 20
241.25
 30
0.0
 11
226.28283
 21
241.25
 31
0.0
  0
LINE
  5
819
  8
035
 62
     3
 10
220.265971
 20
238.922814
 30
0.0
 11
220.127657
 21
238.25
 31
0.0
  0
LINE
  5
81A
  8
035
 62
     3
 10
221.854963
 20
241.25
 30
0.0
 11
221.854963
 21
241.04
 31
0.0
  0
LINE
  5
81B
  8
035
 62
     3
 10
226.28283
 20
240.05
 30
0.0
 11
226.28283
 21
238.922814
 31
0.0
  0
LINE
  5
81C
  8
035
 62
     3
 10
226.28283
 20
241.25
 30
0.0
 11
226.28283
 21
240.05
 31
0.0
  0
LINE
  5
81D
  8
05
 10
231.38283
 20
234.2
 30
0.0
 11
231.38283
 21
229.325
 31
0.0
  0
ARC
  5
81E
  8
05
 10
230.78283
 20
229.325
 30
0.0
 40
0.6
 50
270.0
 51
0.0
  0
ARC
  5
81F
  8
05
 10
230.78283
 20
225.575
 30
0.0
 40
0.6
 50
0.0
 51
90.0
  0
ARC
  5
820
  8
05
 10
345.24794
 20
215.3
 30
0.0
 40
35.4
 50
210.286897
 51
239.713104
  0
ARC
  5
821
  8
05
 10
345.24794
 20
215.300004
 30
0.0
 40
37.498485
 50
208.587806
 51
244.835805
  0
TEXT
  5
822
  8
BEM1
 62
     3
 10
297.351214
 20
194.892984
 30
0.0
 40
3.5
  1
19.80
 50
90.0
 41
0.7
 51
15.0
  0
LINE
  5
823
  8
05
 10
339.99794
 20
191.881258
 30
0.0
 11
339.99794
 21
196.25
 31
0.0
  0
LINE
  5
824
  8
BEM1
 10
326.361083
 20
177.801516
 30
0.0
 11
289.725297
 21
177.801516
 31
0.0
  0
SOLID
  5
825
  8
BEM1
 10
291.10863
 20
181.301516
 30
0.0
 11
289.941963
 21
181.301516
 31
0.0
 12
290.525297
 22
177.801516
 32
0.0
 13
290.525297
 23
177.801516
 33
0.0
  0
SOLID
  5
826
  8
BEM1
 10
299.755455
 20
189.101516
 30
0.0
 11
298.588789
 21
189.101516
 31
0.0
 12
299.172122
 22
185.601516
 32
0.0
 13
299.172122
 23
185.601516
 33
0.0
  0
POLYLINE
  5
827
  8
MITTE
 66
     1
 10
0.0
 20
0.0
 30
0.0
  0
VERTEX
  5
ACE
  8
MITTE
 10
333.323333
 20
166.293628
 30
0.0
  0
VERTEX
  5
ACF
  8
MITTE
 10
332.256791
 20
170.703407
 30
0.0
 42
-0.105039
  0
VERTEX
  5
AD0
  8
MITTE
 10
332.232366
 20
171.575765
 30
0.0
  0
VERTEX
  5
AD1
  8
MITTE
 10
332.548754
 20
173.301516
 30
0.0
  0
SEQEND
  5
AD2
  8
MITTE
  0
LINE
  5
828
  8
MITTE
 10
333.81794
 20
180.706816
 30
0.0
 11
333.81794
 21
170.684091
 31
0.0
  0
ARC
  5
829
  8
035
 10
334.187382
 20
171.248577
 30
0.0
 40
3.3
 50
169.611143
 51
193.596376
  0
LINE
  5
82A
  8
035
 10
333.560235
 20
171.332322
 30
0.0
 11
333.921254
 21
173.301516
 31
0.0
  0
LINE
  5
82B
  8
035
 10
331.855703
 20
166.851516
 30
0.0
 11
334.426922
 21
167.473387
 31
0.0
  0
LINE
  5
82C
  8
035
 10
331.855703
 20
166.851516
 30
0.0
 11
330.979862
 21
170.472811
 31
0.0
  0
ARC
  5
82D
  8
035
 10
334.29794
 20
171.197076
 30
0.0
 40
0.75
 50
169.611143
 51
193.596376
  0
LINE
  5
82E
  8
035
 10
334.426922
 20
167.473387
 30
0.0
 11
333.568958
 21
171.020766
 31
0.0
  0
LINE
  5
82F
  8
05
 10
325.863446
 20
183.200507
 30
0.0
 11
329.374218
 21
186.711279
 31
0.0
  0
LINE
  5
830
  8
05
 10
335.46794
 20
173.301516
 30
0.0
 11
332.16794
 21
173.301516
 31
0.0
  0
LINE
  5
831
  8
05
 10
336.06794
 20
173.901516
 30
0.0
 11
331.56794
 21
173.901516
 31
0.0
  0
LINE
  5
832
  8
05
 10
331.56794
 20
177.801516
 30
0.0
 11
331.56794
 21
173.901516
 31
0.0
  0
LINE
  5
833
  8
035
 10
330.94148
 20
171.843659
 30
0.0
 11
331.56794
 21
175.260713
 31
0.0
  0
LINE
  5
834
  8
05
 10
332.16794
 20
173.301516
 30
0.0
 11
331.56794
 21
173.901516
 31
0.0
  0
LINE
  5
835
  8
05
 10
329.64794
 20
180.817334
 30
0.0
 11
329.64794
 21
177.801516
 31
0.0
  0
ARC
  5
836
  8
05
 10
329.04794
 20
180.817334
 30
0.0
 40
0.6
 50
0.0
 51
64.835805
  0
LINE
  5
837
  8
05
 10
336.06794
 20
177.801516
 30
0.0
 11
336.06794
 21
173.901516
 31
0.0
  0
LINE
  5
838
  8
05
 10
336.06794
 20
173.901516
 30
0.0
 11
335.46794
 21
173.301516
 31
0.0
  0
TEXT
  5
839
  8
BEM1
 62
     3
 10
297.351214
 20
212.712304
 30
0.0
 40
3.5
  1
[0.780"   ]
 50
90.0
 41
0.7
 51
15.0
  0
TEXT
  5
83A
  8
BEM1
 62
     3
 10
288.775297
 20
202.715746
 30
0.0
 40
3.5
  1
25.00 [0.984"]
 50
90.0
 41
0.7
 51
15.0
  0
INSERT
  5
83B
  8
BEM1
  2
3
 10
295.880237
 20
204.836758
 30
0.0
 50
90.0
  0
TEXT
  5
83C
  8
SCHRAFFIERT
 10
296.837855
 20
225.474326
 30
0.0
 40
2.5
  1
%%p0.004
 50
90.0
 41
0.7
 51
15.0
  0
LINE
  5
83D
  8
05
 10
324.09794
 20
216.8
 30
0.0
 11
325.89794
 21
218.6
 31
0.0
  0
LINE
  5
83E
  8
05
 10
312.24794
 20
197.643895
 30
0.0
 11
312.24794
 21
230.4422
 31
0.0
  0
CIRCLE
  5
83F
  8
035
 10
333.09794
 20
215.3
 30
0.0
 40
3.57
  0
LINE
  5
840
  8
MITTE
 10
333.09794
 20
219.2
 30
0.0
 11
333.09794
 21
211.4
 31
0.0
  0
LINE
  5
841
  8
05
 10
324.09794
 20
213.8
 30
0.0
 11
325.89794
 21
212.0
 31
0.0
  0
LINE
  5
842
  8
05
 10
321.829198
 20
210.05
 30
0.0
 11
325.89794
 21
210.05
 31
0.0
  0
LINE
  5
843
  8
05
 10
313.148446
 20
195.915505
 30
0.0
 11
316.659219
 21
199.426279
 31
0.0
  0
ARC
  5
844
  8
05
 10
312.84794
 20
197.643895
 30
0.0
 40
0.6
 50
180.0
 51
208.587806
  0
LINE
  5
845
  8
05
 10
309.99794
 20
213.05
 30
0.0
 11
309.99794
 21
216.95
 31
0.0
  0
LINE
  5
846
  8
05
 10
309.99794
 20
213.05
 30
0.0
 11
309.24794
 21
213.8
 31
0.0
  0
LINE
  5
847
  8
05
 10
309.24794
 20
213.8
 30
0.0
 11
309.24794
 21
216.95
 31
0.0
  0
LINE
  5
848
  8
05
 10
309.24794
 20
214.1
 30
0.0
 11
309.99794
 21
213.770294
 31
0.0
  0
LINE
  5
849
  8
05
 10
312.24794
 20
216.95
 30
0.0
 11
309.24794
 21
216.95
 31
0.0
  0
LINE
  5
84A
  8
05
 10
312.24794
 20
213.05
 30
0.0
 11
309.99794
 21
213.05
 31
0.0
  0
LINE
  5
84B
  8
05
 10
309.99794
 20
213.770294
 30
0.0
 11
312.24794
 21
213.770294
 31
0.0
  0
LINE
  5
84C
  8
05
 10
324.09794
 20
216.8
 30
0.0
 11
324.09794
 21
213.8
 31
0.0
  0
LINE
  5
84D
  8
05
 10
338.64794
 20
203.9
 30
0.0
 11
338.64794
 21
203.0
 31
0.0
  0
LINE
  5
84E
  8
05
 10
339.84794
 20
203.9
 30
0.0
 11
339.84794
 21
203.0
 31
0.0
  0
LINE
  5
84F
  8
05
 10
325.89794
 20
210.05
 30
0.0
 11
325.89794
 21
212.0
 31
0.0
  0
TEXT
  5
850
  8
035
 10
327.740209
 20
207.12711
 30
0.0
 40
4.5
  1
1
  7
HELV
  0
LINE
  5
851
  8
05
 10
329.556415
 20
215.75
 30
0.0
 11
326.49794
 21
215.75
 31
0.0
  0
LINE
  5
852
  8
05
 10
329.556415
 20
214.85
 30
0.0
 11
326.49794
 21
214.85
 31
0.0
  0
LINE
  5
853
  8
05
 10
326.49794
 20
215.75
 30
0.0
 11
326.49794
 21
214.85
 31
0.0
  0
LINE
  5
854
  8
05
 10
327.69794
 20
215.75
 30
0.0
 11
327.69794
 21
214.85
 31
0.0
  0
LINE
  5
855
  8
05
 10
336.639465
 20
215.75
 30
0.0
 11
339.69794
 21
215.75
 31
0.0
  0
LINE
  5
856
  8
05
 10
336.639465
 20
214.85
 30
0.0
 11
339.69794
 21
214.85
 31
0.0
  0
LINE
  5
857
  8
05
 10
339.69794
 20
215.75
 30
0.0
 11
339.69794
 21
214.85
 31
0.0
  0
LINE
  5
858
  8
05
 10
338.49794
 20
215.75
 30
0.0
 11
338.49794
 21
214.85
 31
0.0
  0
LINE
  5
859
  8
05
 10
321.829198
 20
220.55
 30
0.0
 11
325.89794
 21
220.55
 31
0.0
  0
ARC
  5
85A
  8
05
 10
294.24794
 20
230.4422
 30
0.0
 40
18.0
 50
360.0
 51
34.346556
  0
LINE
  5
85B
  8
035
 10
332.949367
 20
221.3
 30
0.0
 11
333.481278
 21
223.699296
 31
0.0
  0
LINE
  5
85C
  8
035
 10
332.949367
 20
221.3
 30
0.0
 11
337.448047
 21
221.3
 31
0.0
  0
LINE
  5
85D
  8
035
 10
327.333082
 20
223.699296
 30
0.0
 11
329.28251
 21
223.699296
 31
0.0
  0
LINE
  5
85E
  8
035
 10
328.749886
 20
222.649604
 30
0.0
 11
330.250159
 21
221.3
 31
0.0
  0
LINE
  5
85F
  8
05
 10
325.89794
 20
218.6
 30
0.0
 11
325.89794
 21
220.55
 31
0.0
  0
LINE
  5
860
  8
035
 10
326.80117
 20
221.3
 30
0.0
 11
328.450686
 21
221.3
 31
0.0
  0
LINE
  5
861
  8
035
 10
326.80117
 20
221.3
 30
0.0
 11
327.333082
 21
223.699296
 31
0.0
  0
LINE
  5
862
  8
035
 10
328.450686
 20
221.3
 30
0.0
 11
328.749886
 21
222.649604
 31
0.0
  0
LINE
  5
863
  8
035
 10
332.124609
 20
221.3
 30
0.0
 11
332.65652
 21
223.699296
 31
0.0
  0
LINE
  5
864
  8
035
 10
330.774293
 20
222.649604
 30
0.0
 11
331.007004
 21
223.699296
 31
0.0
  0
LINE
  5
865
  8
035
 10
329.28251
 20
223.699296
 30
0.0
 11
330.774293
 21
222.649604
 31
0.0
  0
LINE
  5
866
  8
035
 10
331.007004
 20
223.699296
 30
0.0
 11
332.65652
 21
223.699296
 31
0.0
  0
LINE
  5
867
  8
035
 10
330.250159
 20
221.3
 30
0.0
 11
332.124609
 21
221.3
 31
0.0
  0
LINE
  5
868
  8
035
 10
334.725212
 20
221.869833
 30
0.0
 11
337.574376
 21
221.869833
 31
0.0
  0
LINE
  5
869
  8
035
 10
335.004465
 20
223.129464
 30
0.0
 11
337.853629
 21
223.129464
 31
0.0
  0
LINE
  5
86A
  8
035
 10
333.481278
 20
223.699296
 30
0.0
 11
337.979958
 21
223.699296
 31
0.0
  0
LINE
  5
86B
  8
035
 10
334.928003
 20
222.784565
 30
0.0
 11
337.552233
 21
222.784565
 31
0.0
  0
LINE
  5
86C
  8
035
 10
334.801674
 20
222.214732
 30
0.0
 11
337.425904
 21
222.214732
 31
0.0
  0
LINE
  5
86D
  8
035
 10
334.725212
 20
221.869833
 30
0.0
 11
334.801674
 21
222.214732
 31
0.0
  0
LINE
  5
86E
  8
035
 10
334.928003
 20
222.784565
 30
0.0
 11
335.004465
 21
223.129464
 31
0.0
  0
LINE
  5
86F
  8
035
 10
337.425904
 20
222.214732
 30
0.0
 11
337.552233
 21
222.784565
 31
0.0
  0
LINE
  5
870
  8
035
 10
337.448047
 20
221.3
 30
0.0
 11
337.574376
 21
221.869833
 31
0.0
  0
LINE
  5
871
  8
035
 10
337.853629
 20
223.129464
 30
0.0
 11
337.979958
 21
223.699296
 31
0.0
  0
LINE
  5
872
  8
035
 10
338.360304
 20
222.032885
 30
0.0
 11
338.729738
 21
223.699296
 31
0.0
  0
LINE
  5
873
  8
035
 10
340.051421
 20
222.239274
 30
0.0
 11
340.3751
 21
223.699296
 31
0.0
  0
LINE
  5
874
  8
035
 10
338.729738
 20
223.699296
 30
0.0
 11
340.3751
 21
223.699296
 31
0.0
  0
POLYLINE
  5
875
  8
035
 66
     1
 10
0.0
 20
0.0
 30
0.0
  0
VERTEX
  5
AD3
  8
035
 10
338.360304
 20
222.032885
 30
0.0
 42
0.053304
  0
VERTEX
  5
AD4
  8
035
 10
338.354094
 20
221.974802
 30
0.0
 42
0.242955
  0
SEQEND
  5
AD5
  8
035
  0
POLYLINE
  5
876
  8
035
 66
     1
 10
0.0
 20
0.0
 30
0.0
  0
VERTEX
  5
AD6
  8
035
 10
340.051421
 20
222.239274
 30
0.0
 42
0.058115
  0
VERTEX
  5
AD7
  8
035
 10
340.04681
 20
222.199736
 30
0.0
 42
0.199105
  0
SEQEND
  5
AD8
  8
035
  0
ARC
  5
877
  8
035
 10
345.24794
 20
215.3
 30
0.0
 40
24.75
 50
107.44911
 51
110.646496
  0
LINE
  5
878
  8
05
 10
336.09794
 20
239.583328
 30
0.0
 11
337.335104
 21
236.3
 31
0.0
  0
LINE
  5
879
  8
035
 10
337.087141
 20
238.677903
 30
0.0
 11
336.657512
 21
239.798359
 31
0.0
  0
SOLID
  5
87A
  8
BEM1
 10
227.88283
 20
263.595763
 30
0.0
 11
227.88283
 21
264.762429
 31
0.0
 12
231.38283
 22
264.179096
 32
0.0
 13
231.38283
 23
264.179096
 33
0.0
  0
SOLID
  5
87B
  8
BEM1
 10
311.249455
 20
270.982729
 30
0.0
 11
311.249455
 21
272.149395
 31
0.0
 12
307.749455
 22
271.566062
 32
0.0
 13
307.749455
 23
271.566062
 33
0.0
  0
LINE
  5
87C
  8
BEM1
 10
314.749455
 20
252.798485
 30
0.0
 11
289.725297
 21
252.798485
 31
0.0
  0
LINE
  5
87D
  8
BEM1
 10
307.749455
 20
254.023416
 30
0.0
 11
307.749455
 21
272.366062
 31
0.0
  0
SOLID
  5
87E
  8
BEM1
 10
291.10863
 20
249.298485
 30
0.0
 11
289.941963
 21
249.298485
 31
0.0
 12
290.525297
 22
252.798485
 32
0.0
 13
290.525297
 23
252.798485
 33
0.0
  0
LINE
  5
87F
  8
BEM1
 10
306.030167
 20
244.998485
 30
0.0
 11
298.372122
 21
244.998485
 31
0.0
  0
SOLID
  5
880
  8
BEM1
 10
299.755455
 20
241.498485
 30
0.0
 11
298.588789
 21
241.498485
 31
0.0
 12
299.172122
 22
244.998485
 32
0.0
 13
299.172122
 23
244.998485
 33
0.0
  0
LINE
  5
881
  8
BEM1
 10
307.749455
 20
245.798485
 30
0.0
 11
307.749455
 21
251.59372
 31
0.0
  0
LINE
  5
882
  8
BEM1
 10
315.549455
 20
253.598485
 30
0.0
 11
315.549455
 21
264.979096
 31
0.0
  0
SOLID
  5
883
  8
BEM1
 10
319.049455
 20
263.595763
 30
0.0
 11
319.049455
 21
264.762429
 31
0.0
 12
315.549455
 22
264.179096
 32
0.0
 13
315.549455
 23
264.179096
 33
0.0
  0
ARC
  5
884
  8
05
 10
327.476382
 20
267.876169
 30
0.0
 40
18.0
 50
242.465414
 51
288.676049
  0
CIRCLE
  5
885
  8
05
 10
315.549455
 20
244.998485
 30
0.0
 40
3.3
  0
LINE
  5
886
  8
MITTE
 10
321.549455
 20
244.998485
 30
0.0
 11
309.549455
 21
244.998485
 31
0.0
  0
LINE
  5
887
  8
SCHRAFFIERT
 10
314.649455
 20
244.998485
 30
0.0
 11
316.449455
 21
244.998485
 31
0.0
  0
LINE
  5
888
  8
SCHRAFFIERT
 10
314.649455
 20
244.998485
 30
0.0
 11
316.449455
 21
244.998485
 31
0.0
  0
LINE
  5
889
  8
05
 10
333.228258
 20
241.966266
 30
0.0
 11
331.787895
 21
245.44361
 31
0.0
  0
ARC
  5
88A
  8
05
 10
333.520276
 20
245.180962
 30
0.0
 40
0.6
 50
111.428988
 51
202.5
  0
LINE
  5
88B
  8
05
 10
333.652632
 20
243.29355
 30
0.0
 11
332.619387
 21
245.788025
 31
0.0
  0
ARC
  5
88C
  8
05
 10
328.366941
 20
241.538748
 30
0.0
 40
1.5
 50
30.0
 51
122.755667
  0
ARC
  5
88D
  8
05
 10
345.247939
 20
215.3
 30
0.0
 40
33.0
 50
112.499998
 51
119.999998
  0
LINE
  5
88E
  8
05
 10
329.891244
 20
241.898579
 30
0.0
 11
328.74794
 21
243.878839
 31
0.0
  0
LINE
  5
88F
  8
05
 10
334.28406
 20
241.769149
 30
0.0
 11
334.226657
 21
241.907731
 31
0.0
  0
ARC
  5
890
  8
05
 10
333.759108
 20
241.545557
 30
0.0
 40
0.6
 50
84.110395
 51
113.641106
  0
ARC
  5
891
  8
05
 10
333.939645
 20
242.600641
 30
0.0
 40
0.75
 50
226.746295
 51
112.5
  0
ARC
  5
892
  8
05
 10
333.882242
 20
242.739222
 30
0.0
 40
0.6
 50
264.110395
 51
112.5
  0
TEXT
  5
893
  8
BEM1
 62
     3
 10
326.274607
 20
265.645763
 30
0.0
 40
3.5
  1
19.80
 41
0.7
 51
15.0
  0
INSERT
  5
894
  8
BEM1
  2
3
 10
335.876368
 20
267.436821
 30
0.0
  0
LINE
  5
895
  8
05
 10
369.753627
 20
243.683229
 30
0.0
 11
366.022761
 21
240.55266
 31
0.0
  0
ARC
  5
896
  8
05
 10
345.24794
 20
215.3
 30
0.0
 40
35.4
 50
30.25675
 51
49.74325
  0
ARC
  5
897
  8
05
 10
345.24794
 20
215.3
 30
0.0
 40
37.498485
 50
28.587806
 51
90.0
  0
ARC
  5
898
  8
05
 10
361.903675
 20
241.148579
 30
0.0
 40
1.5
 50
150.0
 51
237.203974
  0
LINE
  5
899
  8
MITTE
 10
345.24794
 20
255.32451
 30
0.0
 11
345.24794
 21
165.10862
 31
0.0
  0
LINE
  5
89A
  8
BEM1
 10
374.946425
 20
194.201516
 30
0.0
 11
374.946425
 21
264.979096
 31
0.0
  0
LINE
  5
89B
  8
BEM1
 10
382.746425
 20
186.401516
 30
0.0
 11
382.746425
 21
272.366062
 31
0.0
  0
ARC
  5
89C
  8
05
 10
396.24794
 20
200.157801
 30
0.0
 40
18.0
 50
180.0
 51
214.346556
  0
LINE
  5
89D
  8
035
 10
343.89794
 20
196.25
 30
0.0
 11
343.89794
 21
194.3
 31
0.0
  0
LINE
  5
89E
  8
035
 10
346.59794
 20
196.25
 30
0.0
 11
346.59794
 21
194.3
 31
0.0
  0
LINE
  5
89F
  8
05
 10
350.49794
 20
191.881258
 30
0.0
 11
350.49794
 21
196.25
 31
0.0
  0
ARC
  5
8A0
  8
05
 10
374.946425
 20
185.601516
 30
0.0
 40
4.2
 50
218.825778
 51
141.174222
  0
ARC
  5
8A1
  8
05
 10
374.946425
 20
185.601516
 30
0.0
 40
3.3
 50
226.186908
 51
133.813061
  0
LINE
  5
8A2
  8
MITTE
 10
380.946425
 20
185.601516
 30
0.0
 11
368.946425
 21
185.601516
 31
0.0
  0
POLYLINE
  5
8A3
  8
MITTE
 66
     1
 10
0.0
 20
0.0
 30
0.0
  0
VERTEX
  5
AD9
  8
MITTE
 10
357.151256
 20
166.2056
 30
0.0
  0
VERTEX
  5
ADA
  8
MITTE
 10
358.239089
 20
170.703407
 30
0.0
 42
0.105039
  0
VERTEX
  5
ADB
  8
MITTE
 10
358.263514
 20
171.575765
 30
0.0
  0
VERTEX
  5
ADC
  8
MITTE
 10
357.947126
 20
173.301516
 30
0.0
  0
SEQEND
  5
ADD
  8
MITTE
  0
LINE
  5
8A4
  8
MITTE
 10
356.67794
 20
180.706816
 30
0.0
 11
356.67794
 21
170.684091
 31
0.0
  0
LINE
  5
8A5
  8
035
 10
344.87294
 20
167.3
 30
0.0
 11
344.87294
 21
177.801516
 31
0.0
  0
LINE
  5
8A6
  8
035
 10
345.62294
 20
167.3
 30
0.0
 11
345.62294
 21
177.801516
 31
0.0
  0
LINE
  5
8A7
  8
035
 10
343.89794
 20
177.801516
 30
0.0
 11
343.89794
 21
167.3
 31
0.0
  0
LINE
  5
8A8
  8
035
 10
346.59794
 20
177.801516
 30
0.0
 11
346.59794
 21
167.3
 31
0.0
  0
LINE
  5
8A9
  8
035
 10
356.935645
 20
171.332322
 30
0.0
 11
356.574626
 21
173.301516
 31
0.0
  0
ARC
  5
8AA
  8
035
 10
356.308498
 20
171.248577
 30
0.0
 40
3.3
 50
346.403624
 51
10.388857
  0
LINE
  5
8AB
  8
035
 10
358.640177
 20
166.851516
 30
0.0
 11
356.068958
 21
167.473387
 31
0.0
  0
LINE
  5
8AC
  8
035
 10
346.59794
 20
167.3
 30
0.0
 11
343.89794
 21
167.3
 31
0.0
  0
LINE
  5
8AD
  8
035
 10
356.068958
 20
167.473387
 30
0.0
 11
356.926922
 21
171.020766
 31
0.0
  0
ARC
  5
8AE
  8
035
 10
356.19794
 20
171.197076
 30
0.0
 40
0.75
 50
346.403624
 51
10.388857
  0
LINE
  5
8AF
  8
035
 10
358.640177
 20
166.851516
 30
0.0
 11
359.516019
 21
170.472811
 31
0.0
  0
LINE
  5
8B0
  8
05
 10
355.02794
 20
173.301516
 30
0.0
 11
358.32794
 21
173.301516
 31
0.0
  0
LINE
  5
8B1
  8
05
 10
354.42794
 20
173.901516
 30
0.0
 11
358.92794
 21
173.901516
 31
0.0
  0
LINE
  5
8B2
  8
05
 10
354.42794
 20
177.801516
 30
0.0
 11
354.42794
 21
173.901516
 31
0.0
  0
LINE
  5
8B3
  8
05
 10
354.42794
 20
173.901516
 30
0.0
 11
355.02794
 21
173.301516
 31
0.0
  0
LINE
  5
8B4
  8
035
 10
347.04794
 20
194.3
 30
0.0
 11
343.44794
 21
194.3
 31
0.0
  0
LINE
  5
8B5
  8
035
 10
343.44794
 20
191.367596
 30
0.0
 11
343.44794
 21
194.3
 31
0.0
  0
LINE
  5
8B6
  8
035
 10
347.04794
 20
191.367596
 30
0.0
 11
347.04794
 21
194.3
 31
0.0
  0
ARC
  5
8B7
  8
05
 10
372.246425
 20
182.787266
 30
0.0
 40
0.6
 50
46.186939
 51
180.0
  0
LINE
  5
8B8
  8
05
 10
370.146425
 20
190.701516
 30
0.0
 11
370.146425
 21
180.501516
 31
0.0
  0
LINE
  5
8B9
  8
05
 10
358.92794
 20
177.801516
 30
0.0
 11
358.92794
 21
173.901516
 31
0.0
  0
LINE
  5
8BA
  8
035
 10
359.5544
 20
171.843659
 30
0.0
 11
358.92794
 21
175.260713
 31
0.0
  0
LINE
  5
8BB
  8
05
 10
358.32794
 20
173.301516
 30
0.0
 11
358.92794
 21
173.901516
 31
0.0
  0
LINE
  5
8BC
  8
05
 10
371.646425
 20
182.787266
 30
0.0
 11
371.646425
 21
180.501516
 31
0.0
  0
LINE
  5
8BD
  8
05
 10
371.646425
 20
180.501516
 30
0.0
 11
370.146425
 21
180.501516
 31
0.0
  0
LINE
  5
8BE
  8
05
 10
371.646425
 20
188.415765
 30
0.0
 11
371.646425
 21
190.701516
 31
0.0
  0
LINE
  5
8BF
  8
05
 10
370.146425
 20
185.479374
 30
0.0
 11
370.146425
 21
185.468229
 31
0.0
  0
ARC
  5
8C0
  8
05
 10
372.246425
 20
188.415765
 30
0.0
 40
0.6
 50
180.0
 51
313.813061
  0
LINE
  5
8C1
  8
05
 10
371.646425
 20
190.701516
 30
0.0
 11
370.146425
 21
190.701516
 31
0.0
  0
ARC
  5
8C2
  8
05
 10
374.946425
 20
185.601516
 30
0.0
 40
7.8
 50
270.0
 51
34.346556
  0
LINE
  5
8C3
  8
MITTE
 10
374.946425
 20
191.601516
 30
0.0
 11
374.946425
 21
179.601516
 31
0.0
  0
LINE
  5
8C4
  8
05
 10
377.455331
 20
234.504695
 30
0.0
 11
373.724465
 21
231.374127
 31
0.0
  0
LINE
  5
8C5
  8
05
 10
366.39794
 20
216.8
 30
0.0
 11
364.59794
 21
218.6
 31
0.0
  0
CIRCLE
  5
8C6
  8
035
 10
357.39794
 20
215.3
 30
0.0
 40
3.57
  0
LINE
  5
8C7
  8
MITTE
 10
357.39794
 20
219.2
 30
0.0
 11
357.39794
 21
211.4
 31
0.0
  0
CIRCLE
  5
8C8
  8
035
 10
345.24794
 20
203.45
 30
0.0
 40
3.57
  0
LINE
  5
8C9
  8
05
 10
348.789465
 20
203.0
 30
0.0
 11
351.84794
 21
203.0
 31
0.0
  0
LINE
  5
8CA
  8
05
 10
348.789465
 20
203.9
 30
0.0
 11
351.84794
 21
203.9
 31
0.0
  0
LINE
  5
8CB
  8
05
 10
351.84794
 20
203.9
 30
0.0
 11
351.84794
 21
203.0
 31
0.0
  0
LINE
  5
8CC
  8
05
 10
350.64794
 20
203.9
 30
0.0
 11
350.64794
 21
203.0
 31
0.0
  0
TEXT
  5
8CD
  8
035
 10
343.438408
 20
208.18123
 30
0.0
 40
4.5
  1
3
  7
HELV
  0
LINE
  5
8CE
  8
05
 10
353.856415
 20
214.85
 30
0.0
 11
350.79794
 21
214.85
 31
0.0
  0
LINE
  5
8CF
  8
05
 10
353.856415
 20
215.75
 30
0.0
 11
350.79794
 21
215.75
 31
0.0
  0
LINE
  5
8D0
  8
05
 10
350.79794
 20
215.75
 30
0.0
 11
350.79794
 21
214.85
 31
0.0
  0
LINE
  5
8D1
  8
05
 10
351.99794
 20
215.75
 30
0.0
 11
351.99794
 21
214.85
 31
0.0
  0
LINE
  5
8D2
  8
05
 10
366.39794
 20
213.8
 30
0.0
 11
364.59794
 21
212.0
 31
0.0
  0
LINE
  5
8D3
  8
05
 10
368.666683
 20
210.05
 30
0.0
 11
364.59794
 21
210.05
 31
0.0
  0
TEXT
  5
8D4
  8
035
 10
359.750643
 20
207.09291
 30
0.0
 40
4.5
  1
2
  7
HELV
  0
LINE
  5
8D5
  8
05
 10
364.59794
 20
210.05
 30
0.0
 11
364.59794
 21
212.0
 31
0.0
  0
LINE
  5
8D6
  8
05
 10
360.939465
 20
214.85
 30
0.0
 11
363.99794
 21
214.85
 31
0.0
  0
LINE
  5
8D7
  8
05
 10
360.939465
 20
215.75
 30
0.0
 11
363.99794
 21
215.75
 31
0.0
  0
LINE
  5
8D8
  8
05
 10
363.99794
 20
215.75
 30
0.0
 11
363.99794
 21
214.85
 31
0.0
  0
LINE
  5
8D9
  8
05
 10
362.79794
 20
215.75
 30
0.0
 11
362.79794
 21
214.85
 31
0.0
  0
LINE
  5
8DA
  8
05
 10
366.39794
 20
216.8
 30
0.0
 11
366.39794
 21
213.8
 31
0.0
  0
LINE
  5
8DB
  8
035
 10
357.467174
 20
221.3
 30
0.0
 11
357.999085
 21
223.699296
 31
0.0
  0
LINE
  5
8DC
  8
035
 10
357.467174
 20
221.3
 30
0.0
 11
359.041712
 21
221.3
 31
0.0
  0
ARC
  5
8DD
  8
05
 10
345.24794
 20
215.3
 30
0.0
 40
24.0
 50
52.11123
 51
69.353504
  0
CIRCLE
  5
8DE
  8
035
 62
     4
 10
345.24794
 20
230.671513
 30
0.0
 40
3.857143
  0
ARC
  5
8DF
  8
035
 62
     4
 10
345.24794
 20
230.671513
 30
0.0
 40
2.892857
 50
330.577083
 51
35.346236
  0
ARC
  5
8E0
  8
035
 62
     4
 10
345.24794
 20
230.671513
 30
0.0
 40
2.892857
 50
150.577083
 51
217.724479
  0
ARC
  5
8E1
  8
035
 62
     4
 10
345.24794
 20
230.671513
 30
0.0
 40
2.378571
 50
160.726108
 51
217.672445
  0
LINE
  5
8E2
  8
035
 62
     4
 10
344.990797
 20
228.022973
 30
0.0
 11
344.990797
 21
232.888206
 31
0.0
  0
LINE
  5
8E3
  8
035
 62
     4
 10
345.505083
 20
228.022973
 30
0.0
 11
345.505083
 21
232.888206
 31
0.0
  0
LINE
  5
8E4
  8
035
 62
     4
 10
346.178203
 20
229.858364
 30
0.0
 11
347.43592
 21
229.15704
 31
0.0
  0
INSERT
  5
8E5
  8
035
 62
     4
  2
*X5
 10
275.991751
 20
-28.419521
 30
0.0
 41
1.285714
 42
1.285714
 43
1.285714
  0
LINE
  5
8F6
  8
035
 62
     4
 10
344.990797
 20
229.680082
 30
0.0
 11
345.505083
 21
230.194368
 31
0.0
  0
LINE
  5
8F7
  8
035
 62
     4
 10
344.990797
 20
229.225513
 30
0.0
 11
345.505083
 21
229.739799
 31
0.0
  0
LINE
  5
8F8
  8
035
 62
     4
 10
346.697683
 20
229.568693
 30
0.0
 11
347.07572
 21
229.946731
 31
0.0
  0
LINE
  5
8F9
  8
035
 62
     4
 10
346.989519
 20
229.405961
 30
0.0
 11
347.384429
 21
229.800871
 31
0.0
  0
LINE
  5
8FA
  8
035
 62
     4
 10
347.281355
 20
229.243228
 30
0.0
 11
348.068959
 21
230.030832
 31
0.0
  0
LINE
  5
8FB
  8
035
 10
348.994659
 20
221.3
 30
0.0
 11
349.526571
 21
223.699296
 31
0.0
  0
LINE
  5
8FC
  8
035
 10
348.994659
 20
221.3
 30
0.0
 11
350.644176
 21
221.3
 31
0.0
  0
LINE
  5
8FD
  8
035
 10
345.245759
 20
221.3
 30
0.0
 11
345.644693
 21
223.099472
 31
0.0
  0
LINE
  5
8FE
  8
035
 10
344.145133
 20
223.099472
 30
0.0
 11
345.644693
 21
223.099472
 31
0.0
  0
LINE
  5
8FF
  8
035
 10
345.245759
 20
221.3
 30
0.0
 11
346.895275
 21
221.3
 31
0.0
  0
LINE
  5
900
  8
035
 10
344.27811
 20
223.699296
 30
0.0
 11
349.001725
 21
223.699296
 31
0.0
  0
LINE
  5
901
  8
035
 10
341.855304
 20
222.161479
 30
0.0
 11
342.19623
 21
223.699296
 31
0.0
  0
LINE
  5
902
  8
035
 10
343.44631
 20
221.916357
 30
0.0
 11
343.841578
 21
223.699296
 31
0.0
  0
LINE
  5
903
  8
035
 10
342.19623
 20
223.699296
 30
0.0
 11
343.841578
 21
223.699296
 31
0.0
  0
LINE
  5
904
  8
035
 10
344.145133
 20
223.099472
 30
0.0
 11
344.27811
 21
223.699296
 31
0.0
  0
LINE
  5
905
  8
035
 10
346.895275
 20
221.3
 30
0.0
 11
347.294209
 21
223.099472
 31
0.0
  0
LINE
  5
906
  8
035
 10
348.868747
 20
223.099472
 30
0.0
 11
349.001725
 21
223.699296
 31
0.0
  0
LINE
  5
907
  8
035
 10
347.294209
 20
223.099472
 30
0.0
 11
348.868747
 21
223.099472
 31
0.0
  0
ARC
  5
908
  8
035
 62
     4
 10
345.260797
 20
228.022973
 30
0.0
 40
0.244286
 50
270.278136
 51
0.0
  0
LINE
  5
909
  8
035
 62
     4
 10
344.990797
 20
228.770945
 30
0.0
 11
345.505083
 21
229.285231
 31
0.0
  0
LINE
  5
90A
  8
035
 62
     4
 10
344.990797
 20
228.316376
 30
0.0
 11
345.505083
 21
228.830662
 31
0.0
  0
LINE
  5
90B
  8
035
 62
     4
 10
345.025861
 20
227.896871
 30
0.0
 11
345.505083
 21
228.376093
 31
0.0
  0
LINE
  5
90C
  8
035
 62
     4
 10
343.338557
 20
228.889952
 30
0.0
 11
343.319674
 21
228.872334
 31
0.0
  0
ARC
  5
90D
  8
035
 62
     4
 10
345.24794
 20
230.671513
 30
0.0
 40
2.892857
 50
269.721864
 51
270.278136
  0
ARC
  5
90E
  8
035
 62
     4
 10
343.15302
 20
229.050945
 30
0.0
 40
0.244286
 50
217.724479
 51
313.016562
  0
ARC
  5
90F
  8
035
 62
     4
 10
343.171903
 20
229.068563
 30
0.0
 40
0.244286
 50
313.016562
 51
37.672445
  0
ARC
  5
910
  8
035
 62
     4
 10
345.235083
 20
228.022973
 30
0.0
 40
0.244286
 50
180.0
 51
269.721864
  0
ARC
  5
911
  8
035
 62
     4
 10
347.554892
 20
229.370397
 30
0.0
 40
0.244286
 50
240.855218
 51
330.577083
  0
LINE
  5
912
  8
035
 62
     4
 10
347.630948
 20
229.138253
 30
0.0
 11
347.7977
 21
229.305004
 31
0.0
  0
LINE
  5
913
  8
035
 10
349.526571
 20
223.699296
 30
0.0
 11
353.736124
 21
223.699296
 31
0.0
  0
LINE
  5
914
  8
035
 10
352.439849
 20
221.3
 30
0.0
 11
354.109808
 21
221.3
 31
0.0
  0
LINE
  5
915
  8
035
 10
350.644176
 20
221.3
 30
0.0
 11
350.810398
 21
222.04978
 31
0.0
  0
LINE
  5
916
  8
035
 10
352.382037
 20
221.491158
 30
0.0
 11
352.412235
 21
221.930673
 31
0.0
  0
LINE
  5
917
  8
035
 10
350.810398
 20
222.04978
 30
0.0
 11
352.241928
 21
222.04978
 31
0.0
  0
LINE
  5
918
  8
035
 10
350.936727
 20
222.619613
 30
0.0
 11
352.218483
 21
222.619613
 31
0.0
  0
LINE
  5
919
  8
035
 10
350.936727
 20
222.619613
 30
0.0
 11
351.049758
 21
223.129464
 31
0.0
  0
LINE
  5
91A
  8
035
 10
351.049758
 20
223.129464
 30
0.0
 11
352.440408
 21
223.129464
 31
0.0
  0
ARC
  5
91B
  8
035
 10
352.743063
 20
221.496023
 30
0.0
 40
0.361059
 50
180.772005
 51
212.881875
  0
POLYLINE
  5
91C
  8
035
 66
     1
 10
0.0
 20
0.0
 30
0.0
  0
VERTEX
  5
ADE
  8
035
 10
352.218483
 20
222.619613
 30
0.0
 42
0.065514
  0
VERTEX
  5
ADF
  8
035
 10
352.392768
 20
222.643163
 30
0.0
 42
0.060566
  0
VERTEX
  5
AE0
  8
035
 10
352.543547
 20
222.703873
 30
0.0
 42
0.073981
  0
VERTEX
  5
AE1
  8
035
 10
352.649553
 20
222.784704
 30
0.0
 42
0.106894
  0
VERTEX
  5
AE2
  8
035
 10
352.715843
 20
222.890753
 30
0.0
 42
0.153048
  0
VERTEX
  5
AE3
  8
035
 10
352.719548
 20
222.97906
 30
0.0
 42
0.153048
  0
VERTEX
  5
AE4
  8
035
 10
352.672186
 20
223.053683
 30
0.0
 42
0.106894
  0
VERTEX
  5
AE5
  8
035
 10
352.561753
 20
223.11238
 30
0.0
 42
0.067948
  0
VERTEX
  5
AE6
  8
035
 10
352.440408
 20
223.129464
 30
0.0
 42
0.060506
  0
SEQEND
  5
AE7
  8
035
  0
POLYLINE
  5
91D
  8
035
 66
     1
 10
0.0
 20
0.0
 30
0.0
  0
VERTEX
  5
AE8
  8
035
 10
352.412235
 20
221.930673
 30
0.0
 42
0.082344
  0
VERTEX
  5
AE9
  8
035
 10
352.409412
 20
221.959538
 30
0.0
 42
0.153048
  0
VERTEX
  5
AEA
  8
035
 10
352.380994
 20
222.004312
 30
0.0
 42
0.106894
  0
VERTEX
  5
AEB
  8
035
 10
352.314735
 20
222.03953
 30
0.0
 42
0.067948
  0
VERTEX
  5
AEC
  8
035
 10
352.241928
 20
222.04978
 30
0.0
 42
0.060506
  0
SEQEND
  5
AED
  8
035
  0
LINE
  5
91E
  8
035
 10
354.035743
 20
221.551085
 30
0.0
 11
354.074814
 21
222.109823
 31
0.0
  0
ARC
  5
91F
  8
035
 10
354.40972
 20
221.524934
 30
0.0
 40
0.37489
 50
176.0
 51
216.869898
  0
POLYLINE
  5
920
  8
035
 66
     1
 10
0.0
 20
0.0
 30
0.0
  0
VERTEX
  5
AEE
  8
035
 10
354.074814
 20
222.109823
 30
0.0
 42
0.084831
  0
VERTEX
  5
AEF
  8
035
 10
354.066247
 20
222.202136
 30
0.0
 42
0.153048
  0
VERTEX
  5
AF0
  8
035
 10
353.978037
 20
222.341116
 30
0.0
 42
0.025315
  0
VERTEX
  5
AF1
  8
035
 10
353.933681
 20
222.374899
 30
0.0
 42
0.067948
  0
SEQEND
  5
AF2
  8
035
  0
POLYLINE
  5
921
  8
035
 66
     1
 10
0.0
 20
0.0
 30
0.0
  0
VERTEX
  5
AF3
  8
035
 10
353.933681
 20
222.374899
 30
0.0
 42
0.015369
  0
VERTEX
  5
AF4
  8
035
 10
354.043466
 20
222.431086
 30
0.0
 42
0.073981
  0
VERTEX
  5
AF5
  8
035
 10
354.359353
 20
222.671953
 30
0.0
 42
0.106894
  0
VERTEX
  5
AF6
  8
035
 10
354.556889
 20
222.987968
 30
0.0
 42
0.153048
  0
VERTEX
  5
AF7
  8
035
 10
354.567932
 20
223.251112
 30
0.0
 42
0.153048
  0
VERTEX
  5
AF8
  8
035
 10
354.426796
 20
223.47348
 30
0.0
 42
0.106894
  0
VERTEX
  5
AF9
  8
035
 10
354.097718
 20
223.648388
 30
0.0
 42
0.067948
  0
VERTEX
  5
AFA
  8
035
 10
353.736124
 20
223.699296
 30
0.0
 42
0.060566
  0
SEQEND
  5
AFB
  8
035
  0
LINE
  5
922
  8
035
 10
354.842944
 20
221.3
 30
0.0
 11
355.374855
 21
223.699296
 31
0.0
  0
LINE
  5
923
  8
035
 10
356.49246
 20
221.3
 30
0.0
 11
357.024371
 21
223.699296
 31
0.0
  0
LINE
  5
924
  8
035
 10
354.842944
 20
221.3
 30
0.0
 11
356.49246
 21
221.3
 31
0.0
  0
LINE
  5
925
  8
035
 10
355.374855
 20
223.699296
 30
0.0
 11
357.024371
 21
223.699296
 31
0.0
  0
ARC
  5
926
  8
035
 62
     4
 10
345.24794
 20
230.671513
 30
0.0
 40
2.892857
 50
58.909008
 51
126.716102
  0
LINE
  5
927
  8
035
 62
     4
 10
344.990797
 20
230.134651
 30
0.0
 11
345.505083
 21
230.648936
 31
0.0
  0
LINE
  5
928
  8
035
 62
     4
 10
344.990797
 20
230.589219
 30
0.0
 11
345.505083
 21
231.103505
 31
0.0
  0
LINE
  5
929
  8
035
 62
     4
 10
344.990797
 20
231.043788
 30
0.0
 11
345.505083
 21
231.558074
 31
0.0
  0
LINE
  5
92A
  8
035
 62
     4
 10
344.990797
 20
231.498357
 30
0.0
 11
345.505083
 21
232.012642
 31
0.0
  0
LINE
  5
92B
  8
035
 62
     4
 10
344.990797
 20
231.952925
 30
0.0
 11
345.505083
 21
232.467211
 31
0.0
  0
LINE
  5
92C
  8
035
 62
     4
 10
344.990797
 20
232.407494
 30
0.0
 11
345.511441
 21
232.928138
 31
0.0
  0
LINE
  5
92D
  8
035
 62
     4
 10
344.990797
 20
232.862063
 30
0.0
 11
345.663152
 21
233.534418
 31
0.0
  0
LINE
  5
92E
  8
035
 62
     4
 10
343.500257
 20
232.611954
 30
0.0
 11
343.482974
 21
232.631143
 31
0.0
  0
ARC
  5
92F
  8
035
 62
     4
 10
345.24794
 20
230.671513
 30
0.0
 40
0.964286
 50
150.245677
 51
151.46476
  0
ARC
  5
930
  8
035
 62
     4
 10
345.24794
 20
230.671513
 30
0.0
 40
2.378571
 50
99.87089
 51
126.664068
  0
LINE
  5
931
  8
035
 62
     4
 10
343.186666
 20
231.526496
 30
0.0
 11
344.06721
 21
231.03549
 31
0.0
  0
LINE
  5
932
  8
035
 62
     4
 10
343.05996
 20
232.185987
 30
0.0
 11
344.317677
 21
231.484663
 31
0.0
  0
ARC
  5
933
  8
035
 62
     4
 10
342.940988
 20
231.97263
 30
0.0
 40
0.244286
 50
60.855218
 51
150.577083
  0
ARC
  5
934
  8
035
 62
     4
 10
344.186182
 20
231.248847
 30
0.0
 40
0.244286
 50
240.855218
 51
331.46476
  0
ARC
  5
935
  8
035
 62
     4
 10
344.198705
 20
231.271306
 30
0.0
 40
0.244286
 50
330.245677
 51
60.855218
  0
ARC
  5
936
  8
035
 62
     4
 10
343.66449
 20
232.794628
 30
0.0
 40
0.244286
 50
126.716102
 51
222.008185
  0
ARC
  5
937
  8
035
 62
     4
 10
343.681774
 20
232.775439
 30
0.0
 40
0.244286
 50
222.008185
 51
306.664068
  0
ARC
  5
938
  8
035
 62
     4
 10
344.862226
 20
232.888206
 30
0.0
 40
0.128571
 50
0.0
 51
99.87089
  0
ARC
  5
939
  8
035
 62
     4
 10
343.124049
 20
231.414203
 30
0.0
 40
0.128571
 50
60.855218
 51
160.726108
  0
LINE
  5
93A
  8
035
 62
     4
 10
344.647116
 20
232.97295
 30
0.0
 11
345.238521
 21
233.564355
 31
0.0
  0
LINE
  5
93B
  8
035
 62
     4
 10
343.765573
 20
232.545976
 30
0.0
 11
344.738814
 21
233.519216
 31
0.0
  0
LINE
  5
93C
  8
035
 62
     4
 10
343.447483
 20
232.682454
 30
0.0
 11
344.085627
 21
233.320598
 31
0.0
  0
LINE
  5
93D
  8
035
 62
     4
 10
346.797007
 20
232.773916
 30
0.0
 11
346.812326
 21
232.794707
 31
0.0
  0
LINE
  5
93E
  8
035
 62
     4
 10
347.229607
 20
232.372307
 30
0.0
 11
347.249204
 21
232.389127
 31
0.0
  0
ARC
  5
93F
  8
035
 62
     4
 10
345.24794
 20
230.671513
 30
0.0
 40
0.964286
 50
330.245677
 51
331.46476
  0
ARC
  5
940
  8
035
 62
     4
 10
345.24794
 20
230.671513
 30
0.0
 40
2.378571
 50
58.961019
 51
80.12911
  0
ARC
  5
941
  8
035
 62
     4
 10
345.24794
 20
230.671513
 30
0.0
 40
2.378571
 50
340.726108
 51
35.294203
  0
LINE
  5
942
  8
035
 62
     4
 10
346.42867
 20
230.307537
 30
0.0
 11
347.309214
 21
229.81653
 31
0.0
  0
ARC
  5
943
  8
035
 62
     4
 10
346.615659
 20
232.939613
 30
0.0
 40
0.244286
 50
323.616924
 51
58.909008
  0
ARC
  5
944
  8
035
 62
     4
 10
346.60034
 20
232.918822
 30
0.0
 40
0.244286
 50
238.961041
 51
323.616924
  0
ARC
  5
945
  8
035
 62
     4
 10
347.388706
 20
232.186935
 30
0.0
 40
0.244286
 50
130.63832
 51
215.294203
  0
ARC
  5
946
  8
035
 62
     4
 10
347.408303
 20
232.203754
 30
0.0
 40
0.244286
 50
35.346236
 51
130.63832
  0
ARC
  5
947
  8
035
 62
     4
 10
346.297175
 20
230.071721
 30
0.0
 40
0.244286
 50
150.245677
 51
240.855218
  0
ARC
  5
948
  8
035
 62
     4
 10
346.309698
 20
230.09418
 30
0.0
 40
0.244286
 50
60.855218
 51
151.46476
  0
ARC
  5
949
  8
035
 62
     4
 10
345.633654
 20
232.888206
 30
0.0
 40
0.128571
 50
80.12911
 51
180.0
  0
ARC
  5
94A
  8
035
 62
     4
 10
347.371831
 20
229.928824
 30
0.0
 40
0.128571
 50
240.855218
 51
340.726108
  0
LINE
  5
94B
  8
035
 62
     4
 10
346.622558
 20
232.675548
 30
0.0
 11
346.858297
 21
232.911288
 31
0.0
  0
LINE
  5
94C
  8
035
 62
     4
 10
346.298129
 20
232.805689
 30
0.0
 11
346.678396
 21
233.185955
 31
0.0
  0
LINE
  5
94D
  8
035
 62
     4
 10
345.974327
 20
232.936456
 30
0.0
 11
346.374058
 21
233.336186
 31
0.0
  0
LINE
  5
94E
  8
035
 62
     4
 10
345.593722
 20
233.010418
 30
0.0
 11
346.037765
 21
233.454461
 31
0.0
  0
LINE
  5
94F
  8
035
 62
     4
 10
346.121661
 20
229.901808
 30
0.0
 11
346.492048
 21
230.272196
 31
0.0
  0
LINE
  5
950
  8
035
 62
     4
 10
347.537164
 20
231.317312
 30
0.0
 11
347.942912
 21
231.723059
 31
0.0
  0
LINE
  5
951
  8
035
 62
     4
 10
347.415727
 20
231.650443
 30
0.0
 11
347.799654
 21
232.03437
 31
0.0
  0
LINE
  5
952
  8
035
 62
     4
 10
347.256427
 20
231.945712
 30
0.0
 11
347.627425
 21
232.31671
 31
0.0
  0
LINE
  5
953
  8
035
 62
     4
 10
346.405847
 20
229.731426
 30
0.0
 11
346.783884
 21
230.109463
 31
0.0
  0
LINE
  5
954
  8
035
 62
     4
 10
347.611626
 20
230.937205
 30
0.0
 11
348.053045
 21
231.378624
 31
0.0
  0
LINE
  5
955
  8
035
 62
     4
 10
347.619624
 20
230.490634
 30
0.0
 11
348.122789
 21
230.993799
 31
0.0
  0
LINE
  5
956
  8
035
 62
     4
 10
347.505224
 20
229.921666
 30
0.0
 11
348.138445
 21
230.554887
 31
0.0
  0
ARC
  5
957
  8
035
 10
345.24794
 20
215.3
 30
0.0
 40
24.75
 50
69.353504
 51
72.494437
  0
LINE
  5
958
  8
035
 10
353.81464
 20
239.79367
 30
0.0
 11
353.40475
 21
238.667263
 31
0.0
  0
LINE
  5
959
  8
05
 10
354.39794
 20
239.583328
 30
0.0
 11
353.160776
 21
236.3
 31
0.0
  0
LINE
  5
95A
  8
05
 10
368.666683
 20
220.55
 30
0.0
 11
364.59794
 21
220.55
 31
0.0
  0
LINE
  5
95B
  8
035
 10
361.298117
 20
223.699296
 30
0.0
 11
363.397501
 21
223.699296
 31
0.0
  0
LINE
  5
95C
  8
035
 10
361.462046
 20
222.874538
 30
0.0
 11
363.015546
 21
221.3
 31
0.0
  0
LINE
  5
95D
  8
035
 10
361.462046
 20
222.874538
 30
0.0
 11
363.397501
 21
223.699296
 31
0.0
  0
LINE
  5
95E
  8
035
 10
360.766206
 20
221.3
 30
0.0
 11
363.015546
 21
221.3
 31
0.0
  0
LINE
  5
95F
  8
035
 10
359.041712
 20
221.3
 30
0.0
 11
359.17469
 21
221.899824
 31
0.0
  0
LINE
  5
960
  8
035
 10
357.999085
 20
223.699296
 30
0.0
 11
359.573623
 21
223.699296
 31
0.0
  0
LINE
  5
961
  8
035
 10
359.17469
 20
221.899824
 30
0.0
 11
359.878492
 21
222.199736
 31
0.0
  0
LINE
  5
962
  8
035
 10
359.393712
 20
222.88777
 30
0.0
 11
361.298117
 21
223.699296
 31
0.0
  0
LINE
  5
963
  8
035
 10
359.878492
 20
222.199736
 30
0.0
 11
360.766206
 21
221.3
 31
0.0
  0
LINE
  5
964
  8
035
 10
359.393712
 20
222.88777
 30
0.0
 11
359.573623
 21
223.699296
 31
0.0
  0
LINE
  5
965
  8
05
 10
364.59794
 20
218.6
 30
0.0
 11
364.59794
 21
220.55
 31
0.0
  0
ARC
  5
966
  8
05
 10
361.794239
 20
231.846299
 30
0.0
 40
3.0
 50
322.958832
 51
127.041168
  0
LINE
  5
967
  8
05
 10
378.24794
 20
200.157801
 30
0.0
 11
378.24794
 21
232.956109
 31
0.0
  0
LINE
  5
968
  8
05
 10
381.24794
 20
214.1
 30
0.0
 11
380.49794
 21
213.770294
 31
0.0
  0
LINE
  5
969
  8
05
 10
381.24794
 20
213.8
 30
0.0
 11
381.24794
 21
216.95
 31
0.0
  0
LINE
  5
96A
  8
05
 10
380.49794
 20
213.05
 30
0.0
 11
381.24794
 21
213.8
 31
0.0
  0
LINE
  5
96B
  8
05
 10
380.49794
 20
213.05
 30
0.0
 11
380.49794
 21
216.95
 31
0.0
  0
LINE
  5
96C
  8
05
 10
380.49794
 20
213.770294
 30
0.0
 11
378.24794
 21
213.770294
 31
0.0
  0
LINE
  5
96D
  8
05
 10
378.24794
 20
213.05
 30
0.0
 11
380.49794
 21
213.05
 31
0.0
  0
LINE
  5
96E
  8
05
 10
378.24794
 20
216.95
 30
0.0
 11
381.24794
 21
216.95
 31
0.0
  0
ARC
  5
96F
  8
05
 10
377.64794
 20
232.956109
 30
0.0
 40
0.6
 50
0.0
 51
28.587806
  0
SOLID
  5
970
  8
BEM1
 10
371.446425
 20
263.595763
 30
0.0
 11
371.446425
 21
264.762429
 31
0.0
 12
374.946425
 22
264.179096
 32
0.0
 13
374.946425
 23
264.179096
 33
0.0
  0
ARC
  5
971
  8
05
 10
356.975604
 20
245.180962
 30
0.0
 40
0.6
 50
337.5
 51
68.571012
  0
LINE
  5
972
  8
05
 10
356.843248
 20
243.29355
 30
0.0
 11
357.876493
 21
245.788025
 31
0.0
  0
LINE
  5
973
  8
05
 10
357.267622
 20
241.966266
 30
0.0
 11
358.707985
 21
245.44361
 31
0.0
  0
LINE
  5
974
  8
05
 10
356.21182
 20
241.769149
 30
0.0
 11
356.269223
 21
241.907731
 31
0.0
  0
ARC
  5
975
  8
05
 10
356.556235
 20
242.600641
 30
0.0
 40
0.75
 50
67.5
 51
313.253705
  0
ARC
  5
976
  8
05
 10
356.613638
 20
242.739222
 30
0.0
 40
0.6
 50
67.5
 51
275.889605
  0
ARC
  5
977
  8
05
 10
356.736772
 20
241.545557
 30
0.0
 40
0.6
 50
66.358894
 51
95.889605
  0
ARC
  5
978
  8
05
 10
345.247941
 20
215.3
 30
0.0
 40
33.0
 50
60.000002
 51
67.500002
  0
ARC
  5
979
  8
05
 10
362.128939
 20
241.538748
 30
0.0
 40
1.5
 50
57.244333
 51
150.0
  0
LINE
  5
97A
  8
05
 10
360.604636
 20
241.898579
 30
0.0
 11
361.74794
 21
243.878839
 31
0.0
  0
TEXT
  5
97B
  8
SCHRAFFIERT
 10
356.443215
 20
266.251834
 30
0.0
 40
2.5
  1
%%p0.004
 41
0.7
 51
15.0
  0
TEXT
  5
97C
  8
BEM1
 62
     3
 10
343.699723
 20
265.645763
 30
0.0
 40
3.5
  1
[0.780"   ]
 41
0.7
 51
15.0
  0
SOLID
  5
97D
  8
BEM1
 10
379.246425
 20
270.982729
 30
0.0
 11
379.246425
 21
272.149395
 31
0.0
 12
382.746425
 22
271.566062
 32
0.0
 13
382.746425
 23
271.566062
 33
0.0
  0
ENDSEC
  0
EOF
