999
DXF file: np2c-bag.dxf
999
Pro/ENGINEER 2001040 by Parametric Technology Corporation
0
SECTION
2
HEADER
9
$ACADVER
1
AC1012
9
$EXTMAX
10
210.0000000000
20
297.0000000000
9
$EXTMIN
10
0.0000000000
20
0.0000000000
9
$LIMMIN
10
0.0000000000
20
0.0000000000
9
$LIMMAX
10
210.0000000000
20
297.0000000000
9
$VIEWCTR
10
105.0000000000
20
148.5000000000
9
$VIEWSIZE
40
297.0000000000
9
$CLAYER
8
0
9
$LTSCALE
40
19.3600000000
9
$CELTYPE
6
BYLAYER
9
$DIMSCALE
40
1
9
$DIMASZ
40
3.5000000000
9
$DIMEXO
40
2.2000000000
9
$DIMDLI
40
13.3760000000
9
$DIMEXE
40
6.3360000000
9
$DIMCEN
40
3.1680000000
9
$DIMTXT
40
3.9776785714
9
$DIMLFAC
40
1.0000000000
0
ENDSEC
0
SECTION
2
CLASSES
0
ENDSEC
0
SECTION
2
TABLES
0
TABLE
2
VPORT
5
1F4
100
AcDbSymbolTable
70
2
0
VPORT
5
1F5
100
AcDbSymbolTableRecord
100
AcDbViewportTableRecord
2
*ACTIVE
70
0
10
0.0
20
0.0
11
1.0
21
1.0
12
105.0000000000
22
148.5000000000
13
0.0
23
0.0
14
1.0
24
1.0
15
0.0
25
0.0
16
0.0
26
0.0
36
1.0
17
0.0
27
0.0
37
0.0
40
297.0000000000
41
0.7070707071
42
50.0
43
0.0
44
0.0
50
0.0
51
0.0
71
0
72
100
73
1
74
1
75
0
76
0
77
0
78
0
0
ENDTAB
0
TABLE
2
LTYPE
5
1F6
100
AcDbSymbolTable
70
6
0
LTYPE
5
1F7
100
AcDbSymbolTableRecord
100
AcDbLinetypeTableRecord
2
BYBLOCK
70
0
3

72
65
73
0
40
0.0
0
LTYPE
5
1F8
100
AcDbSymbolTableRecord
100
AcDbLinetypeTableRecord
2
BYLAYER
70
0
3

72
65
73
0
40
0.0
0
LTYPE
5
1F9
100
AcDbSymbolTableRecord
100
AcDbLinetypeTableRecord
2
CONTINUOUS
70
64
3
Solid line
72
65
73
0
40
0
0
LTYPE
5
1FA
100
AcDbSymbolTableRecord
100
AcDbLinetypeTableRecord
2
CENTER
70
64
3
____ _ ____ _ ____ _ ____ _ ____ _ ____ _ ____
72
65
73
4
40
0.6
49
0.375
74
0
49
-0.075
74
0
49
0.075
74
0
49
-0.075
74
0
0
LTYPE
5
1FB
100
AcDbSymbolTableRecord
100
AcDbLinetypeTableRecord
2
HIDDEN
70
64
3
- - - - - - - - - - - - - - - - - - - -
72
65
73
2
40
0.2
49
0.1
74
0
49
-0.1
74
0
0
LTYPE
5
1FC
100
AcDbSymbolTableRecord
100
AcDbLinetypeTableRecord
2
PHANTOM
70
64
3
_____ _ _ _____ _ _ _____ _ _ _____
72
65
73
6
40
0.8
49
0.45
74
0
49
-0.05
74
0
49
0.1
74
0
49
-0.05
74
0
49
0.1
74
0
49
-0.05
74
0
0
LTYPE
5
1FD
100
AcDbSymbolTableRecord
100
AcDbLinetypeTableRecord
2
DOT
70
64
3
. . . . . . . . . . . . . . . . . . . .
72
65
73
2
40
0.2
49
0.1
74
0
49
-0.1
74
0
0
LTYPE
5
1FE
100
AcDbSymbolTableRecord
100
AcDbLinetypeTableRecord
2
DASHED
70
64
3
- - - - - - - - - - - - - - - - - - - -
72
65
73
2
40
0.2
49
0.1
74
0
49
-0.1
74
0
0
ENDTAB
0
TABLE
2
LAYER
5
1FF
100
AcDbSymbolTable
70
36
0
LAYER
5
200
100
AcDbSymbolTableRecord
100
AcDbLayerTableRecord
2
0
70
0
62
7
6
CONTINUOUS
0
LAYER
5
201
100
AcDbSymbolTableRecord
100
AcDbLayerTableRecord
2
DEFAULT_1
70
0
62
7
6
CENTER
0
LAYER
5
202
100
AcDbSymbolTableRecord
100
AcDbLayerTableRecord
2
DEFAULT_2
70
0
62
8
6
HIDDEN
0
LAYER
5
203
100
AcDbSymbolTableRecord
100
AcDbLayerTableRecord
2
DEFAULT_3
70
0
62
7
6
PHANTOM
0
LAYER
5
204
100
AcDbSymbolTableRecord
100
AcDbLayerTableRecord
2
0
70
0
62
7
6
CONTINUOUS
0
LAYER
5
205
100
AcDbSymbolTableRecord
100
AcDbLayerTableRecord
2
010
70
0
62
7
6
CONTINUOUS
0
LAYER
5
206
100
AcDbSymbolTableRecord
100
AcDbLayerTableRecord
2
025
70
0
62
7
6
CONTINUOUS
0
LAYER
5
207
100
AcDbSymbolTableRecord
100
AcDbLayerTableRecord
2
035
70
0
62
7
6
CONTINUOUS
0
LAYER
5
208
100
AcDbSymbolTableRecord
100
AcDbLayerTableRecord
2
05
70
0
62
7
6
CONTINUOUS
0
LAYER
5
209
100
AcDbSymbolTableRecord
100
AcDbLayerTableRecord
2
BEM
70
0
62
7
6
CONTINUOUS
0
LAYER
5
20A
100
AcDbSymbolTableRecord
100
AcDbLayerTableRecord
2
DEFPOINTS
70
0
62
7
6
CONTINUOUS
0
LAYER
5
20B
100
AcDbSymbolTableRecord
100
AcDbLayerTableRecord
2
MITTE
70
0
62
7
6
CONTINUOUS
0
LAYER
5
20C
100
AcDbSymbolTableRecord
100
AcDbLayerTableRecord
2
RAHMEN
70
0
62
7
6
CONTINUOUS
0
ENDTAB
0
TABLE
2
STYLE
5
20D
100
AcDbSymbolTable
70
1
0
STYLE
5
20E
100
AcDbSymbolTableRecord
100
AcDbTextStyleTableRecord
2
STANDARD
70
0
40
0.0
41
0.80
50
0.0
71
0
42
0.2
3
txt
4

0
ENDTAB
0
TABLE
2
VIEW
5
20F
100
AcDbSymbolTable
70
0
0
ENDTAB
0
TABLE
2
UCS
5
210
100
AcDbSymbolTable
70
0
0
ENDTAB
0
TABLE
2
APPID
5
211
100
AcDbSymbolTable
70
1
0
APPID
5
212
100
AcDbSymbolTableRecord
100
AcDbRegAppTableRecord
2
ACAD
70
0
0
ENDTAB
0
TABLE
2
DIMSTYLE
5
213
100
AcDbSymbolTable
0
DIMSTYLE
105
214
100
AcDbSymbolTableRecord
100
AcDbDimStyleTableRecord
2
STANDARD
70
0
3

4

5

6

7

40
1.0
41
0.18
42
0.0625
43
0.38
44
0.18
45
0.0
46
0.0
47
0.0
48
0.0
140
0.18
141
0.09
142
0.0
143
25.4
144
1.0
145
0.0
146
1.0
147
0.09
71
0
72
0
73
1
74
1
75
0
76
0
77
0
78
0
170
0
171
2
172
0
173
0
174
0
175
0
176
0
177
0
178
0
270
2
271
4
272
4
273
2
274
2
340
20E
275
0
280
0
281
0
282
0
283
1
284
0
285
0
286
0
287
3
288
0
0
ENDTAB
0
TABLE
2
BLOCK_RECORD
5
215
100
AcDbSymbolTable
70
0
0
BLOCK_RECORD
5
216
100
AcDbSymbolTableRecord
100
AcDbBlockTableRecord
2
*MODEL_SPACE
0
BLOCK_RECORD
5
217
100
AcDbSymbolTableRecord
100
AcDbBlockTableRecord
2
*PAPER_SPACE
0
ENDTAB
0
ENDSEC
0
SECTION
2
BLOCKS
0
BLOCK
5
218
100
AcDbEntity
8
0
100
AcDbBlockBegin
2
*MODEL_SPACE
70
0
10
0.0000000000
20
0.0000000000
3
*MODEL_SPACE
1

3
*MODEL_SPACE
1

0
ENDBLK
5
219
100
AcDbEntity
8
0
100
AcDbBlockEnd
0
BLOCK
5
21A
100
AcDbEntity
8
0
100
AcDbBlockBegin
2
*PAPER_SPACE
70
0
10
0.0000000000
20
0.0000000000
3
*PAPER_SPACE
1

3
*PAPER_SPACE
1

0
ENDBLK
5
21B
100
AcDbEntity
8
0
100
AcDbBlockEnd
0
ENDSEC
0
SECTION
2
ENTITIES
0
LINE
5
21C
100
AcDbEntity
8
0
100
AcDbLine
62
7
6
CONTINUOUS
10
0.0000000000
20
0.0000000000
11
210.0000000000
21
0.0000000000
0
LINE
5
21D
100
AcDbEntity
8
0
100
AcDbLine
62
7
6
CONTINUOUS
10
210.0000000000
20
0.0000000000
11
210.0000000000
21
297.0000000000
0
LINE
5
21E
100
AcDbEntity
8
0
100
AcDbLine
62
7
6
CONTINUOUS
10
0.0000000000
20
297.0000000000
11
210.0000000000
21
297.0000000000
0
LINE
5
21F
100
AcDbEntity
8
0
100
AcDbLine
62
7
6
CONTINUOUS
10
0.0000000000
20
0.0000000000
11
0.0000000000
21
297.0000000000
0
LINE
5
220
100
AcDbEntity
8
010
100
AcDbLine
62
7
6
CONTINUOUS
10
105.3452580000
20
250.9501020000
11
104.4813070000
21
250.9501020000
0
LINE
5
221
100
AcDbEntity
8
010
100
AcDbLine
62
7
6
CONTINUOUS
10
107.0251610000
20
250.9501020000
11
106.3531990000
21
250.9501020000
0
LINE
5
222
100
AcDbEntity
8
010
100
AcDbLine
62
7
6
CONTINUOUS
10
107.7931170000
20
250.9501020000
11
107.3611410000
21
250.9501020000
0
LINE
5
223
100
AcDbEntity
8
010
100
AcDbLine
62
7
6
CONTINUOUS
10
104.5647260000
20
246.7074950000
11
103.6410360000
21
246.7074950000
0
LINE
5
224
100
AcDbEntity
8
010
100
AcDbLine
62
7
6
CONTINUOUS
10
102.8224060000
20
246.7074950000
11
98.6585750000
21
246.7074950000
0
LINE
5
225
100
AcDbEntity
8
010
100
AcDbLine
62
7
6
CONTINUOUS
10
104.5860750000
20
248.5470050000
11
100.0882450000
21
248.5470050000
0
LINE
5
226
100
AcDbEntity
8
010
100
AcDbLine
62
7
6
CONTINUOUS
10
106.3778980000
20
248.5470050000
11
105.3964800000
21
248.5470050000
0
LINE
5
227
100
AcDbEntity
8
010
100
AcDbLine
62
7
6
CONTINUOUS
10
105.8439760000
20
246.7074950000
11
105.3048200000
21
246.7074950000
0
LINE
5
228
100
AcDbEntity
8
010
100
AcDbLine
62
7
6
CONTINUOUS
10
103.9006960000
20
243.0401570000
11
96.3389220000
21
243.0401570000
0
LINE
5
229
100
AcDbEntity
8
010
100
AcDbLine
62
7
6
CONTINUOUS
10
105.9430800000
20
243.0401570000
11
104.8873820000
21
243.0401570000
0
LINE
5
22A
100
AcDbEntity
8
010
100
AcDbLine
62
7
6
CONTINUOUS
10
107.8299050000
20
243.0401570000
11
106.8019050000
21
243.0401570000
0
LINE
5
22B
100
AcDbEntity
8
010
100
AcDbLine
62
7
6
CONTINUOUS
10
116.2677110000
20
107.4634040000
11
116.2677110000
21
127.4793260000
0
LINE
5
22C
100
AcDbEntity
8
010
100
AcDbLine
62
7
6
CONTINUOUS
10
100.5234330000
20
109.6736570000
11
100.5234330000
21
127.4793260000
0
LINE
5
22D
100
AcDbEntity
8
010
100
AcDbLine
62
7
6
CONTINUOUS
10
114.8864780000
20
106.0841200000
11
114.8864780000
21
127.4793260000
0
LINE
5
22E
100
AcDbEntity
8
010
100
AcDbLine
62
7
6
CONTINUOUS
10
113.1108000000
20
106.0841200000
11
113.1108000000
21
127.4793260000
0
LINE
5
22F
100
AcDbEntity
8
010
100
AcDbLine
62
7
6
CONTINUOUS
10
110.9946290000
20
106.0841200000
11
110.9946290000
21
127.4793260000
0
LINE
5
230
100
AcDbEntity
8
010
100
AcDbLine
62
7
6
CONTINUOUS
10
108.6022640000
20
106.0841200000
11
108.6022640000
21
127.4793260000
0
LINE
5
231
100
AcDbEntity
8
010
100
AcDbLine
62
7
6
CONTINUOUS
10
106.0063960000
20
106.0841200000
11
106.0063960000
21
127.4793260000
0
LINE
5
232
100
AcDbEntity
8
010
100
AcDbLine
62
7
6
CONTINUOUS
10
103.2858990000
20
106.0841200000
11
103.2858990000
21
127.4793260000
0
LINE
5
233
100
AcDbEntity
8
010
100
AcDbLine
62
7
6
CONTINUOUS
10
97.8029360000
20
106.0841200000
11
97.8029360000
21
127.4793260000
0
LINE
5
234
100
AcDbEntity
8
010
100
AcDbLine
62
7
6
CONTINUOUS
10
95.2070680000
20
106.0841200000
11
95.2070680000
21
127.4793260000
0
LINE
5
235
100
AcDbEntity
8
010
100
AcDbLine
62
7
6
CONTINUOUS
10
88.9228540000
20
111.1452180000
11
88.9228540000
21
126.8796030000
0
LINE
5
236
100
AcDbEntity
8
010
100
AcDbLine
62
7
6
CONTINUOUS
10
90.6985320000
20
110.4094370000
11
90.6985320000
21
126.5966100000
0
LINE
5
237
100
AcDbEntity
8
010
100
AcDbLine
62
7
6
CONTINUOUS
10
92.8147030000
20
120.7103660000
11
92.8147030000
21
127.4793260000
0
LINE
5
238
100
AcDbEntity
8
010
100
AcDbLine
62
7
6
CONTINUOUS
10
92.8147030000
20
117.9370390000
11
92.8147030000
21
119.7481910000
0
LINE
5
239
100
AcDbEntity
8
010
100
AcDbLine
62
7
6
CONTINUOUS
10
92.8147030000
20
106.0841200000
11
92.8147030000
21
115.6730990000
0
LINE
5
23A
100
AcDbEntity
8
010
100
AcDbLine
62
7
6
CONTINUOUS
10
117.2356430000
20
106.0841200000
11
117.2356430000
21
127.4793260000
0
LINE
5
23B
100
AcDbEntity
8
010
100
AcDbLine
62
7
6
CONTINUOUS
10
86.5736890000
20
106.0841200000
11
86.5736890000
21
127.4793260000
0
LINE
5
23C
100
AcDbEntity
8
MITTE
100
AcDbLine
62
4
6
CENTER
10
101.9046660000
20
206.8428300000
11
101.9046660000
21
68.8697970000
0
LINE
5
23D
100
AcDbEntity
8
MITTE
100
AcDbLine
62
4
6
CENTER
10
101.9046660000
20
259.6155900000
11
101.9046660000
21
189.5428750000
0
LINE
5
23E
100
AcDbEntity
8
RAHMEN
100
AcDbLine
62
2
6
CONTINUOUS
10
205.0000000000
20
5.0000000000
11
205.0000000000
21
292.0000000000
0
LINE
5
23F
100
AcDbEntity
8
RAHMEN
100
AcDbLine
62
2
6
CONTINUOUS
10
205.0000000000
20
292.0000000000
11
5.0000000000
21
292.0000000000
0
LINE
5
240
100
AcDbEntity
8
RAHMEN
100
AcDbLine
62
2
6
CONTINUOUS
10
5.0000000000
20
292.0000000000
11
5.0000000000
21
5.0000000000
0
LINE
5
241
100
AcDbEntity
8
RAHMEN
100
AcDbLine
62
2
6
CONTINUOUS
10
5.0000000000
20
5.0000000000
11
205.0000000000
21
5.0000000000
0
LINE
5
242
100
AcDbEntity
8
05
100
AcDbLine
62
2
6
CONTINUOUS
10
154.0000000000
20
5.0000000000
11
154.0000000000
21
51.0000000000
0
LINE
5
243
100
AcDbEntity
8
05
100
AcDbLine
62
2
6
CONTINUOUS
10
188.0000000000
20
14.0000000000
11
188.0000000000
21
51.0000000000
0
LINE
5
244
100
AcDbEntity
8
05
100
AcDbLine
62
2
6
CONTINUOUS
10
173.0000000000
20
31.0000000000
11
173.0000000000
21
51.0000000000
0
LINE
5
245
100
AcDbEntity
8
05
100
AcDbLine
62
2
6
CONTINUOUS
10
72.0000000000
20
46.0000000000
11
113.0000000000
21
46.0000000000
0
LINE
5
246
100
AcDbEntity
8
05
100
AcDbLine
62
2
6
CONTINUOUS
10
60.0000000000
20
5.0000000000
11
60.0000000000
21
51.0000000000
0
LINE
5
247
100
AcDbEntity
8
05
100
AcDbLine
62
2
6
CONTINUOUS
10
47.0000000000
20
5.0000000000
11
47.0000000000
21
51.0000000000
0
LINE
5
248
100
AcDbEntity
8
05
100
AcDbLine
62
2
6
CONTINUOUS
10
5.0000000000
20
11.0000000000
11
72.0000000000
21
11.0000000000
0
LINE
5
249
100
AcDbEntity
8
05
100
AcDbLine
62
2
6
CONTINUOUS
10
72.0000000000
20
38.0000000000
11
113.0000000000
21
38.0000000000
0
LINE
5
24A
100
AcDbEntity
8
05
100
AcDbLine
62
2
6
CONTINUOUS
10
14.0000000000
20
5.0000000000
11
14.0000000000
21
51.0000000000
0
LINE
5
24B
100
AcDbEntity
8
05
100
AcDbLine
62
2
6
CONTINUOUS
10
72.0000000000
20
5.0000000000
11
72.0000000000
21
51.0000000000
0
LINE
5
24C
100
AcDbEntity
8
05
100
AcDbLine
62
2
6
CONTINUOUS
10
113.0000000000
20
31.0000000000
11
113.0000000000
21
51.0000000000
0
LINE
5
24D
100
AcDbEntity
8
05
100
AcDbLine
62
2
6
CONTINUOUS
10
136.0000000000
20
31.0000000000
11
136.0000000000
21
51.0000000000
0
LINE
5
24E
100
AcDbEntity
8
05
100
AcDbLine
62
2
6
CONTINUOUS
10
205.0000000000
20
5.0000000000
11
205.0000000000
21
51.0000000000
0
LINE
5
24F
100
AcDbEntity
8
05
100
AcDbLine
62
2
6
CONTINUOUS
10
5.0000000000
20
51.0000000000
11
5.0000000000
21
5.0000000000
0
LINE
5
250
100
AcDbEntity
8
05
100
AcDbLine
62
2
6
CONTINUOUS
10
205.0000000000
20
14.0000000000
11
72.0000000000
21
14.0000000000
0
LINE
5
251
100
AcDbEntity
8
05
100
AcDbLine
62
2
6
CONTINUOUS
10
205.0000000000
20
23.0000000000
11
154.0000000000
21
23.0000000000
0
LINE
5
252
100
AcDbEntity
8
05
100
AcDbLine
62
2
6
CONTINUOUS
10
205.0000000000
20
31.0000000000
11
72.0000000000
21
31.0000000000
0
LINE
5
253
100
AcDbEntity
8
05
100
AcDbLine
62
2
6
CONTINUOUS
10
205.0000000000
20
36.0000000000
11
154.0000000000
21
36.0000000000
0
LINE
5
254
100
AcDbEntity
8
05
100
AcDbLine
62
2
6
CONTINUOUS
10
205.0000000000
20
41.0000000000
11
154.0000000000
21
41.0000000000
0
LINE
5
255
100
AcDbEntity
8
05
100
AcDbLine
62
2
6
CONTINUOUS
10
205.0000000000
20
46.0000000000
11
154.0000000000
21
46.0000000000
0
LINE
5
256
100
AcDbEntity
8
05
100
AcDbLine
62
2
6
CONTINUOUS
10
205.0000000000
20
51.0000000000
11
5.0000000000
21
51.0000000000
0
LINE
5
257
100
AcDbEntity
8
05
100
AcDbLine
62
2
6
CONTINUOUS
10
114.5838550000
20
98.9542090000
11
112.8818520000
21
74.6144390000
0
ARC
5
258
100
AcDbEntity
8
05
100
AcDbCircle
62
2
6
CONTINUOUS
10
108.9783273604
20
74.8874028451
40
3.9130568451
100
AcDbArc
50
270.0000532922
51
355.9999589309
0
LINE
5
259
100
AcDbEntity
8
05
100
AcDbLine
62
2
6
CONTINUOUS
10
108.9783310000
20
70.9743460000
11
94.8310010000
21
70.9743460000
0
ARC
5
25A
100
AcDbEntity
8
05
100
AcDbCircle
62
2
6
CONTINUOUS
10
94.8310046396
20
74.8874028451
40
3.9130568451
100
AcDbArc
50
184.0000410691
51
269.9999467078
0
LINE
5
25B
100
AcDbEntity
8
05
100
AcDbLine
62
2
6
CONTINUOUS
10
90.9274800000
20
74.6144390000
11
89.2254780000
21
98.9542090000
0
LINE
5
25C
100
AcDbEntity
8
05
100
AcDbLine
62
2
6
CONTINUOUS
10
95.7101010000
20
240.2669870000
11
95.7101010000
21
198.3524660000
0
LINE
5
25D
100
AcDbEntity
8
05
100
AcDbLine
62
2
6
CONTINUOUS
10
108.0992310000
20
240.2669870000
11
108.0992310000
21
198.3524660000
0
ARC
5
25E
100
AcDbEntity
8
05
100
AcDbCircle
62
2
6
CONTINUOUS
10
105.0689670000
20
242.2757720000
40
3.1287470000
100
AcDbArc
50
12.8852570000
51
55.9465330000
0
ARC
5
25F
100
AcDbEntity
8
05
100
AcDbCircle
62
2
6
CONTINUOUS
10
98.7403650000
20
242.2757720000
40
3.1287470000
100
AcDbArc
50
124.0534670000
51
165.5862060000
0
ARC
5
260
100
AcDbEntity
8
05
100
AcDbCircle
62
2
6
CONTINUOUS
10
101.9046660000
20
256.4779300000
40
1.1739160000
100
AcDbArc
50
49.0157840000
51
130.9842160000
0
LINE
5
261
100
AcDbEntity
8
05
100
AcDbLine
62
2
6
CONTINUOUS
10
101.1347520000
20
257.3641080000
11
96.6883730000
21
253.5010800000
0
LINE
5
262
100
AcDbEntity
8
05
100
AcDbLine
62
2
6
CONTINUOUS
10
102.6745800000
20
257.3641080000
11
107.1209590000
21
253.5010800000
0
ARC
5
263
100
AcDbEntity
8
05
100
AcDbCircle
62
2
6
CONTINUOUS
10
95.7451090000
20
246.7074950000
40
2.2202470000
100
AcDbArc
50
304.0534670000
51
55.9465330000
0
ARC
5
264
100
AcDbEntity
8
05
100
AcDbCircle
62
2
6
CONTINUOUS
10
108.0642230000
20
246.7074950000
40
2.2202470000
100
AcDbArc
50
124.0534670000
51
235.9465330000
0
ARC
5
265
100
AcDbEntity
8
05
100
AcDbCircle
62
2
6
CONTINUOUS
10
98.7403650000
20
251.1392190000
40
3.1287470000
100
AcDbArc
50
130.9842000000
51
235.9465330000
0
ARC
5
266
100
AcDbEntity
8
05
100
AcDbCircle
62
2
6
CONTINUOUS
10
105.0689670000
20
251.1392190000
40
3.1287470000
100
AcDbArc
50
304.0534670000
51
49.0158000000
0
LINE
5
267
100
AcDbEntity
8
05
100
AcDbLine
62
2
6
CONTINUOUS
10
95.7492320000
20
240.3061170000
11
95.7101010000
21
240.2669870000
0
LINE
5
268
100
AcDbEntity
8
05
100
AcDbLine
62
2
6
CONTINUOUS
10
108.0601000000
20
240.3061170000
11
95.7492320000
21
240.3061170000
0
LINE
5
269
100
AcDbEntity
8
05
100
AcDbLine
62
2
6
CONTINUOUS
10
95.7492320000
20
242.2757720000
11
95.7101010000
21
242.3149030000
0
LINE
5
26A
100
AcDbEntity
8
05
100
AcDbLine
62
2
6
CONTINUOUS
10
95.7101010000
20
242.3149030000
11
95.7101010000
21
243.0545890000
0
LINE
5
26B
100
AcDbEntity
8
05
100
AcDbLine
62
2
6
CONTINUOUS
10
108.0797970000
20
242.2757720000
11
95.7492320000
21
242.2757720000
0
LINE
5
26C
100
AcDbEntity
8
05
100
AcDbLine
62
2
6
CONTINUOUS
10
108.0992310000
20
240.2669870000
11
108.0601000000
21
240.3061170000
0
LINE
5
26D
100
AcDbEntity
8
05
100
AcDbLine
62
2
6
CONTINUOUS
10
108.0797970000
20
242.2757720000
11
108.1189270000
21
242.3149030000
0
LINE
5
26E
100
AcDbEntity
8
05
100
AcDbLine
62
2
6
CONTINUOUS
10
108.1189270000
20
242.9734800000
11
108.1189270000
21
242.3149030000
0
LINE
5
26F
100
AcDbEntity
8
05
100
AcDbLine
62
2
6
CONTINUOUS
10
107.9121140000
20
242.2757720000
11
107.9121140000
21
240.3061170000
0
LINE
5
270
100
AcDbEntity
8
05
100
AcDbLine
62
2
6
CONTINUOUS
10
95.8972180000
20
242.2757720000
11
95.8972180000
21
240.3061170000
0
LINE
5
271
100
AcDbEntity
8
05
100
AcDbLine
62
2
6
CONTINUOUS
10
114.5653940000
20
192.9475360000
11
117.7525320000
21
132.1927120000
0
LINE
5
272
100
AcDbEntity
8
05
100
AcDbLine
62
2
6
CONTINUOUS
10
89.2439380000
20
192.9475360000
11
86.0568000000
21
132.1927120000
0
LINE
5
273
100
AcDbEntity
8
05
100
AcDbLine
62
2
6
CONTINUOUS
10
112.6115540000
20
194.8015660000
11
111.2959940000
21
194.8015660000
0
LINE
5
274
100
AcDbEntity
8
05
100
AcDbLine
62
2
6
CONTINUOUS
10
110.7188720000
20
197.5646040000
11
110.7188720000
21
194.8015660000
0
LINE
5
275
100
AcDbEntity
8
05
100
AcDbLine
62
2
6
CONTINUOUS
10
110.7188720000
20
197.5646040000
11
110.3249410000
21
197.9585350000
0
ARC
5
276
100
AcDbEntity
8
05
100
AcDbCircle
62
2
6
CONTINUOUS
10
108.4931620000
20
198.3524660000
40
0.3939310000
100
AcDbArc
50
180.0000000000
51
270.0000000000
0
ARC
5
277
100
AcDbEntity
8
05
100
AcDbCircle
62
2
6
CONTINUOUS
10
112.6115540000
20
192.8450390000
40
1.9565270000
100
AcDbArc
50
3.0029280000
51
90.0000000000
0
LINE
5
278
100
AcDbEntity
8
05
100
AcDbLine
62
2
6
CONTINUOUS
10
93.4843910000
20
197.9585350000
11
95.3161720000
21
197.9585350000
0
LINE
5
279
100
AcDbEntity
8
05
100
AcDbLine
62
2
6
CONTINUOUS
10
93.0904600000
20
197.5646040000
11
93.0904600000
21
194.8015660000
0
ARC
5
27A
100
AcDbEntity
8
05
100
AcDbCircle
62
2
6
CONTINUOUS
10
95.3161700000
20
198.3524660000
40
0.3939310000
100
AcDbArc
50
270.0000000000
51
360.0000000000
0
LINE
5
27B
100
AcDbEntity
8
05
100
AcDbLine
62
2
6
CONTINUOUS
10
93.0904600000
20
197.5646040000
11
93.4843910000
21
197.9585350000
0
LINE
5
27C
100
AcDbEntity
8
05
100
AcDbLine
62
2
6
CONTINUOUS
10
93.4843910000
20
197.9585350000
11
95.3161700000
21
197.9585350000
0
ARC
5
27D
100
AcDbEntity
8
05
100
AcDbCircle
62
2
6
CONTINUOUS
10
91.1977780000
20
192.8450390000
40
1.9565270000
100
AcDbArc
50
90.0000000000
51
176.9970720000
0
LINE
5
27E
100
AcDbEntity
8
05
100
AcDbLine
62
2
6
CONTINUOUS
10
92.5133380000
20
194.8015660000
11
91.1977770000
21
194.8015660000
0
LINE
5
27F
100
AcDbEntity
8
05
100
AcDbLine
62
2
6
CONTINUOUS
10
111.2959940000
20
194.8015660000
11
92.5133380000
21
194.8015660000
0
LINE
5
280
100
AcDbEntity
8
05
100
AcDbLine
62
2
6
CONTINUOUS
10
110.3249410000
20
197.9585350000
11
95.3161700000
21
197.9585350000
0
ARC
5
281
100
AcDbEntity
8
05
100
AcDbCircle
62
2
6
CONTINUOUS
10
88.0133270000
20
132.1927120000
40
1.9565270000
100
AcDbArc
50
180.0000000000
51
270.0000000000
0
LINE
5
282
100
AcDbEntity
8
05
100
AcDbLine
62
2
6
CONTINUOUS
10
85.7068470000
20
118.4805370000
11
86.8821070000
21
101.6735310000
0
ARC
5
283
100
AcDbEntity
8
05
100
AcDbCircle
62
2
6
CONTINUOUS
10
89.8743991660
20
101.8827752325
40
2.9995992325
100
AcDbArc
50
184.0000529887
51
269.9999586274
0
LINE
5
284
100
AcDbEntity
8
05
100
AcDbLine
62
2
6
CONTINUOUS
10
89.8743970000
20
98.8831760000
11
101.9046660000
21
98.8831760000
0
LINE
5
285
100
AcDbEntity
8
05
100
AcDbLine
62
2
6
CONTINUOUS
10
101.9046660000
20
98.8831760000
11
113.9349350000
21
98.8831760000
0
ARC
5
286
100
AcDbEntity
8
05
100
AcDbCircle
62
2
6
CONTINUOUS
10
113.9349328340
20
101.8827752325
40
2.9995992325
100
AcDbArc
50
270.0000413726
51
355.9999470113
0
LINE
5
287
100
AcDbEntity
8
05
100
AcDbLine
62
2
6
CONTINUOUS
10
116.9272250000
20
101.6735310000
11
118.1024850000
21
118.4805370000
0
LINE
5
288
100
AcDbEntity
8
05
100
AcDbLine
62
2
6
CONTINUOUS
10
118.1024850000
20
118.4805370000
11
118.1024850000
21
126.8794060000
0
ARC
5
289
100
AcDbEntity
8
05
100
AcDbCircle
62
2
6
CONTINUOUS
10
117.5025659482
20
126.8794069482
40
0.5999190518
100
AcDbArc
50
359.9999094428
51
89.9999950514
0
LINE
5
28A
100
AcDbEntity
8
05
100
AcDbLine
62
2
6
CONTINUOUS
10
117.5025660000
20
127.4793260000
11
86.3067660000
21
127.4793260000
0
ARC
5
28B
100
AcDbEntity
8
05
100
AcDbCircle
62
2
6
CONTINUOUS
10
86.3067660518
20
126.8794069482
40
0.5999190518
100
AcDbArc
50
90.0000049486
51
180.0000905572
0
LINE
5
28C
100
AcDbEntity
8
05
100
AcDbLine
62
2
6
CONTINUOUS
10
85.7068470000
20
126.8794060000
11
85.7068470000
21
118.4805370000
0
ARC
5
28D
100
AcDbEntity
8
05
100
AcDbCircle
62
2
6
CONTINUOUS
10
115.7960060000
20
132.1927120000
40
1.9565270000
100
AcDbArc
50
270.0000000000
51
360.0000000000
0
LINE
5
28E
100
AcDbEntity
8
05
100
AcDbLine
62
2
6
CONTINUOUS
10
115.7960060000
20
130.2361850000
11
114.4264370000
21
130.2361850000
0
LINE
5
28F
100
AcDbEntity
8
05
100
AcDbLine
62
2
6
CONTINUOUS
10
89.3828950000
20
130.2361850000
11
88.0133270000
21
130.2361850000
0
LINE
5
290
100
AcDbEntity
8
05
100
AcDbLine
62
2
6
CONTINUOUS
10
114.4264370000
20
130.2361850000
11
89.3828950000
21
130.2361850000
0
LINE
5
291
100
AcDbEntity
8
05
100
AcDbLine
62
2
6
CONTINUOUS
10
114.4264370000
20
130.2361850000
11
114.4264370000
21
127.4793260000
0
LINE
5
292
100
AcDbEntity
8
05
100
AcDbLine
62
2
6
CONTINUOUS
10
89.3828950000
20
130.2361850000
11
89.3828950000
21
127.4793260000
0
LINE
5
293
100
AcDbEntity
8
05
100
AcDbLine
62
2
6
CONTINUOUS
10
95.8972183590
20
242.2757720609
11
95.8972183590
21
240.3061170825
0
LINE
5
294
100
AcDbEntity
8
05
100
AcDbLine
62
2
6
CONTINUOUS
10
95.8972183590
20
240.3061170825
11
101.9046660431
21
240.3061170825
0
LINE
5
295
100
AcDbEntity
8
05
100
AcDbLine
62
2
6
CONTINUOUS
10
101.9046660431
20
240.3061170825
11
101.9046660431
21
242.2757720609
0
LINE
5
296
100
AcDbEntity
8
05
100
AcDbLine
62
2
6
CONTINUOUS
10
101.9046660431
20
242.2757720609
11
95.8972183590
21
242.2757720609
0
LINE
5
297
100
AcDbEntity
8
05
100
AcDbLine
62
2
6
CONTINUOUS
10
101.9046660431
20
242.2757720609
11
101.9046660431
21
240.3061170825
0
LINE
5
298
100
AcDbEntity
8
05
100
AcDbLine
62
2
6
CONTINUOUS
10
101.9046660431
20
240.3061170825
11
107.9121137271
21
240.3061170825
0
LINE
5
299
100
AcDbEntity
8
05
100
AcDbLine
62
2
6
CONTINUOUS
10
107.9121137271
20
240.3061170825
11
107.9121137271
21
242.2757720609
0
LINE
5
29A
100
AcDbEntity
8
05
100
AcDbLine
62
2
6
CONTINUOUS
10
107.9121137271
20
242.2757720609
11
101.9046660431
21
242.2757720609
0
SOLID
5
29B
100
AcDbEntity
8
05
100
AcDbTrace
62
2
6
CONTINUOUS
10
101.9046660431
20
242.2757719360
11
95.8972183590
21
242.2757719360
12
95.8972183590
22
240.3061172160
13
95.8972183590
23
240.3061172160
0
SOLID
5
29C
100
AcDbEntity
8
05
100
AcDbTrace
62
2
6
CONTINUOUS
10
95.8972183590
20
240.3061172160
11
101.9046660431
21
240.3061172160
12
101.9046660431
22
242.2757719360
13
101.9046660431
23
242.2757719360
0
SOLID
5
29D
100
AcDbEntity
8
05
100
AcDbTrace
62
2
6
CONTINUOUS
10
107.9121137271
20
242.2757719360
11
101.9046660431
21
242.2757719360
12
101.9046660431
22
240.3061172160
13
101.9046660431
23
240.3061172160
0
SOLID
5
29E
100
AcDbEntity
8
05
100
AcDbTrace
62
2
6
CONTINUOUS
10
101.9046660431
20
240.3061172160
11
107.9121137271
21
240.3061172160
12
107.9121137271
22
242.2757719360
13
107.9121137271
23
242.2757719360
0
LINE
5
29F
100
AcDbEntity
8
RAHMEN
100
AcDbLine
62
7
6
CONTINUOUS
10
210.0000000000
20
0.0000000000
11
210.0000000000
21
297.0000000000
0
LINE
5
2A0
100
AcDbEntity
8
RAHMEN
100
AcDbLine
62
7
6
CONTINUOUS
10
210.0000000000
20
297.0000000000
11
0.0000000000
21
297.0000000000
0
LINE
5
2A1
100
AcDbEntity
8
RAHMEN
100
AcDbLine
62
7
6
CONTINUOUS
10
0.0000000000
20
297.0000000000
11
0.0000000000
21
0.0000000000
0
LINE
5
2A2
100
AcDbEntity
8
RAHMEN
100
AcDbLine
62
7
6
CONTINUOUS
10
0.0000000000
20
0.0000000000
11
210.0000000000
21
0.0000000000
0
LINE
5
2A3
100
AcDbEntity
8
05
100
AcDbLine
62
7
6
CONTINUOUS
10
97.5761270000
20
8.2089520000
11
97.8594800000
21
8.4923040000
0
LINE
5
2A4
100
AcDbEntity
8
05
100
AcDbLine
62
7
6
CONTINUOUS
10
99.6202690000
20
10.2530940000
11
100.0602470000
21
10.6930720000
0
LINE
5
2A5
100
AcDbEntity
8
05
100
AcDbLine
62
7
6
CONTINUOUS
10
98.5024150000
20
9.1352400000
11
98.7923930000
21
9.4252180000
0
LINE
5
2A6
100
AcDbEntity
8
05
100
AcDbLine
62
7
6
CONTINUOUS
10
97.2579290000
20
8.2089520000
11
97.9501160000
21
8.9011390000
0
LINE
5
2A7
100
AcDbEntity
8
05
100
AcDbLine
62
7
6
CONTINUOUS
10
99.3020710000
20
10.2530940000
11
99.7420490000
21
10.6930720000
0
LINE
5
2A8
100
AcDbEntity
8
05
100
AcDbLine
62
7
6
CONTINUOUS
10
98.1842170000
20
9.1352400000
11
98.4741950000
21
9.4252180000
0
LINE
5
2A9
100
AcDbEntity
8
05
100
AcDbLine
62
7
6
CONTINUOUS
10
96.9397310000
20
8.2089520000
11
98.1559970000
21
9.4252180000
0
LINE
5
2AA
100
AcDbEntity
8
05
100
AcDbLine
62
7
6
CONTINUOUS
10
98.9838730000
20
10.2530940000
11
99.4238510000
21
10.6930720000
0
LINE
5
2AB
100
AcDbEntity
8
05
100
AcDbLine
62
7
6
CONTINUOUS
10
96.6215330000
20
8.2089520000
11
98.1313890000
21
9.7188080000
0
LINE
5
2AC
100
AcDbEntity
8
05
100
AcDbLine
62
7
6
CONTINUOUS
10
98.6656750000
20
10.2530940000
11
99.1056530000
21
10.6930720000
0
LINE
5
2AD
100
AcDbEntity
8
05
100
AcDbLine
62
7
6
CONTINUOUS
10
96.3033350000
20
8.2089520000
11
98.2220250000
21
10.1276420000
0
LINE
5
2AE
100
AcDbEntity
8
05
100
AcDbLine
62
7
6
CONTINUOUS
10
98.3474770000
20
10.2530940000
11
98.7874550000
21
10.6930720000
0
LINE
5
2AF
100
AcDbEntity
8
05
100
AcDbLine
62
7
6
CONTINUOUS
10
96.1183660000
20
8.3421810000
11
98.4692570000
21
10.6930720000
0
LINE
5
2B0
100
AcDbEntity
8
05
100
AcDbLine
62
7
6
CONTINUOUS
10
96.2090020000
20
8.7510150000
11
98.1510590000
21
10.6930720000
0
LINE
5
2B1
100
AcDbEntity
8
05
100
AcDbLine
62
7
6
CONTINUOUS
10
96.2996390000
20
9.1598500000
11
97.8328610000
21
10.6930720000
0
LINE
5
2B2
100
AcDbEntity
8
05
100
AcDbLine
62
7
6
CONTINUOUS
10
96.3902750000
20
9.5686840000
11
97.5146630000
21
10.6930720000
0
LINE
5
2B3
100
AcDbEntity
8
05
100
AcDbLine
62
7
6
CONTINUOUS
10
96.4809110000
20
9.9775190000
11
97.1964650000
21
10.6930720000
0
LINE
5
2B4
100
AcDbEntity
8
05
100
AcDbLine
62
7
6
CONTINUOUS
10
96.5715480000
20
10.3863530000
11
96.8782670000
21
10.6930720000
0
LINE
5
2B5
100
AcDbEntity
8
05
100
AcDbLine
62
7
6
CONTINUOUS
10
95.9390390000
20
10.0720420000
11
95.9639990000
21
10.0970020000
0
LINE
5
2B6
100
AcDbEntity
8
05
100
AcDbLine
62
7
6
CONTINUOUS
10
93.7577510000
20
8.2089520000
11
93.9600800000
21
8.4112820000
0
LINE
5
2B7
100
AcDbEntity
8
05
100
AcDbLine
62
7
6
CONTINUOUS
10
95.6208410000
20
10.0720420000
11
96.0546360000
21
10.5058370000
0
LINE
5
2B8
100
AcDbEntity
8
05
100
AcDbLine
62
7
6
CONTINUOUS
10
93.4395530000
20
8.2089520000
11
94.0507170000
21
8.8201160000
0
LINE
5
2B9
100
AcDbEntity
8
05
100
AcDbLine
62
7
6
CONTINUOUS
10
95.3026430000
20
10.0720420000
11
95.9236730000
21
10.6930720000
0
LINE
5
2BA
100
AcDbEntity
8
05
100
AcDbLine
62
7
6
CONTINUOUS
10
93.1213550000
20
8.2089520000
11
94.1413530000
21
9.2289510000
0
LINE
5
2BB
100
AcDbEntity
8
05
100
AcDbLine
62
7
6
CONTINUOUS
10
94.9844450000
20
10.0720420000
11
95.6054740000
21
10.6930720000
0
LINE
5
2BC
100
AcDbEntity
8
05
100
AcDbLine
62
7
6
CONTINUOUS
10
92.8031570000
20
8.2089520000
11
94.2319900000
21
9.6377850000
0
LINE
5
2BD
100
AcDbEntity
8
05
100
AcDbLine
62
7
6
CONTINUOUS
10
94.6662460000
20
10.0720420000
11
95.2872760000
21
10.6930720000
0
LINE
5
2BE
100
AcDbEntity
8
05
100
AcDbLine
62
7
6
CONTINUOUS
10
92.4849590000
20
8.2089520000
11
94.3226260000
21
10.0466200000
0
LINE
5
2BF
100
AcDbEntity
8
05
100
AcDbLine
62
7
6
CONTINUOUS
10
94.3480480000
20
10.0720420000
11
94.9690780000
21
10.6930720000
0
LINE
5
2C0
100
AcDbEntity
8
05
100
AcDbLine
62
7
6
CONTINUOUS
10
92.2189660000
20
8.2611580000
11
94.6508800000
21
10.6930720000
0
LINE
5
2C1
100
AcDbEntity
8
05
100
AcDbLine
62
7
6
CONTINUOUS
10
92.3096030000
20
8.6699920000
11
94.3326820000
21
10.6930720000
0
LINE
5
2C2
100
AcDbEntity
8
05
100
AcDbLine
62
7
6
CONTINUOUS
10
92.4002390000
20
9.0788270000
11
94.0144840000
21
10.6930720000
0
LINE
5
2C3
100
AcDbEntity
8
05
100
AcDbLine
62
7
6
CONTINUOUS
10
92.4908760000
20
9.4876610000
11
93.6962860000
21
10.6930720000
0
LINE
5
2C4
100
AcDbEntity
8
05
100
AcDbLine
62
7
6
CONTINUOUS
10
92.5815120000
20
9.8964960000
11
93.3780880000
21
10.6930720000
0
LINE
5
2C5
100
AcDbEntity
8
05
100
AcDbLine
62
7
6
CONTINUOUS
10
92.4388600000
20
10.0720420000
11
93.0598900000
21
10.6930720000
0
LINE
5
2C6
100
AcDbEntity
8
05
100
AcDbLine
62
7
6
CONTINUOUS
10
92.1206620000
20
10.0720420000
11
92.7416920000
21
10.6930720000
0
LINE
5
2C7
100
AcDbEntity
8
05
100
AcDbLine
62
7
6
CONTINUOUS
10
91.8024640000
20
10.0720420000
11
92.4234940000
21
10.6930720000
0
LINE
5
2C8
100
AcDbEntity
8
05
100
AcDbLine
62
7
6
CONTINUOUS
10
89.8883760000
20
8.4761520000
11
90.3685390000
21
8.9563150000
0
LINE
5
2C9
100
AcDbEntity
8
05
100
AcDbLine
62
7
6
CONTINUOUS
10
91.4842660000
20
10.0720420000
11
92.1052960000
21
10.6930720000
0
LINE
5
2CA
100
AcDbEntity
8
05
100
AcDbLine
62
7
6
CONTINUOUS
10
89.4054660000
20
8.3114400000
11
90.4591750000
21
9.3651490000
0
LINE
5
2CB
100
AcDbEntity
8
05
100
AcDbLine
62
7
6
CONTINUOUS
10
91.1660680000
20
10.0720420000
11
91.7870980000
21
10.6930720000
0
LINE
5
2CC
100
AcDbEntity
8
05
100
AcDbLine
62
7
6
CONTINUOUS
10
89.0027690000
20
8.2269410000
11
90.5498110000
21
9.7739840000
0
LINE
5
2CD
100
AcDbEntity
8
05
100
AcDbLine
62
7
6
CONTINUOUS
10
91.1305160000
20
10.3546880000
11
91.4689000000
21
10.6930720000
0
LINE
5
2CE
100
AcDbEntity
8
05
100
AcDbLine
62
7
6
CONTINUOUS
10
88.6368590000
20
8.1792300000
11
90.6404480000
21
10.1828180000
0
LINE
5
2CF
100
AcDbEntity
8
05
100
AcDbLine
62
7
6
CONTINUOUS
10
88.2894110000
20
8.1499790000
11
90.7310840000
21
10.5916520000
0
LINE
5
2D0
100
AcDbEntity
8
05
100
AcDbLine
62
7
6
CONTINUOUS
10
87.9558910000
20
8.1346570000
11
90.5143060000
21
10.6930720000
0
LINE
5
2D1
100
AcDbEntity
8
05
100
AcDbLine
62
7
6
CONTINUOUS
10
87.6346880000
20
8.1316520000
11
88.3351190000
21
8.8320840000
0
LINE
5
2D2
100
AcDbEntity
8
05
100
AcDbLine
62
7
6
CONTINUOUS
10
88.7236060000
20
9.2205700000
11
90.1961080000
21
10.6930720000
0
LINE
5
2D3
100
AcDbEntity
8
05
100
AcDbLine
62
7
6
CONTINUOUS
10
87.3245180000
20
8.1396810000
11
87.9444690000
21
8.7596310000
0
LINE
5
2D4
100
AcDbEntity
8
05
100
AcDbLine
62
7
6
CONTINUOUS
10
88.8142420000
20
9.6294040000
11
89.8779100000
21
10.6930720000
0
LINE
5
2D5
100
AcDbEntity
8
05
100
AcDbLine
62
7
6
CONTINUOUS
10
87.0243430000
20
8.1577030000
11
87.6233120000
21
8.7566730000
0
LINE
5
2D6
100
AcDbEntity
8
05
100
AcDbLine
62
7
6
CONTINUOUS
10
88.9048780000
20
10.0382390000
11
89.5597110000
21
10.6930720000
0
LINE
5
2D7
100
AcDbEntity
8
05
100
AcDbLine
62
7
6
CONTINUOUS
10
86.7333060000
20
8.1848640000
11
87.3407990000
21
8.7923570000
0
LINE
5
2D8
100
AcDbEntity
8
05
100
AcDbLine
62
7
6
CONTINUOUS
10
88.9955150000
20
10.4470730000
11
89.2415130000
21
10.6930720000
0
LINE
5
2D9
100
AcDbEntity
8
05
100
AcDbLine
62
7
6
CONTINUOUS
10
86.4520070000
20
8.2217640000
11
87.0972290000
21
8.8669850000
0
LINE
5
2DA
100
AcDbEntity
8
05
100
AcDbLine
62
7
6
CONTINUOUS
10
86.1841710000
20
8.2721250000
11
86.9024090000
21
8.9903630000
0
LINE
5
2DB
100
AcDbEntity
8
05
100
AcDbLine
62
7
6
CONTINUOUS
10
85.9287580000
20
8.3349100000
11
86.8448360000
21
9.2509890000
0
LINE
5
2DC
100
AcDbEntity
8
05
100
AcDbLine
62
7
6
CONTINUOUS
10
85.6873210000
20
8.4116710000
11
86.9354730000
21
9.6598230000
0
LINE
5
2DD
100
AcDbEntity
8
05
100
AcDbLine
62
7
6
CONTINUOUS
10
85.4667180000
20
8.5092670000
11
87.0261090000
21
10.0686580000
0
LINE
5
2DE
100
AcDbEntity
8
05
100
AcDbLine
62
7
6
CONTINUOUS
10
85.2651030000
20
8.6258500000
11
87.1167450000
21
10.4774920000
0
LINE
5
2DF
100
AcDbEntity
8
05
100
AcDbLine
62
7
6
CONTINUOUS
10
85.1018940000
20
8.7808390000
11
87.0141270000
21
10.6930720000
0
LINE
5
2E0
100
AcDbEntity
8
05
100
AcDbLine
62
7
6
CONTINUOUS
10
85.1092480000
20
9.1063910000
11
86.6959290000
21
10.6930720000
0
LINE
5
2E1
100
AcDbEntity
8
05
100
AcDbLine
62
7
6
CONTINUOUS
10
83.8936110000
20
8.2089520000
11
84.2024780000
21
8.5178190000
0
LINE
5
2E2
100
AcDbEntity
8
05
100
AcDbLine
62
7
6
CONTINUOUS
10
85.1998850000
20
9.5152260000
11
86.3777310000
21
10.6930720000
0
LINE
5
2E3
100
AcDbEntity
8
05
100
AcDbLine
62
7
6
CONTINUOUS
10
83.5754130000
20
8.2089520000
11
84.0153920000
21
8.6489310000
0
LINE
5
2E4
100
AcDbEntity
8
05
100
AcDbLine
62
7
6
CONTINUOUS
10
85.2905210000
20
9.9240600000
11
86.0595330000
21
10.6930720000
0
LINE
5
2E5
100
AcDbEntity
8
05
100
AcDbLine
62
7
6
CONTINUOUS
10
83.2572150000
20
8.2089520000
11
83.6971940000
21
8.6489310000
0
LINE
5
2E6
100
AcDbEntity
8
05
100
AcDbLine
62
7
6
CONTINUOUS
10
85.3811580000
20
10.3328950000
11
85.7413350000
21
10.6930720000
0
LINE
5
2E7
100
AcDbEntity
8
05
100
AcDbLine
62
7
6
CONTINUOUS
10
82.9390170000
20
8.2089520000
11
83.3789960000
21
8.6489310000
0
LINE
5
2E8
100
AcDbEntity
8
05
100
AcDbLine
62
7
6
CONTINUOUS
10
84.0360880000
20
9.3060230000
11
84.1751650000
21
9.4451000000
0
LINE
5
2E9
100
AcDbEntity
8
05
100
AcDbLine
62
7
6
CONTINUOUS
10
82.6208190000
20
8.2089520000
11
83.0607970000
21
8.6489310000
0
LINE
5
2EA
100
AcDbEntity
8
05
100
AcDbLine
62
7
6
CONTINUOUS
10
83.7178900000
20
9.3060230000
11
84.0078680000
21
9.5960010000
0
LINE
5
2EB
100
AcDbEntity
8
05
100
AcDbLine
62
7
6
CONTINUOUS
10
82.3026210000
20
8.2089520000
11
82.7425990000
21
8.6489310000
0
LINE
5
2EC
100
AcDbEntity
8
05
100
AcDbLine
62
7
6
CONTINUOUS
10
84.3467620000
20
10.2530940000
11
84.6556600000
21
10.5619910000
0
LINE
5
2ED
100
AcDbEntity
8
05
100
AcDbLine
62
7
6
CONTINUOUS
10
83.3996920000
20
9.3060230000
11
83.6896700000
21
9.5960010000
0
LINE
5
2EE
100
AcDbEntity
8
05
100
AcDbLine
62
7
6
CONTINUOUS
10
81.9844230000
20
8.2089520000
11
82.4244010000
21
8.6489310000
0
LINE
5
2EF
100
AcDbEntity
8
05
100
AcDbLine
62
7
6
CONTINUOUS
10
84.0285640000
20
10.2530940000
11
84.4685430000
21
10.6930720000
0
LINE
5
2F0
100
AcDbEntity
8
05
100
AcDbLine
62
7
6
CONTINUOUS
10
83.0814940000
20
9.3060230000
11
83.3714720000
21
9.5960010000
0
LINE
5
2F1
100
AcDbEntity
8
05
100
AcDbLine
62
7
6
CONTINUOUS
10
81.6662250000
20
8.2089520000
11
82.1062030000
21
8.6489310000
0
LINE
5
2F2
100
AcDbEntity
8
05
100
AcDbLine
62
7
6
CONTINUOUS
10
83.7103660000
20
10.2530940000
11
84.1503450000
21
10.6930720000
0
LINE
5
2F3
100
AcDbEntity
8
05
100
AcDbLine
62
7
6
CONTINUOUS
10
82.7632960000
20
9.3060230000
11
83.0532740000
21
9.5960010000
0
LINE
5
2F4
100
AcDbEntity
8
05
100
AcDbLine
62
7
6
CONTINUOUS
10
81.3480270000
20
8.2089520000
11
81.7880050000
21
8.6489310000
0
LINE
5
2F5
100
AcDbEntity
8
05
100
AcDbLine
62
7
6
CONTINUOUS
10
83.3921680000
20
10.2530940000
11
83.8321470000
21
10.6930720000
0
LINE
5
2F6
100
AcDbEntity
8
05
100
AcDbLine
62
7
6
CONTINUOUS
10
82.4450970000
20
9.3060230000
11
82.7350760000
21
9.5960010000
0
LINE
5
2F7
100
AcDbEntity
8
05
100
AcDbLine
62
7
6
CONTINUOUS
10
81.0298290000
20
8.2089520000
11
81.4698070000
21
8.6489310000
0
LINE
5
2F8
100
AcDbEntity
8
05
100
AcDbLine
62
7
6
CONTINUOUS
10
83.0739700000
20
10.2530940000
11
83.5139480000
21
10.6930720000
0
LINE
5
2F9
100
AcDbEntity
8
05
100
AcDbLine
62
7
6
CONTINUOUS
10
82.1268990000
20
9.3060230000
11
82.4168780000
21
9.5960010000
0
LINE
5
2FA
100
AcDbEntity
8
05
100
AcDbLine
62
7
6
CONTINUOUS
10
80.7116310000
20
8.2089520000
11
81.3186940000
21
8.8160160000
0
LINE
5
2FB
100
AcDbEntity
8
05
100
AcDbLine
62
7
6
CONTINUOUS
10
82.7557720000
20
10.2530940000
11
83.1957500000
21
10.6930720000
0
LINE
5
2FC
100
AcDbEntity
8
05
100
AcDbLine
62
7
6
CONTINUOUS
10
81.8087010000
20
9.3060230000
11
82.0986800000
21
9.5960010000
0
LINE
5
2FD
100
AcDbEntity
8
05
100
AcDbLine
62
7
6
CONTINUOUS
10
80.3934330000
20
8.2089520000
11
81.4093310000
21
9.2248500000
0
LINE
5
2FE
100
AcDbEntity
8
05
100
AcDbLine
62
7
6
CONTINUOUS
10
82.4375740000
20
10.2530940000
11
82.8775520000
21
10.6930720000
0
LINE
5
2FF
100
AcDbEntity
8
05
100
AcDbLine
62
7
6
CONTINUOUS
10
81.4905030000
20
9.3060230000
11
81.7804820000
21
9.5960010000
0
LINE
5
300
100
AcDbEntity
8
05
100
AcDbLine
62
7
6
CONTINUOUS
10
80.0752350000
20
8.2089520000
11
81.4999670000
21
9.6336850000
0
LINE
5
301
100
AcDbEntity
8
05
100
AcDbLine
62
7
6
CONTINUOUS
10
82.1193760000
20
10.2530940000
11
82.5593540000
21
10.6930720000
0
LINE
5
302
100
AcDbEntity
8
05
100
AcDbLine
62
7
6
CONTINUOUS
10
79.7570370000
20
8.2089520000
11
81.5906030000
21
10.0425190000
0
LINE
5
303
100
AcDbEntity
8
05
100
AcDbLine
62
7
6
CONTINUOUS
10
81.8011780000
20
10.2530940000
11
82.2411560000
21
10.6930720000
0
LINE
5
304
100
AcDbEntity
8
05
100
AcDbLine
62
7
6
CONTINUOUS
10
79.4869440000
20
8.2570570000
11
81.9229580000
21
10.6930720000
0
LINE
5
305
100
AcDbEntity
8
05
100
AcDbLine
62
7
6
CONTINUOUS
10
79.5775800000
20
8.6658920000
11
81.6047600000
21
10.6930720000
0
LINE
5
306
100
AcDbEntity
8
05
100
AcDbLine
62
7
6
CONTINUOUS
10
79.6682170000
20
9.0747260000
11
81.2865620000
21
10.6930720000
0
LINE
5
307
100
AcDbEntity
8
05
100
AcDbLine
62
7
6
CONTINUOUS
10
78.4842440000
20
8.2089520000
11
78.6617050000
21
8.3864130000
0
LINE
5
308
100
AcDbEntity
8
05
100
AcDbLine
62
7
6
CONTINUOUS
10
79.7588530000
20
9.4835610000
11
80.9683640000
21
10.6930720000
0
LINE
5
309
100
AcDbEntity
8
05
100
AcDbLine
62
7
6
CONTINUOUS
10
78.1660460000
20
8.2089520000
11
78.7523410000
21
8.7952470000
0
LINE
5
30A
100
AcDbEntity
8
05
100
AcDbLine
62
7
6
CONTINUOUS
10
79.8494890000
20
9.8923950000
11
80.6501660000
21
10.6930720000
0
LINE
5
30B
100
AcDbEntity
8
05
100
AcDbLine
62
7
6
CONTINUOUS
10
77.8478480000
20
8.2089520000
11
78.8429780000
21
9.2040820000
0
LINE
5
30C
100
AcDbEntity
8
05
100
AcDbLine
62
7
6
CONTINUOUS
10
79.9401260000
20
10.3012300000
11
80.3319680000
21
10.6930720000
0
LINE
5
30D
100
AcDbEntity
8
05
100
AcDbLine
62
7
6
CONTINUOUS
10
77.5296500000
20
8.2089520000
11
78.9336140000
21
9.6129160000
0
LINE
5
30E
100
AcDbEntity
8
05
100
AcDbLine
62
7
6
CONTINUOUS
10
77.2114520000
20
8.2089520000
11
79.0242510000
21
10.0217510000
0
LINE
5
30F
100
AcDbEntity
8
05
100
AcDbLine
62
7
6
CONTINUOUS
10
76.8932540000
20
8.2089520000
11
79.1148870000
21
10.4305850000
0
LINE
5
310
100
AcDbEntity
8
05
100
AcDbLine
62
7
6
CONTINUOUS
10
76.6255330000
20
8.2594290000
11
79.0591760000
21
10.6930720000
0
LINE
5
311
100
AcDbEntity
8
05
100
AcDbLine
62
7
6
CONTINUOUS
10
76.4580220000
20
8.4101170000
11
78.7409780000
21
10.6930720000
0
LINE
5
312
100
AcDbEntity
8
05
100
AcDbLine
62
7
6
CONTINUOUS
10
76.2905120000
20
8.5608040000
11
78.4227800000
21
10.6930720000
0
LINE
5
313
100
AcDbEntity
8
05
100
AcDbLine
62
7
6
CONTINUOUS
10
76.1230020000
20
8.7114920000
11
77.1030810000
21
9.6915710000
0
LINE
5
314
100
AcDbEntity
8
05
100
AcDbLine
62
7
6
CONTINUOUS
10
77.2831370000
20
9.8716270000
11
78.1045820000
21
10.6930720000
0
LINE
5
315
100
AcDbEntity
8
05
100
AcDbLine
62
7
6
CONTINUOUS
10
75.9554910000
20
8.8621800000
11
76.9163070000
21
9.8229950000
0
LINE
5
316
100
AcDbEntity
8
05
100
AcDbLine
62
7
6
CONTINUOUS
10
77.3737730000
20
10.2804620000
11
77.7863840000
21
10.6930720000
0
LINE
5
317
100
AcDbEntity
8
05
100
AcDbLine
62
7
6
CONTINUOUS
10
75.7879810000
20
9.0128680000
11
76.7295320000
21
9.9544190000
0
LINE
5
318
100
AcDbEntity
8
05
100
AcDbLine
62
7
6
CONTINUOUS
10
77.4644100000
20
10.6892960000
11
77.4681860000
21
10.6930720000
0
LINE
5
319
100
AcDbEntity
8
05
100
AcDbLine
62
7
6
CONTINUOUS
10
74.6658680000
20
8.2089520000
11
74.8620460000
21
8.4051310000
0
LINE
5
31A
100
AcDbEntity
8
05
100
AcDbLine
62
7
6
CONTINUOUS
10
75.6204710000
20
9.1635550000
11
76.5427580000
21
10.0858420000
0
LINE
5
31B
100
AcDbEntity
8
05
100
AcDbLine
62
7
6
CONTINUOUS
10
74.3476700000
20
8.2089520000
11
74.9526830000
21
8.8139650000
0
LINE
5
31C
100
AcDbEntity
8
05
100
AcDbLine
62
7
6
CONTINUOUS
10
75.4529600000
20
9.3142430000
11
76.3559830000
21
10.2172660000
0
LINE
5
31D
100
AcDbEntity
8
05
100
AcDbLine
62
7
6
CONTINUOUS
10
74.0294720000
20
8.2089520000
11
75.0433190000
21
9.2228000000
0
LINE
5
31E
100
AcDbEntity
8
05
100
AcDbLine
62
7
6
CONTINUOUS
10
75.2854500000
20
9.4649310000
11
76.1692090000
21
10.3486900000
0
LINE
5
31F
100
AcDbEntity
8
05
100
AcDbLine
62
7
6
CONTINUOUS
10
73.7112740000
20
8.2089520000
11
75.9824350000
21
10.4801130000
0
LINE
5
320
100
AcDbEntity
8
05
100
AcDbLine
62
7
6
CONTINUOUS
10
73.3930760000
20
8.2089520000
11
75.7956600000
21
10.6115370000
0
LINE
5
321
100
AcDbEntity
8
05
100
AcDbLine
62
7
6
CONTINUOUS
10
73.1209320000
20
8.2550070000
11
75.5589970000
21
10.6930720000
0
LINE
5
322
100
AcDbEntity
8
05
100
AcDbLine
62
7
6
CONTINUOUS
10
73.2115690000
20
8.6638420000
11
75.2407990000
21
10.6930720000
0
LINE
5
323
100
AcDbEntity
8
05
100
AcDbLine
62
7
6
CONTINUOUS
10
73.3022050000
20
9.0726760000
11
74.9226010000
21
10.6930720000
0
LINE
5
324
100
AcDbEntity
8
05
100
AcDbLine
62
7
6
CONTINUOUS
10
73.3928420000
20
9.4815110000
11
74.6044030000
21
10.6930720000
0
LINE
5
325
100
AcDbEntity
8
05
100
AcDbLine
62
7
6
CONTINUOUS
10
73.4834780000
20
9.8903450000
11
74.2862050000
21
10.6930720000
0
LINE
5
326
100
AcDbEntity
8
05
100
AcDbLine
62
7
6
CONTINUOUS
10
73.5741150000
20
10.2991800000
11
73.9680070000
21
10.6930720000
0
LINE
5
327
100
AcDbEntity
8
05
100
AcDbLine
62
7
6
CONTINUOUS
10
98.8206130000
20
9.1352400000
11
99.1105910000
21
9.4252180000
0
LINE
5
328
100
AcDbEntity
8
05
100
AcDbLine
62
7
6
CONTINUOUS
10
99.8666600000
20
10.1812870000
11
100.3784450000
21
10.6930720000
0
LINE
5
329
100
AcDbEntity
8
05
100
AcDbLine
62
7
6
CONTINUOUS
10
99.1388110000
20
9.1352400000
11
99.4292410000
21
9.4256700000
0
LINE
5
32A
100
AcDbEntity
8
05
100
AcDbLine
62
7
6
CONTINUOUS
10
99.9467390000
20
9.9431670000
11
100.6966430000
21
10.6930720000
0
LINE
5
32B
100
AcDbEntity
8
05
100
AcDbLine
62
7
6
CONTINUOUS
10
99.4562560000
20
9.1344860000
11
101.0146710000
21
10.6929020000
0
LINE
5
32C
100
AcDbEntity
8
05
100
AcDbLine
62
7
6
CONTINUOUS
10
99.6305160000
20
8.9905480000
11
101.2989430000
21
10.6589760000
0
LINE
5
32D
100
AcDbEntity
8
05
100
AcDbLine
62
7
6
CONTINUOUS
10
99.6130000000
20
8.6548350000
11
101.5351130000
21
10.5769480000
0
LINE
5
32E
100
AcDbEntity
8
05
100
AcDbLine
62
7
6
CONTINUOUS
10
99.6052610000
20
8.3288970000
11
101.7250750000
21
10.4487110000
0
LINE
5
32F
100
AcDbEntity
8
05
100
AcDbLine
62
7
6
CONTINUOUS
10
99.8035140000
20
8.2089520000
11
101.8509000000
21
10.2563380000
0
LINE
5
330
100
AcDbEntity
8
05
100
AcDbLine
62
7
6
CONTINUOUS
10
100.1217120000
20
8.2089520000
11
101.2212130000
21
9.3084530000
0
LINE
5
331
100
AcDbEntity
8
05
100
AcDbLine
62
7
6
CONTINUOUS
10
101.2660830000
20
9.3533230000
11
101.8342290000
21
9.9214690000
0
LINE
5
332
100
AcDbEntity
8
05
100
AcDbLine
62
7
6
CONTINUOUS
10
100.4399100000
20
8.2089520000
11
101.3457580000
21
9.1148000000
0
LINE
5
333
100
AcDbEntity
8
05
100
AcDbLine
62
7
6
CONTINUOUS
10
102.6292330000
20
10.3982750000
11
102.9240300000
21
10.6930720000
0
LINE
5
334
100
AcDbEntity
8
05
100
AcDbLine
62
7
6
CONTINUOUS
10
100.7581080000
20
8.2089520000
11
101.3299420000
21
8.7807860000
0
LINE
5
335
100
AcDbEntity
8
05
100
AcDbLine
62
7
6
CONTINUOUS
10
102.5385960000
20
9.9894400000
11
103.2422280000
21
10.6930720000
0
LINE
5
336
100
AcDbEntity
8
05
100
AcDbLine
62
7
6
CONTINUOUS
10
101.0763060000
20
8.2089520000
11
101.3071930000
21
8.4398390000
0
LINE
5
337
100
AcDbEntity
8
05
100
AcDbLine
62
7
6
CONTINUOUS
10
102.4479600000
20
9.5806060000
11
103.5604260000
21
10.6930720000
0
LINE
5
338
100
AcDbEntity
8
05
100
AcDbLine
62
7
6
CONTINUOUS
10
102.3573230000
20
9.1717720000
11
103.8786240000
21
10.6930720000
0
LINE
5
339
100
AcDbEntity
8
05
100
AcDbLine
62
7
6
CONTINUOUS
10
102.2666870000
20
8.7629370000
11
104.1968220000
21
10.6930720000
0
LINE
5
33A
100
AcDbEntity
8
05
100
AcDbLine
62
7
6
CONTINUOUS
10
102.1760510000
20
8.3541030000
11
104.3703470000
21
10.5483990000
0
LINE
5
33B
100
AcDbEntity
8
05
100
AcDbLine
62
7
6
CONTINUOUS
10
102.3490980000
20
8.2089520000
11
104.2797100000
21
10.1395640000
0
LINE
5
33C
100
AcDbEntity
8
05
100
AcDbLine
62
7
6
CONTINUOUS
10
102.6672960000
20
8.2089520000
11
104.1890740000
21
9.7307300000
0
LINE
5
33D
100
AcDbEntity
8
05
100
AcDbLine
62
7
6
CONTINUOUS
10
102.9854940000
20
8.2089520000
11
104.0984370000
21
9.3218950000
0
LINE
5
33E
100
AcDbEntity
8
05
100
AcDbLine
62
7
6
CONTINUOUS
10
105.3950670000
20
10.6185250000
11
105.4696140000
21
10.6930720000
0
LINE
5
33F
100
AcDbEntity
8
05
100
AcDbLine
62
7
6
CONTINUOUS
10
103.3036920000
20
8.2089520000
11
104.0078010000
21
8.9130610000
0
LINE
5
340
100
AcDbEntity
8
05
100
AcDbLine
62
7
6
CONTINUOUS
10
105.3044300000
20
10.2096900000
11
105.7878120000
21
10.6930720000
0
LINE
5
341
100
AcDbEntity
8
05
100
AcDbLine
62
7
6
CONTINUOUS
10
103.6218900000
20
8.2089520000
11
103.9171640000
21
8.5042260000
0
LINE
5
342
100
AcDbEntity
8
05
100
AcDbLine
62
7
6
CONTINUOUS
10
105.2137940000
20
9.8008560000
11
106.1060100000
21
10.6930720000
0
LINE
5
343
100
AcDbEntity
8
05
100
AcDbLine
62
7
6
CONTINUOUS
10
105.1231580000
20
9.3920210000
11
106.4242080000
21
10.6930720000
0
LINE
5
344
100
AcDbEntity
8
05
100
AcDbLine
62
7
6
CONTINUOUS
10
105.0325210000
20
8.9831870000
11
106.7424060000
21
10.6930720000
0
LINE
5
345
100
AcDbEntity
8
05
100
AcDbLine
62
7
6
CONTINUOUS
10
104.9418850000
20
8.5743520000
11
107.0364400000
21
10.6689080000
0
LINE
5
346
100
AcDbEntity
8
05
100
AcDbLine
62
7
6
CONTINUOUS
10
104.8946830000
20
8.2089520000
11
106.9458040000
21
10.2600730000
0
LINE
5
347
100
AcDbEntity
8
05
100
AcDbLine
62
7
6
CONTINUOUS
10
105.2128810000
20
8.2089520000
11
106.8577180000
21
9.8537890000
0
LINE
5
348
100
AcDbEntity
8
05
100
AcDbLine
62
7
6
CONTINUOUS
10
105.5310790000
20
8.2089520000
11
107.4121960000
21
10.0900700000
0
LINE
5
349
100
AcDbEntity
8
05
100
AcDbLine
62
7
6
CONTINUOUS
10
105.8492770000
20
8.2089520000
11
107.9666750000
21
10.3263510000
0
LINE
5
34A
100
AcDbEntity
8
05
100
AcDbLine
62
7
6
CONTINUOUS
10
106.1674750000
20
8.2089520000
11
106.5832580000
21
8.6247350000
0
LINE
5
34B
100
AcDbEntity
8
05
100
AcDbLine
62
7
6
CONTINUOUS
10
106.9071250000
20
8.9486020000
11
108.5211540000
21
10.5626310000
0
LINE
5
34C
100
AcDbEntity
8
05
100
AcDbLine
62
7
6
CONTINUOUS
10
106.4856730000
20
8.2089520000
11
106.4926210000
21
8.2159010000
0
LINE
5
34D
100
AcDbEntity
8
05
100
AcDbLine
62
7
6
CONTINUOUS
10
107.3871300000
20
9.1104090000
11
108.9697930000
21
10.6930720000
0
LINE
5
34E
100
AcDbEntity
8
05
100
AcDbLine
62
7
6
CONTINUOUS
10
107.5451590000
20
8.9502400000
11
109.2879910000
21
10.6930720000
0
LINE
5
34F
100
AcDbEntity
8
05
100
AcDbLine
62
7
6
CONTINUOUS
10
107.7031880000
20
8.7900710000
11
109.6061890000
21
10.6930720000
0
LINE
5
350
100
AcDbEntity
8
05
100
AcDbLine
62
7
6
CONTINUOUS
10
107.8612170000
20
8.6299020000
11
109.0334790000
21
9.8021650000
0
LINE
5
351
100
AcDbEntity
8
05
100
AcDbLine
62
7
6
CONTINUOUS
10
109.1250400000
20
9.8937250000
11
109.9243870000
21
10.6930720000
0
LINE
5
352
100
AcDbEntity
8
05
100
AcDbLine
62
7
6
CONTINUOUS
10
108.0192460000
20
8.4697330000
11
109.1915080000
21
9.6419950000
0
LINE
5
353
100
AcDbEntity
8
05
100
AcDbLine
62
7
6
CONTINUOUS
10
109.6795190000
20
10.1300060000
11
110.2425850000
21
10.6930720000
0
LINE
5
354
100
AcDbEntity
8
05
100
AcDbLine
62
7
6
CONTINUOUS
10
108.1772750000
20
8.3095640000
11
109.3495370000
21
9.4818260000
0
LINE
5
355
100
AcDbEntity
8
05
100
AcDbLine
62
7
6
CONTINUOUS
10
110.2339980000
20
10.3662870000
11
110.5607830000
21
10.6930720000
0
LINE
5
356
100
AcDbEntity
8
05
100
AcDbLine
62
7
6
CONTINUOUS
10
108.3948610000
20
8.2089520000
11
109.5075660000
21
9.3216570000
0
LINE
5
357
100
AcDbEntity
8
05
100
AcDbLine
62
7
6
CONTINUOUS
10
110.7884760000
20
10.6025670000
11
110.8789810000
21
10.6930720000
0
LINE
5
358
100
AcDbEntity
8
05
100
AcDbLine
62
7
6
CONTINUOUS
10
108.7130590000
20
8.2089520000
11
109.6655950000
21
9.1614880000
0
LINE
5
359
100
AcDbEntity
8
05
100
AcDbLine
62
7
6
CONTINUOUS
10
109.0312570000
20
8.2089520000
11
109.8236240000
21
9.0013190000
0
LINE
5
35A
100
AcDbEntity
8
05
100
AcDbLine
62
7
6
CONTINUOUS
10
109.3494550000
20
8.2089520000
11
109.9816530000
21
8.8411500000
0
LINE
5
35B
100
AcDbEntity
8
05
100
AcDbLine
62
7
6
CONTINUOUS
10
109.6676530000
20
8.2089520000
11
110.1396820000
21
8.6809810000
0
LINE
5
35C
100
AcDbEntity
8
05
100
AcDbLine
62
7
6
CONTINUOUS
10
109.9858510000
20
8.2089520000
11
110.2977110000
21
8.5208120000
0
LINE
5
35D
100
AcDbEntity
8
05
100
AcDbLine
62
7
6
CONTINUOUS
10
110.3040500000
20
8.2089520000
11
110.4557400000
21
8.3606430000
0
LINE
5
35E
100
AcDbEntity
8
05
100
AcDbLine
62
7
6
CONTINUOUS
10
115.3077010000
20
10.6670200000
11
115.3344820000
21
10.6938010000
0
LINE
5
35F
100
AcDbEntity
8
05
100
AcDbLine
62
7
6
CONTINUOUS
10
114.3531070000
20
9.3942270000
11
115.6526800000
21
10.6938010000
0
LINE
5
360
100
AcDbEntity
8
05
100
AcDbLine
62
7
6
CONTINUOUS
10
113.4860300000
20
8.2089520000
11
115.9708790000
21
10.6938010000
0
LINE
5
361
100
AcDbEntity
8
05
100
AcDbLine
62
7
6
CONTINUOUS
10
113.8042280000
20
8.2089520000
11
116.2890770000
21
10.6938010000
0
LINE
5
362
100
AcDbEntity
8
05
100
AcDbLine
62
7
6
CONTINUOUS
10
114.1224260000
20
8.2089520000
11
116.6072750000
21
10.6938010000
0
LINE
5
363
100
AcDbEntity
8
05
100
AcDbLine
62
7
6
CONTINUOUS
10
114.4406240000
20
8.2089520000
11
116.9254730000
21
10.6938010000
0
LINE
5
364
100
AcDbEntity
8
05
100
AcDbLine
62
7
6
CONTINUOUS
10
114.7588220000
20
8.2089520000
11
116.2846820000
21
9.7348120000
0
LINE
5
365
100
AcDbEntity
8
05
100
AcDbLine
62
7
6
CONTINUOUS
10
116.8285960000
20
10.2787260000
11
117.2436710000
21
10.6938010000
0
LINE
5
366
100
AcDbEntity
8
05
100
AcDbLine
62
7
6
CONTINUOUS
10
115.0770200000
20
8.2089520000
11
115.3300880000
21
8.4620200000
0
LINE
5
367
100
AcDbEntity
8
05
100
AcDbLine
62
7
6
CONTINUOUS
10
116.8922360000
20
10.0241680000
11
117.5618690000
21
10.6938010000
0
LINE
5
368
100
AcDbEntity
8
05
100
AcDbLine
62
7
6
CONTINUOUS
10
115.5570520000
20
8.6889840000
11
115.9302400000
21
9.0621710000
0
LINE
5
369
100
AcDbEntity
8
05
100
AcDbLine
62
7
6
CONTINUOUS
10
115.8752500000
20
8.6889840000
11
116.2484380000
21
9.0621710000
0
LINE
5
36A
100
AcDbEntity
8
05
100
AcDbLine
62
7
6
CONTINUOUS
10
116.9558760000
20
9.7696100000
11
117.8800670000
21
10.6938010000
0
LINE
5
36B
100
AcDbEntity
8
05
100
AcDbLine
62
7
6
CONTINUOUS
10
116.1934480000
20
8.6889840000
11
116.5666360000
21
9.0621710000
0
LINE
5
36C
100
AcDbEntity
8
05
100
AcDbLine
62
7
6
CONTINUOUS
10
117.0195150000
20
9.5150510000
11
118.1982650000
21
10.6938010000
0
LINE
5
36D
100
AcDbEntity
8
05
100
AcDbLine
62
7
6
CONTINUOUS
10
116.5116460000
20
8.6889840000
11
116.8848340000
21
9.0621710000
0
LINE
5
36E
100
AcDbEntity
8
05
100
AcDbLine
62
7
6
CONTINUOUS
10
117.0831550000
20
9.2604930000
11
118.3292860000
21
10.5066230000
0
LINE
5
36F
100
AcDbEntity
8
05
100
AcDbLine
62
7
6
CONTINUOUS
10
116.8298440000
20
8.6889840000
11
118.3929250000
21
10.2520650000
0
LINE
5
370
100
AcDbEntity
8
05
100
AcDbLine
62
7
6
CONTINUOUS
10
117.1480420000
20
8.6889840000
11
118.4565650000
21
9.9975060000
0
LINE
5
371
100
AcDbEntity
8
05
100
AcDbLine
62
7
6
CONTINUOUS
10
117.2740740000
20
8.4968170000
11
118.5202040000
21
9.7429480000
0
LINE
5
372
100
AcDbEntity
8
05
100
AcDbLine
62
7
6
CONTINUOUS
10
117.3377130000
20
8.2422590000
11
118.5838440000
21
9.4883900000
0
LINE
5
373
100
AcDbEntity
8
05
100
AcDbLine
62
7
6
CONTINUOUS
10
117.6226050000
20
8.2089520000
11
118.6474840000
21
9.2338310000
0
LINE
5
374
100
AcDbEntity
8
05
100
AcDbLine
62
7
6
CONTINUOUS
10
117.9408030000
20
8.2089520000
11
118.7111230000
21
8.9792730000
0
LINE
5
375
100
AcDbEntity
8
05
100
AcDbLine
62
7
6
CONTINUOUS
10
119.8640330000
20
10.1321820000
11
120.2440540000
21
10.5122030000
0
LINE
5
376
100
AcDbEntity
8
05
100
AcDbLine
62
7
6
CONTINUOUS
10
118.2590010000
20
8.2089520000
11
118.7747630000
21
8.7247140000
0
LINE
5
377
100
AcDbEntity
8
05
100
AcDbLine
62
7
6
CONTINUOUS
10
119.7959150000
20
9.7458660000
11
120.6185860000
21
10.5685370000
0
LINE
5
378
100
AcDbEntity
8
05
100
AcDbLine
62
7
6
CONTINUOUS
10
118.5771990000
20
8.2089520000
11
118.8384020000
21
8.4701560000
0
LINE
5
379
100
AcDbEntity
8
05
100
AcDbLine
62
7
6
CONTINUOUS
10
119.7277970000
20
9.3595500000
11
120.9813030000
21
10.6130560000
0
LINE
5
37A
100
AcDbEntity
8
05
100
AcDbLine
62
7
6
CONTINUOUS
10
118.8953970000
20
8.2089520000
11
118.9020420000
21
8.2155970000
0
LINE
5
37B
100
AcDbEntity
8
05
100
AcDbLine
62
7
6
CONTINUOUS
10
119.6596790000
20
8.9732340000
11
121.3333580000
21
10.6469130000
0
LINE
5
37C
100
AcDbEntity
8
05
100
AcDbLine
62
7
6
CONTINUOUS
10
119.6152770000
20
8.6106340000
11
121.6757100000
21
10.6710670000
0
LINE
5
37D
100
AcDbEntity
8
05
100
AcDbLine
62
7
6
CONTINUOUS
10
119.7378940000
20
8.4150530000
11
122.0091650000
21
10.6863240000
0
LINE
5
37E
100
AcDbEntity
8
05
100
AcDbLine
62
7
6
CONTINUOUS
10
119.9839510000
20
8.3429130000
11
121.3408190000
21
9.6997800000
0
LINE
5
37F
100
AcDbEntity
8
05
100
AcDbLine
62
7
6
CONTINUOUS
10
121.8827100000
20
10.2416710000
11
122.3344090000
21
10.6933700000
0
LINE
5
380
100
AcDbEntity
8
05
100
AcDbLine
62
7
6
CONTINUOUS
10
120.2652030000
20
8.3059660000
11
121.2727010000
21
9.3134640000
0
LINE
5
381
100
AcDbEntity
8
05
100
AcDbLine
62
7
6
CONTINUOUS
10
122.2192190000
20
10.2599820000
11
122.6520320000
21
10.6927950000
0
LINE
5
382
100
AcDbEntity
8
05
100
AcDbLine
62
7
6
CONTINUOUS
10
120.5518220000
20
8.2743870000
11
121.2250940000
21
8.9476590000
0
LINE
5
383
100
AcDbEntity
8
05
100
AcDbLine
62
7
6
CONTINUOUS
10
122.5263210000
20
10.2488860000
11
122.9625450000
21
10.6851100000
0
LINE
5
384
100
AcDbEntity
8
05
100
AcDbLine
62
7
6
CONTINUOUS
10
120.8440880000
20
8.2484550000
11
121.3438720000
21
8.7482390000
0
LINE
5
385
100
AcDbEntity
8
05
100
AcDbLine
62
7
6
CONTINUOUS
10
122.8104210000
20
10.2147880000
11
123.2663950000
21
10.6707620000
0
LINE
5
386
100
AcDbEntity
8
05
100
AcDbLine
62
7
6
CONTINUOUS
10
121.1423120000
20
8.2284810000
11
121.5883040000
21
8.6744730000
0
LINE
5
387
100
AcDbEntity
8
05
100
AcDbLine
62
7
6
CONTINUOUS
10
123.0259950000
20
10.1121640000
11
123.5639730000
21
10.6501420000
0
LINE
5
388
100
AcDbEntity
8
05
100
AcDbLine
62
7
6
CONTINUOUS
10
121.4468470000
20
8.2148180000
11
121.8836220000
21
8.6515930000
0
LINE
5
389
100
AcDbEntity
8
05
100
AcDbLine
62
7
6
CONTINUOUS
10
123.1960220000
20
9.9639930000
11
123.8556280000
21
10.6235990000
0
LINE
5
38A
100
AcDbEntity
8
05
100
AcDbLine
62
7
6
CONTINUOUS
10
122.3537820000
20
9.1217520000
11
122.5334060000
21
9.3013760000
0
LINE
5
38B
100
AcDbEntity
8
05
100
AcDbLine
62
7
6
CONTINUOUS
10
121.7580900000
20
8.2078620000
11
122.2048330000
21
8.6546050000
0
LINE
5
38C
100
AcDbEntity
8
05
100
AcDbLine
62
7
6
CONTINUOUS
10
123.5142200000
20
9.9639930000
11
124.1416670000
21
10.5914400000
0
LINE
5
38D
100
AcDbEntity
8
05
100
AcDbLine
62
7
6
CONTINUOUS
10
122.6288760000
20
9.0786490000
11
122.8516040000
21
9.3013760000
0
LINE
5
38E
100
AcDbEntity
8
05
100
AcDbLine
62
7
6
CONTINUOUS
10
122.0764930000
20
8.2080680000
11
122.5603930000
21
8.6919670000
0
LINE
5
38F
100
AcDbEntity
8
05
100
AcDbLine
62
7
6
CONTINUOUS
10
123.8324180000
20
9.9639930000
11
124.4223670000
21
10.5539410000
0
LINE
5
390
100
AcDbEntity
8
05
100
AcDbLine
62
7
6
CONTINUOUS
10
122.9470740000
20
9.0786490000
11
123.1698020000
21
9.3013760000
0
LINE
5
391
100
AcDbEntity
8
05
100
AcDbLine
62
7
6
CONTINUOUS
10
122.4025750000
20
8.2159520000
11
123.4880000000
21
9.3013760000
0
LINE
5
392
100
AcDbEntity
8
05
100
AcDbLine
62
7
6
CONTINUOUS
10
124.1506160000
20
9.9639930000
11
124.6387420000
21
10.4521180000
0
LINE
5
393
100
AcDbEntity
8
05
100
AcDbLine
62
7
6
CONTINUOUS
10
122.7369360000
20
8.2321150000
11
123.8061980000
21
9.3013760000
0
LINE
5
394
100
AcDbEntity
8
05
100
AcDbLine
62
7
6
CONTINUOUS
10
124.4688140000
20
9.9639930000
11
124.7195490000
21
10.2147280000
0
LINE
5
395
100
AcDbEntity
8
05
100
AcDbLine
62
7
6
CONTINUOUS
10
123.0319720000
20
8.2089520000
11
124.1243960000
21
9.3013760000
0
LINE
5
396
100
AcDbEntity
8
05
100
AcDbLine
62
7
6
CONTINUOUS
10
123.3501700000
20
8.2089520000
11
124.4425940000
21
9.3013760000
0
LINE
5
397
100
AcDbEntity
8
05
100
AcDbLine
62
7
6
CONTINUOUS
10
123.6683680000
20
8.2089520000
11
124.5166470000
21
9.0572320000
0
LINE
5
398
100
AcDbEntity
8
05
100
AcDbLine
62
7
6
CONTINUOUS
10
123.9865660000
20
8.2089520000
11
124.4485290000
21
8.6709160000
0
LINE
5
399
100
AcDbEntity
8
05
100
AcDbLine
62
7
6
CONTINUOUS
10
124.3047640000
20
8.2089520000
11
124.3804110000
21
8.2846000000
0
LINE
5
39A
100
AcDbEntity
8
05
100
AcDbLine
62
7
6
CONTINUOUS
10
99.8961450000
20
8.2089520000
11
99.6025370000
21
8.5025600000
0
LINE
5
39B
100
AcDbEntity
8
05
100
AcDbLine
62
7
6
CONTINUOUS
10
98.1776440000
20
9.9274530000
11
97.4120250000
21
10.6930720000
0
LINE
5
39C
100
AcDbEntity
8
05
100
AcDbLine
62
7
6
CONTINUOUS
10
98.9698570000
20
9.1352400000
11
98.6798790000
21
9.4252180000
0
LINE
5
39D
100
AcDbEntity
8
05
100
AcDbLine
62
7
6
CONTINUOUS
10
98.6516590000
20
9.1352400000
11
98.3616810000
21
9.4252180000
0
LINE
5
39E
100
AcDbEntity
8
05
100
AcDbLine
62
7
6
CONTINUOUS
10
98.1199030000
20
9.6669960000
11
97.0938270000
21
10.6930720000
0
LINE
5
39F
100
AcDbEntity
8
05
100
AcDbLine
62
7
6
CONTINUOUS
10
98.3334610000
20
9.1352400000
11
96.7756290000
21
10.6930720000
0
LINE
5
3A0
100
AcDbEntity
8
05
100
AcDbLine
62
7
6
CONTINUOUS
10
98.0152630000
20
9.1352400000
11
96.6064980000
21
10.5440050000
0
LINE
5
3A1
100
AcDbEntity
8
05
100
AcDbLine
62
7
6
CONTINUOUS
10
97.9466770000
20
8.8856280000
11
96.5487570000
21
10.2835480000
0
LINE
5
3A2
100
AcDbEntity
8
05
100
AcDbLine
62
7
6
CONTINUOUS
10
97.8889360000
20
8.6251710000
11
96.4910150000
21
10.0230920000
0
LINE
5
3A3
100
AcDbEntity
8
05
100
AcDbLine
62
7
6
CONTINUOUS
10
96.0462220000
20
10.4678850000
11
95.8210350000
21
10.6930720000
0
LINE
5
3A4
100
AcDbEntity
8
05
100
AcDbLine
62
7
6
CONTINUOUS
10
97.8311940000
20
8.3647150000
11
96.4332730000
21
9.7626360000
0
LINE
5
3A5
100
AcDbEntity
8
05
100
AcDbLine
62
7
6
CONTINUOUS
10
95.9884800000
20
10.2074290000
11
95.5028370000
21
10.6930720000
0
LINE
5
3A6
100
AcDbEntity
8
05
100
AcDbLine
62
7
6
CONTINUOUS
10
97.6687580000
20
8.2089520000
11
96.3755310000
21
9.5021790000
0
LINE
5
3A7
100
AcDbEntity
8
05
100
AcDbLine
62
7
6
CONTINUOUS
10
95.8056690000
20
10.0720420000
11
95.1846390000
21
10.6930720000
0
LINE
5
3A8
100
AcDbEntity
8
05
100
AcDbLine
62
7
6
CONTINUOUS
10
97.3505600000
20
8.2089520000
11
96.3177890000
21
9.2417230000
0
LINE
5
3A9
100
AcDbEntity
8
05
100
AcDbLine
62
7
6
CONTINUOUS
10
95.4874710000
20
10.0720420000
11
94.8664410000
21
10.6930720000
0
LINE
5
3AA
100
AcDbEntity
8
05
100
AcDbLine
62
7
6
CONTINUOUS
10
97.0323620000
20
8.2089520000
11
96.2600480000
21
8.9812670000
0
LINE
5
3AB
100
AcDbEntity
8
05
100
AcDbLine
62
7
6
CONTINUOUS
10
95.1692730000
20
10.0720420000
11
94.5482430000
21
10.6930720000
0
LINE
5
3AC
100
AcDbEntity
8
05
100
AcDbLine
62
7
6
CONTINUOUS
10
96.7141640000
20
8.2089520000
11
96.2023060000
21
8.7208110000
0
LINE
5
3AD
100
AcDbEntity
8
05
100
AcDbLine
62
7
6
CONTINUOUS
10
94.8510750000
20
10.0720420000
11
94.2300450000
21
10.6930720000
0
LINE
5
3AE
100
AcDbEntity
8
05
100
AcDbLine
62
7
6
CONTINUOUS
10
96.3959660000
20
8.2089520000
11
96.1445640000
21
8.4603540000
0
LINE
5
3AF
100
AcDbEntity
8
05
100
AcDbLine
62
7
6
CONTINUOUS
10
94.5328760000
20
10.0720420000
11
93.9118470000
21
10.6930720000
0
LINE
5
3B0
100
AcDbEntity
8
05
100
AcDbLine
62
7
6
CONTINUOUS
10
94.3076510000
20
9.9790700000
11
93.5936480000
21
10.6930720000
0
LINE
5
3B1
100
AcDbEntity
8
05
100
AcDbLine
62
7
6
CONTINUOUS
10
94.2499090000
20
9.7186140000
11
93.2754500000
21
10.6930720000
0
LINE
5
3B2
100
AcDbEntity
8
05
100
AcDbLine
62
7
6
CONTINUOUS
10
94.1921670000
20
9.4581570000
11
92.9572520000
21
10.6930720000
0
LINE
5
3B3
100
AcDbEntity
8
05
100
AcDbLine
62
7
6
CONTINUOUS
10
94.1344250000
20
9.1977010000
11
92.6390540000
21
10.6930720000
0
LINE
5
3B4
100
AcDbEntity
8
05
100
AcDbLine
62
7
6
CONTINUOUS
10
94.0766830000
20
8.9372450000
11
92.3208560000
21
10.6930720000
0
LINE
5
3B5
100
AcDbEntity
8
05
100
AcDbLine
62
7
6
CONTINUOUS
10
94.0189420000
20
8.6767880000
11
92.0026580000
21
10.6930720000
0
LINE
5
3B6
100
AcDbEntity
8
05
100
AcDbLine
62
7
6
CONTINUOUS
10
93.9612000000
20
8.4163320000
11
92.5632790000
21
9.8142530000
0
LINE
5
3B7
100
AcDbEntity
8
05
100
AcDbLine
62
7
6
CONTINUOUS
10
92.3054900000
20
10.0720420000
11
91.6844600000
21
10.6930720000
0
LINE
5
3B8
100
AcDbEntity
8
05
100
AcDbLine
62
7
6
CONTINUOUS
10
93.8503820000
20
8.2089520000
11
92.5055370000
21
9.5537970000
0
LINE
5
3B9
100
AcDbEntity
8
05
100
AcDbLine
62
7
6
CONTINUOUS
10
91.9872920000
20
10.0720420000
11
91.3662620000
21
10.6930720000
0
LINE
5
3BA
100
AcDbEntity
8
05
100
AcDbLine
62
7
6
CONTINUOUS
10
93.5321840000
20
8.2089520000
11
92.4477960000
21
9.2933400000
0
LINE
5
3BB
100
AcDbEntity
8
05
100
AcDbLine
62
7
6
CONTINUOUS
10
91.6690940000
20
10.0720420000
11
91.1769590000
21
10.5641770000
0
LINE
5
3BC
100
AcDbEntity
8
05
100
AcDbLine
62
7
6
CONTINUOUS
10
93.2139860000
20
8.2089520000
11
92.3900540000
21
9.0328840000
0
LINE
5
3BD
100
AcDbEntity
8
05
100
AcDbLine
62
7
6
CONTINUOUS
10
90.7492670000
20
10.6736710000
11
90.7298660000
21
10.6930720000
0
LINE
5
3BE
100
AcDbEntity
8
05
100
AcDbLine
62
7
6
CONTINUOUS
10
91.3508960000
20
10.0720420000
11
91.1192170000
21
10.3037210000
0
LINE
5
3BF
100
AcDbEntity
8
05
100
AcDbLine
62
7
6
CONTINUOUS
10
92.8957880000
20
8.2089520000
11
92.3323120000
21
8.7724280000
0
LINE
5
3C0
100
AcDbEntity
8
05
100
AcDbLine
62
7
6
CONTINUOUS
10
90.6915250000
20
10.4132140000
11
90.4116680000
21
10.6930720000
0
LINE
5
3C1
100
AcDbEntity
8
05
100
AcDbLine
62
7
6
CONTINUOUS
10
92.5775900000
20
8.2089520000
11
92.2745700000
21
8.5119710000
0
LINE
5
3C2
100
AcDbEntity
8
05
100
AcDbLine
62
7
6
CONTINUOUS
10
90.6337840000
20
10.1527580000
11
90.0934700000
21
10.6930720000
0
LINE
5
3C3
100
AcDbEntity
8
05
100
AcDbLine
62
7
6
CONTINUOUS
10
92.2593920000
20
8.2089520000
11
92.2168290000
21
8.2515150000
0
LINE
5
3C4
100
AcDbEntity
8
05
100
AcDbLine
62
7
6
CONTINUOUS
10
90.5760420000
20
9.8923020000
11
89.7752720000
21
10.6930720000
0
LINE
5
3C5
100
AcDbEntity
8
05
100
AcDbLine
62
7
6
CONTINUOUS
10
90.5183000000
20
9.6318460000
11
89.4570740000
21
10.6930720000
0
LINE
5
3C6
100
AcDbEntity
8
05
100
AcDbLine
62
7
6
CONTINUOUS
10
90.4605580000
20
9.3713890000
11
89.1388760000
21
10.6930720000
0
LINE
5
3C7
100
AcDbEntity
8
05
100
AcDbLine
62
7
6
CONTINUOUS
10
90.4028170000
20
9.1109330000
11
89.0084280000
21
10.5053220000
0
LINE
5
3C8
100
AcDbEntity
8
05
100
AcDbLine
62
7
6
CONTINUOUS
10
90.3450750000
20
8.8504770000
11
88.9506860000
21
10.2448650000
0
LINE
5
3C9
100
AcDbEntity
8
05
100
AcDbLine
62
7
6
CONTINUOUS
10
90.2138080000
20
8.6635450000
11
88.8929450000
21
9.9844090000
0
LINE
5
3CA
100
AcDbEntity
8
05
100
AcDbLine
62
7
6
CONTINUOUS
10
90.0174480000
20
8.5417070000
11
88.8352030000
21
9.7239530000
0
LINE
5
3CB
100
AcDbEntity
8
05
100
AcDbLine
62
7
6
CONTINUOUS
10
89.8026520000
20
8.4383050000
11
88.7774610000
21
9.4634960000
0
LINE
5
3CC
100
AcDbEntity
8
05
100
AcDbLine
62
7
6
CONTINUOUS
10
89.5671730000
20
8.3555860000
11
88.7197190000
21
9.2030400000
0
LINE
5
3CD
100
AcDbEntity
8
05
100
AcDbLine
62
7
6
CONTINUOUS
10
89.3151830000
20
8.2893790000
11
88.6187120000
21
8.9858500000
0
LINE
5
3CE
100
AcDbEntity
8
05
100
AcDbLine
62
7
6
CONTINUOUS
10
87.1186190000
20
10.4859430000
11
86.9114890000
21
10.6930720000
0
LINE
5
3CF
100
AcDbEntity
8
05
100
AcDbLine
62
7
6
CONTINUOUS
10
89.0511440000
20
8.2352190000
11
88.4221760000
21
8.8641880000
0
LINE
5
3D0
100
AcDbEntity
8
05
100
AcDbLine
62
7
6
CONTINUOUS
10
87.0608770000
20
10.2254860000
11
86.5932910000
21
10.6930720000
0
LINE
5
3D1
100
AcDbEntity
8
05
100
AcDbLine
62
7
6
CONTINUOUS
10
88.7736700000
20
8.1944950000
11
88.1774040000
21
8.7907610000
0
LINE
5
3D2
100
AcDbEntity
8
05
100
AcDbLine
62
7
6
CONTINUOUS
10
87.0031350000
20
9.9650300000
11
86.2750930000
21
10.6930720000
0
LINE
5
3D3
100
AcDbEntity
8
05
100
AcDbLine
62
7
6
CONTINUOUS
10
88.4851820000
20
8.1647850000
11
87.8938350000
21
8.7561320000
0
LINE
5
3D4
100
AcDbEntity
8
05
100
AcDbLine
62
7
6
CONTINUOUS
10
86.9453930000
20
9.7045740000
11
85.9568950000
21
10.6930720000
0
LINE
5
3D5
100
AcDbEntity
8
05
100
AcDbLine
62
7
6
CONTINUOUS
10
88.1877790000
20
8.1439900000
11
87.5712750000
21
8.7604950000
0
LINE
5
3D6
100
AcDbEntity
8
05
100
AcDbLine
62
7
6
CONTINUOUS
10
86.8876520000
20
9.4441170000
11
85.6386970000
21
10.6930720000
0
LINE
5
3D7
100
AcDbEntity
8
05
100
AcDbLine
62
7
6
CONTINUOUS
10
87.8806500000
20
8.1329210000
11
87.1766500000
21
8.8369210000
0
LINE
5
3D8
100
AcDbEntity
8
05
100
AcDbLine
62
7
6
CONTINUOUS
10
86.8299100000
20
9.1836610000
11
85.4355100000
21
10.5780610000
0
LINE
5
3D9
100
AcDbEntity
8
05
100
AcDbLine
62
7
6
CONTINUOUS
10
87.5628170000
20
8.1325560000
11
85.3777680000
21
10.3176050000
0
LINE
5
3DA
100
AcDbEntity
8
05
100
AcDbLine
62
7
6
CONTINUOUS
10
87.2330740000
20
8.1441010000
11
85.3200260000
21
10.0571490000
0
LINE
5
3DB
100
AcDbEntity
8
05
100
AcDbLine
62
7
6
CONTINUOUS
10
84.6846080000
20
10.6925670000
11
84.6841030000
21
10.6930720000
0
LINE
5
3DC
100
AcDbEntity
8
05
100
AcDbLine
62
7
6
CONTINUOUS
10
86.8899190000
20
8.1690580000
11
85.2622840000
21
9.7966920000
0
LINE
5
3DD
100
AcDbEntity
8
05
100
AcDbLine
62
7
6
CONTINUOUS
10
84.6268660000
20
10.4321110000
11
84.3659050000
21
10.6930720000
0
LINE
5
3DE
100
AcDbEntity
8
05
100
AcDbLine
62
7
6
CONTINUOUS
10
86.5309040000
20
8.2098750000
11
85.2045430000
21
9.5362360000
0
LINE
5
3DF
100
AcDbEntity
8
05
100
AcDbLine
62
7
6
CONTINUOUS
10
84.4876850000
20
10.2530940000
11
84.0477070000
21
10.6930720000
0
LINE
5
3E0
100
AcDbEntity
8
05
100
AcDbLine
62
7
6
CONTINUOUS
10
86.1408320000
20
8.2817490000
11
85.1468010000
21
9.2757800000
0
LINE
5
3E1
100
AcDbEntity
8
05
100
AcDbLine
62
7
6
CONTINUOUS
10
84.1694870000
20
10.2530940000
11
83.7295090000
21
10.6930720000
0
LINE
5
3E2
100
AcDbEntity
8
05
100
AcDbLine
62
7
6
CONTINUOUS
10
85.6959590000
20
8.4084240000
11
85.0890590000
21
9.0153240000
0
LINE
5
3E3
100
AcDbEntity
8
05
100
AcDbLine
62
7
6
CONTINUOUS
10
83.8512890000
20
10.2530940000
11
83.4113110000
21
10.6930720000
0
LINE
5
3E4
100
AcDbEntity
8
05
100
AcDbLine
62
7
6
CONTINUOUS
10
84.2052730000
20
9.5809110000
11
84.1901830000
21
9.5960010000
0
LINE
5
3E5
100
AcDbEntity
8
05
100
AcDbLine
62
7
6
CONTINUOUS
10
83.5330910000
20
10.2530940000
11
83.0931130000
21
10.6930720000
0
LINE
5
3E6
100
AcDbEntity
8
05
100
AcDbLine
62
7
6
CONTINUOUS
10
84.1475320000
20
9.3204550000
11
83.8719850000
21
9.5960010000
0
LINE
5
3E7
100
AcDbEntity
8
05
100
AcDbLine
62
7
6
CONTINUOUS
10
83.2148930000
20
10.2530940000
11
82.7749150000
21
10.6930720000
0
LINE
5
3E8
100
AcDbEntity
8
05
100
AcDbLine
62
7
6
CONTINUOUS
10
83.8437660000
20
9.3060230000
11
83.5537870000
21
9.5960010000
0
LINE
5
3E9
100
AcDbEntity
8
05
100
AcDbLine
62
7
6
CONTINUOUS
10
82.8966950000
20
10.2530940000
11
82.4567170000
21
10.6930720000
0
LINE
5
3EA
100
AcDbEntity
8
05
100
AcDbLine
62
7
6
CONTINUOUS
10
84.2226740000
20
8.6089170000
11
84.1826600000
21
8.6489310000
0
LINE
5
3EB
100
AcDbEntity
8
05
100
AcDbLine
62
7
6
CONTINUOUS
10
82.5784970000
20
10.2530940000
11
82.1385190000
21
10.6930720000
0
LINE
5
3EC
100
AcDbEntity
8
05
100
AcDbLine
62
7
6
CONTINUOUS
10
83.5255680000
20
9.3060230000
11
83.2355890000
21
9.5960010000
0
LINE
5
3ED
100
AcDbEntity
8
05
100
AcDbLine
62
7
6
CONTINUOUS
10
84.1649320000
20
8.3484610000
11
83.8644620000
21
8.6489310000
0
LINE
5
3EE
100
AcDbEntity
8
05
100
AcDbLine
62
7
6
CONTINUOUS
10
82.2602990000
20
10.2530940000
11
81.8203210000
21
10.6930720000
0
LINE
5
3EF
100
AcDbEntity
8
05
100
AcDbLine
62
7
6
CONTINUOUS
10
83.2073700000
20
9.3060230000
11
82.9173910000
21
9.5960010000
0
LINE
5
3F0
100
AcDbEntity
8
05
100
AcDbLine
62
7
6
CONTINUOUS
10
83.9862420000
20
8.2089520000
11
83.5462640000
21
8.6489310000
0
LINE
5
3F1
100
AcDbEntity
8
05
100
AcDbLine
62
7
6
CONTINUOUS
10
81.9421010000
20
10.2530940000
11
81.5021230000
21
10.6930720000
0
LINE
5
3F2
100
AcDbEntity
8
05
100
AcDbLine
62
7
6
CONTINUOUS
10
82.8891720000
20
9.3060230000
11
82.5991930000
21
9.5960010000
0
LINE
5
3F3
100
AcDbEntity
8
05
100
AcDbLine
62
7
6
CONTINUOUS
10
83.6680440000
20
8.2089520000
11
83.2280660000
21
8.6489310000
0
LINE
5
3F4
100
AcDbEntity
8
05
100
AcDbLine
62
7
6
CONTINUOUS
10
81.6348580000
20
10.2421380000
11
81.1839240000
21
10.6930720000
0
LINE
5
3F5
100
AcDbEntity
8
05
100
AcDbLine
62
7
6
CONTINUOUS
10
82.5709740000
20
9.3060230000
11
82.2809950000
21
9.5960010000
0
LINE
5
3F6
100
AcDbEntity
8
05
100
AcDbLine
62
7
6
CONTINUOUS
10
83.3498460000
20
8.2089520000
11
82.9098680000
21
8.6489310000
0
LINE
5
3F7
100
AcDbEntity
8
05
100
AcDbLine
62
7
6
CONTINUOUS
10
81.5771160000
20
9.9816820000
11
80.8657260000
21
10.6930720000
0
LINE
5
3F8
100
AcDbEntity
8
05
100
AcDbLine
62
7
6
CONTINUOUS
10
82.2527750000
20
9.3060230000
11
81.9627970000
21
9.5960010000
0
LINE
5
3F9
100
AcDbEntity
8
05
100
AcDbLine
62
7
6
CONTINUOUS
10
83.0316480000
20
8.2089520000
11
82.5916700000
21
8.6489310000
0
LINE
5
3FA
100
AcDbEntity
8
05
100
AcDbLine
62
7
6
CONTINUOUS
10
81.5193740000
20
9.7212260000
11
80.5475280000
21
10.6930720000
0
LINE
5
3FB
100
AcDbEntity
8
05
100
AcDbLine
62
7
6
CONTINUOUS
10
81.9345770000
20
9.3060230000
11
81.6445990000
21
9.5960010000
0
LINE
5
3FC
100
AcDbEntity
8
05
100
AcDbLine
62
7
6
CONTINUOUS
10
82.7134500000
20
8.2089520000
11
82.2734720000
21
8.6489310000
0
LINE
5
3FD
100
AcDbEntity
8
05
100
AcDbLine
62
7
6
CONTINUOUS
10
81.6163790000
20
9.3060230000
11
80.2293300000
21
10.6930720000
0
LINE
5
3FE
100
AcDbEntity
8
05
100
AcDbLine
62
7
6
CONTINUOUS
10
82.3952520000
20
8.2089520000
11
81.9552740000
21
8.6489310000
0
LINE
5
3FF
100
AcDbEntity
8
05
100
AcDbLine
62
7
6
CONTINUOUS
10
81.4038910000
20
9.2003130000
11
80.0059700000
21
10.5982340000
0
LINE
5
400
100
AcDbEntity
8
05
100
AcDbLine
62
7
6
CONTINUOUS
10
82.0770540000
20
8.2089520000
11
81.6370750000
21
8.6489310000
0
LINE
5
401
100
AcDbEntity
8
05
100
AcDbLine
62
7
6
CONTINUOUS
10
81.3461490000
20
8.9398570000
11
79.9482280000
21
10.3377780000
0
LINE
5
402
100
AcDbEntity
8
05
100
AcDbLine
62
7
6
CONTINUOUS
10
81.7588560000
20
8.2089520000
11
81.3188770000
21
8.6489310000
0
LINE
5
403
100
AcDbEntity
8
05
100
AcDbLine
62
7
6
CONTINUOUS
10
81.2884070000
20
8.6794010000
11
79.8904870000
21
10.0773220000
0
LINE
5
404
100
AcDbEntity
8
05
100
AcDbLine
62
7
6
CONTINUOUS
10
81.4406580000
20
8.2089520000
11
79.8327450000
21
9.8168650000
0
LINE
5
405
100
AcDbEntity
8
05
100
AcDbLine
62
7
6
CONTINUOUS
10
79.1337840000
20
10.5158260000
11
78.9565380000
21
10.6930720000
0
LINE
5
406
100
AcDbEntity
8
05
100
AcDbLine
62
7
6
CONTINUOUS
10
81.1224600000
20
8.2089520000
11
79.7750030000
21
9.5564090000
0
LINE
5
407
100
AcDbEntity
8
05
100
AcDbLine
62
7
6
CONTINUOUS
10
79.0760430000
20
10.2553690000
11
78.6383400000
21
10.6930720000
0
LINE
5
408
100
AcDbEntity
8
05
100
AcDbLine
62
7
6
CONTINUOUS
10
80.8042620000
20
8.2089520000
11
79.7172610000
21
9.2959530000
0
LINE
5
409
100
AcDbEntity
8
05
100
AcDbLine
62
7
6
CONTINUOUS
10
79.0183010000
20
9.9949130000
11
78.3201420000
21
10.6930720000
0
LINE
5
40A
100
AcDbEntity
8
05
100
AcDbLine
62
7
6
CONTINUOUS
10
80.4860640000
20
8.2089520000
11
79.6595200000
21
9.0354960000
0
LINE
5
40B
100
AcDbEntity
8
05
100
AcDbLine
62
7
6
CONTINUOUS
10
78.9605590000
20
9.7344570000
11
78.0019440000
21
10.6930720000
0
LINE
5
40C
100
AcDbEntity
8
05
100
AcDbLine
62
7
6
CONTINUOUS
10
80.1678660000
20
8.2089520000
11
79.6017780000
21
8.7750400000
0
LINE
5
40D
100
AcDbEntity
8
05
100
AcDbLine
62
7
6
CONTINUOUS
10
78.9028170000
20
9.4740000000
11
77.6837460000
21
10.6930720000
0
LINE
5
40E
100
AcDbEntity
8
05
100
AcDbLine
62
7
6
CONTINUOUS
10
79.8496680000
20
8.2089520000
11
79.5440360000
21
8.5145840000
0
LINE
5
40F
100
AcDbEntity
8
05
100
AcDbLine
62
7
6
CONTINUOUS
10
78.8450760000
20
9.2135440000
11
77.4471550000
21
10.6114650000
0
LINE
5
410
100
AcDbEntity
8
05
100
AcDbLine
62
7
6
CONTINUOUS
10
79.5314700000
20
8.2089520000
11
79.4862940000
21
8.2541280000
0
LINE
5
411
100
AcDbEntity
8
05
100
AcDbLine
62
7
6
CONTINUOUS
10
78.7873340000
20
8.9530880000
11
77.3894130000
21
10.3510090000
0
LINE
5
412
100
AcDbEntity
8
05
100
AcDbLine
62
7
6
CONTINUOUS
10
78.7295920000
20
8.6926320000
11
77.3316710000
21
10.0905520000
0
LINE
5
413
100
AcDbEntity
8
05
100
AcDbLine
62
7
6
CONTINUOUS
10
78.6718500000
20
8.4321750000
11
77.2739300000
21
9.8300960000
0
LINE
5
414
100
AcDbEntity
8
05
100
AcDbLine
62
7
6
CONTINUOUS
10
78.5768750000
20
8.2089520000
11
77.0733040000
21
9.7125240000
0
LINE
5
415
100
AcDbEntity
8
05
100
AcDbLine
62
7
6
CONTINUOUS
10
78.2586770000
20
8.2089520000
11
75.9995820000
21
10.4680470000
0
LINE
5
416
100
AcDbEntity
8
05
100
AcDbLine
62
7
6
CONTINUOUS
10
77.9404790000
20
8.2089520000
11
75.4563600000
21
10.6930720000
0
LINE
5
417
100
AcDbEntity
8
05
100
AcDbLine
62
7
6
CONTINUOUS
10
77.6222810000
20
8.2089520000
11
75.1381610000
21
10.6930720000
0
LINE
5
418
100
AcDbEntity
8
05
100
AcDbLine
62
7
6
CONTINUOUS
10
77.3040830000
20
8.2089520000
11
74.8199630000
21
10.6930720000
0
LINE
5
419
100
AcDbEntity
8
05
100
AcDbLine
62
7
6
CONTINUOUS
10
76.9858850000
20
8.2089520000
11
74.5017650000
21
10.6930720000
0
LINE
5
41A
100
AcDbEntity
8
05
100
AcDbLine
62
7
6
CONTINUOUS
10
76.5426650000
20
8.3339750000
11
74.1835670000
21
10.6930720000
0
LINE
5
41B
100
AcDbEntity
8
05
100
AcDbLine
62
7
6
CONTINUOUS
10
75.0963650000
20
9.4620760000
11
73.8653690000
21
10.6930720000
0
LINE
5
41C
100
AcDbEntity
8
05
100
AcDbLine
62
7
6
CONTINUOUS
10
75.0386240000
20
9.2016200000
11
73.6407030000
21
10.5995400000
0
LINE
5
41D
100
AcDbEntity
8
05
100
AcDbLine
62
7
6
CONTINUOUS
10
74.9808820000
20
8.9411630000
11
73.5829610000
21
10.3390840000
0
LINE
5
41E
100
AcDbEntity
8
05
100
AcDbLine
62
7
6
CONTINUOUS
10
74.9231400000
20
8.6807070000
11
73.5252190000
21
10.0786280000
0
LINE
5
41F
100
AcDbEntity
8
05
100
AcDbLine
62
7
6
CONTINUOUS
10
74.8653980000
20
8.4202510000
11
73.4674780000
21
9.8181710000
0
LINE
5
420
100
AcDbEntity
8
05
100
AcDbLine
62
7
6
CONTINUOUS
10
74.7584990000
20
8.2089520000
11
73.4097360000
21
9.5577150000
0
LINE
5
421
100
AcDbEntity
8
05
100
AcDbLine
62
7
6
CONTINUOUS
10
74.4403010000
20
8.2089520000
11
73.3519940000
21
9.2972590000
0
LINE
5
422
100
AcDbEntity
8
05
100
AcDbLine
62
7
6
CONTINUOUS
10
74.1221030000
20
8.2089520000
11
73.2942520000
21
9.0368030000
0
LINE
5
423
100
AcDbEntity
8
05
100
AcDbLine
62
7
6
CONTINUOUS
10
73.8039050000
20
8.2089520000
11
73.2365110000
21
8.7763460000
0
LINE
5
424
100
AcDbEntity
8
05
100
AcDbLine
62
7
6
CONTINUOUS
10
73.4857070000
20
8.2089520000
11
73.1787690000
21
8.5158900000
0
LINE
5
425
100
AcDbEntity
8
05
100
AcDbLine
62
7
6
CONTINUOUS
10
73.1675080000
20
8.2089520000
11
73.1210270000
21
8.2554340000
0
LINE
5
426
100
AcDbEntity
8
05
100
AcDbLine
62
7
6
CONTINUOUS
10
100.2143430000
20
8.2089520000
11
99.6229950000
21
8.8003000000
0
LINE
5
427
100
AcDbEntity
8
05
100
AcDbLine
62
7
6
CONTINUOUS
10
98.2353860000
20
10.1879090000
11
97.7302230000
21
10.6930720000
0
LINE
5
428
100
AcDbEntity
8
05
100
AcDbLine
62
7
6
CONTINUOUS
10
99.2880550000
20
9.1352400000
11
98.9980770000
21
9.4252180000
0
LINE
5
429
100
AcDbEntity
8
05
100
AcDbLine
62
7
6
CONTINUOUS
10
100.5325410000
20
8.2089520000
11
99.3162750000
21
9.4252180000
0
LINE
5
42A
100
AcDbEntity
8
05
100
AcDbLine
62
7
6
CONTINUOUS
10
98.4884000000
20
10.2530940000
11
98.0484210000
21
10.6930720000
0
LINE
5
42B
100
AcDbEntity
8
05
100
AcDbLine
62
7
6
CONTINUOUS
10
100.8507390000
20
8.2089520000
11
99.5865410000
21
9.4731500000
0
LINE
5
42C
100
AcDbEntity
8
05
100
AcDbLine
62
7
6
CONTINUOUS
10
98.8065980000
20
10.2530940000
11
98.3666190000
21
10.6930720000
0
LINE
5
42D
100
AcDbEntity
8
05
100
AcDbLine
62
7
6
CONTINUOUS
10
101.1689370000
20
8.2089520000
11
99.7895650000
21
9.5883250000
0
LINE
5
42E
100
AcDbEntity
8
05
100
AcDbLine
62
7
6
CONTINUOUS
10
99.1247960000
20
10.2530940000
11
98.6848170000
21
10.6930720000
0
LINE
5
42F
100
AcDbEntity
8
05
100
AcDbLine
62
7
6
CONTINUOUS
10
101.3114220000
20
8.3846650000
11
99.9276840000
21
9.7684040000
0
LINE
5
430
100
AcDbEntity
8
05
100
AcDbLine
62
7
6
CONTINUOUS
10
99.4429940000
20
10.2530940000
11
99.0030150000
21
10.6930720000
0
LINE
5
431
100
AcDbEntity
8
05
100
AcDbLine
62
7
6
CONTINUOUS
10
101.3236390000
20
8.6906470000
11
99.9146710000
21
10.0996140000
0
LINE
5
432
100
AcDbEntity
8
05
100
AcDbLine
62
7
6
CONTINUOUS
10
99.7916150000
20
10.2226700000
11
99.3212130000
21
10.6930720000
0
LINE
5
433
100
AcDbEntity
8
05
100
AcDbLine
62
7
6
CONTINUOUS
10
101.3444350000
20
8.9880480000
11
99.6394110000
21
10.6930720000
0
LINE
5
434
100
AcDbEntity
8
05
100
AcDbLine
62
7
6
CONTINUOUS
10
102.4417290000
20
8.2089520000
11
102.1979220000
21
8.4527590000
0
LINE
5
435
100
AcDbEntity
8
05
100
AcDbLine
62
7
6
CONTINUOUS
10
101.2866150000
20
9.3640660000
11
99.9576100000
21
10.6930720000
0
LINE
5
436
100
AcDbEntity
8
05
100
AcDbLine
62
7
6
CONTINUOUS
10
102.7599270000
20
8.2089520000
11
102.2556640000
21
8.7132160000
0
LINE
5
437
100
AcDbEntity
8
05
100
AcDbLine
62
7
6
CONTINUOUS
10
101.4817000000
20
9.4871790000
11
100.2758080000
21
10.6930720000
0
LINE
5
438
100
AcDbEntity
8
05
100
AcDbLine
62
7
6
CONTINUOUS
10
103.0781250000
20
8.2089520000
11
102.3134060000
21
8.9736720000
0
LINE
5
439
100
AcDbEntity
8
05
100
AcDbLine
62
7
6
CONTINUOUS
10
101.6502860000
20
9.6367910000
11
100.5940060000
21
10.6930720000
0
LINE
5
43A
100
AcDbEntity
8
05
100
AcDbLine
62
7
6
CONTINUOUS
10
103.3963230000
20
8.2089520000
11
102.3711480000
21
9.2341280000
0
LINE
5
43B
100
AcDbEntity
8
05
100
AcDbLine
62
7
6
CONTINUOUS
10
101.7853460000
20
9.8199300000
11
100.9122040000
21
10.6930720000
0
LINE
5
43C
100
AcDbEntity
8
05
100
AcDbLine
62
7
6
CONTINUOUS
10
103.7145210000
20
8.2089520000
11
102.4288890000
21
9.4945840000
0
LINE
5
43D
100
AcDbEntity
8
05
100
AcDbLine
62
7
6
CONTINUOUS
10
101.8709020000
20
10.0525710000
11
101.2554280000
21
10.6680460000
0
LINE
5
43E
100
AcDbEntity
8
05
100
AcDbLine
62
7
6
CONTINUOUS
10
103.8845520000
20
8.3571200000
11
102.4866310000
21
9.7550410000
0
LINE
5
43F
100
AcDbEntity
8
05
100
AcDbLine
62
7
6
CONTINUOUS
10
103.9422940000
20
8.6175760000
11
102.5443730000
21
10.0154970000
0
LINE
5
440
100
AcDbEntity
8
05
100
AcDbLine
62
7
6
CONTINUOUS
10
104.0000350000
20
8.8780330000
11
102.6021150000
21
10.2759530000
0
LINE
5
441
100
AcDbEntity
8
05
100
AcDbLine
62
7
6
CONTINUOUS
10
104.9873140000
20
8.2089520000
11
104.8838210000
21
8.3124450000
0
LINE
5
442
100
AcDbEntity
8
05
100
AcDbLine
62
7
6
CONTINUOUS
10
104.0577770000
20
9.1384890000
11
102.6598560000
21
10.5364100000
0
LINE
5
443
100
AcDbEntity
8
05
100
AcDbLine
62
7
6
CONTINUOUS
10
105.3055120000
20
8.2089520000
11
104.9415630000
21
8.5729010000
0
LINE
5
444
100
AcDbEntity
8
05
100
AcDbLine
62
7
6
CONTINUOUS
10
104.1155190000
20
9.3989450000
11
102.8213920000
21
10.6930720000
0
LINE
5
445
100
AcDbEntity
8
05
100
AcDbLine
62
7
6
CONTINUOUS
10
105.6237100000
20
8.2089520000
11
104.9993050000
21
8.8333570000
0
LINE
5
446
100
AcDbEntity
8
05
100
AcDbLine
62
7
6
CONTINUOUS
10
104.1732610000
20
9.6594010000
11
103.1395900000
21
10.6930720000
0
LINE
5
447
100
AcDbEntity
8
05
100
AcDbLine
62
7
6
CONTINUOUS
10
105.9419080000
20
8.2089520000
11
105.0570460000
21
9.0938140000
0
LINE
5
448
100
AcDbEntity
8
05
100
AcDbLine
62
7
6
CONTINUOUS
10
104.2310020000
20
9.9198580000
11
103.4577880000
21
10.6930720000
0
LINE
5
449
100
AcDbEntity
8
05
100
AcDbLine
62
7
6
CONTINUOUS
10
106.2601060000
20
8.2089520000
11
105.1147880000
21
9.3542700000
0
LINE
5
44A
100
AcDbEntity
8
05
100
AcDbLine
62
7
6
CONTINUOUS
10
104.2887440000
20
10.1803140000
11
103.7759860000
21
10.6930720000
0
LINE
5
44B
100
AcDbEntity
8
05
100
AcDbLine
62
7
6
CONTINUOUS
10
106.5069090000
20
8.2803470000
11
105.1725300000
21
9.6147260000
0
LINE
5
44C
100
AcDbEntity
8
05
100
AcDbLine
62
7
6
CONTINUOUS
10
104.3464860000
20
10.4407700000
11
104.0941840000
21
10.6930720000
0
LINE
5
44D
100
AcDbEntity
8
05
100
AcDbLine
62
7
6
CONTINUOUS
10
106.5646510000
20
8.5408040000
11
105.2302720000
21
9.8751820000
0
LINE
5
44E
100
AcDbEntity
8
05
100
AcDbLine
62
7
6
CONTINUOUS
10
106.6223920000
20
8.8012600000
11
105.2880140000
21
10.1356390000
0
LINE
5
44F
100
AcDbEntity
8
05
100
AcDbLine
62
7
6
CONTINUOUS
10
106.8272750000
20
8.9145760000
11
105.3457550000
21
10.3960950000
0
LINE
5
450
100
AcDbEntity
8
05
100
AcDbLine
62
7
6
CONTINUOUS
10
107.0503950000
20
9.0096540000
11
105.4034970000
21
10.6565510000
0
LINE
5
451
100
AcDbEntity
8
05
100
AcDbLine
62
7
6
CONTINUOUS
10
107.2735140000
20
9.1047320000
11
105.6851740000
21
10.6930720000
0
LINE
5
452
100
AcDbEntity
8
05
100
AcDbLine
62
7
6
CONTINUOUS
10
108.4874920000
20
8.2089520000
11
106.0033720000
21
10.6930720000
0
LINE
5
453
100
AcDbEntity
8
05
100
AcDbLine
62
7
6
CONTINUOUS
10
108.8056900000
20
8.2089520000
11
107.0702760000
21
9.9443670000
0
LINE
5
454
100
AcDbEntity
8
05
100
AcDbLine
62
7
6
CONTINUOUS
10
106.9111010000
20
10.1035410000
11
106.3215710000
21
10.6930720000
0
LINE
5
455
100
AcDbEntity
8
05
100
AcDbLine
62
7
6
CONTINUOUS
10
109.1238880000
20
8.2089520000
11
107.2933950000
21
10.0394450000
0
LINE
5
456
100
AcDbEntity
8
05
100
AcDbLine
62
7
6
CONTINUOUS
10
106.9688430000
20
10.3639980000
11
106.6397690000
21
10.6930720000
0
LINE
5
457
100
AcDbEntity
8
05
100
AcDbLine
62
7
6
CONTINUOUS
10
109.4420860000
20
8.2089520000
11
107.5165150000
21
10.1345230000
0
LINE
5
458
100
AcDbEntity
8
05
100
AcDbLine
62
7
6
CONTINUOUS
10
107.0265850000
20
10.6244540000
11
106.9579670000
21
10.6930720000
0
LINE
5
459
100
AcDbEntity
8
05
100
AcDbLine
62
7
6
CONTINUOUS
10
109.7602840000
20
8.2089520000
11
107.7396350000
21
10.2296020000
0
LINE
5
45A
100
AcDbEntity
8
05
100
AcDbLine
62
7
6
CONTINUOUS
10
110.0784820000
20
8.2089520000
11
107.9627550000
21
10.3246800000
0
LINE
5
45B
100
AcDbEntity
8
05
100
AcDbLine
62
7
6
CONTINUOUS
10
110.3966810000
20
8.2089520000
11
108.1858740000
21
10.4197580000
0
LINE
5
45C
100
AcDbEntity
8
05
100
AcDbLine
62
7
6
CONTINUOUS
10
109.0584720000
20
9.8653590000
11
108.4089940000
21
10.5148370000
0
LINE
5
45D
100
AcDbEntity
8
05
100
AcDbLine
62
7
6
CONTINUOUS
10
109.2815920000
20
9.9604370000
11
108.6321140000
21
10.6099150000
0
LINE
5
45E
100
AcDbEntity
8
05
100
AcDbLine
62
7
6
CONTINUOUS
10
109.5047120000
20
10.0555150000
11
108.8671550000
21
10.6930720000
0
LINE
5
45F
100
AcDbEntity
8
05
100
AcDbLine
62
7
6
CONTINUOUS
10
109.7278310000
20
10.1505930000
11
109.1853530000
21
10.6930720000
0
LINE
5
460
100
AcDbEntity
8
05
100
AcDbLine
62
7
6
CONTINUOUS
10
109.9509510000
20
10.2456720000
11
109.5035510000
21
10.6930720000
0
LINE
5
461
100
AcDbEntity
8
05
100
AcDbLine
62
7
6
CONTINUOUS
10
110.1740710000
20
10.3407500000
11
109.8217490000
21
10.6930720000
0
LINE
5
462
100
AcDbEntity
8
05
100
AcDbLine
62
7
6
CONTINUOUS
10
110.3971910000
20
10.4358280000
11
110.1399470000
21
10.6930720000
0
LINE
5
463
100
AcDbEntity
8
05
100
AcDbLine
62
7
6
CONTINUOUS
10
110.6203100000
20
10.5309070000
11
110.4581450000
21
10.6930720000
0
LINE
5
464
100
AcDbEntity
8
05
100
AcDbLine
62
7
6
CONTINUOUS
10
110.8434300000
20
10.6259850000
11
110.7763430000
21
10.6930720000
0
LINE
5
465
100
AcDbEntity
8
05
100
AcDbLine
62
7
6
CONTINUOUS
10
113.5786610000
20
8.2089520000
11
113.5132270000
21
8.2743870000
0
LINE
5
466
100
AcDbEntity
8
05
100
AcDbLine
62
7
6
CONTINUOUS
10
113.8968590000
20
8.2089520000
11
113.6495970000
21
8.4562140000
0
LINE
5
467
100
AcDbEntity
8
05
100
AcDbLine
62
7
6
CONTINUOUS
10
114.2150570000
20
8.2089520000
11
113.7859680000
21
8.6380420000
0
LINE
5
468
100
AcDbEntity
8
05
100
AcDbLine
62
7
6
CONTINUOUS
10
114.5332550000
20
8.2089520000
11
113.9223380000
21
8.8198690000
0
LINE
5
469
100
AcDbEntity
8
05
100
AcDbLine
62
7
6
CONTINUOUS
10
114.8514530000
20
8.2089520000
11
114.0587090000
21
9.0016960000
0
LINE
5
46A
100
AcDbEntity
8
05
100
AcDbLine
62
7
6
CONTINUOUS
10
115.1528720000
20
8.2257320000
11
114.1950800000
21
9.1835240000
0
LINE
5
46B
100
AcDbEntity
8
05
100
AcDbLine
62
7
6
CONTINUOUS
10
115.2892420000
20
8.4075590000
11
114.3314500000
21
9.3653510000
0
LINE
5
46C
100
AcDbEntity
8
05
100
AcDbLine
62
7
6
CONTINUOUS
10
115.4256130000
20
8.5893870000
11
114.4678210000
21
9.5471790000
0
LINE
5
46D
100
AcDbEntity
8
05
100
AcDbLine
62
7
6
CONTINUOUS
10
115.6442140000
20
8.6889840000
11
114.6041910000
21
9.7290060000
0
LINE
5
46E
100
AcDbEntity
8
05
100
AcDbLine
62
7
6
CONTINUOUS
10
115.9624120000
20
8.6889840000
11
114.7405620000
21
9.9108340000
0
LINE
5
46F
100
AcDbEntity
8
05
100
AcDbLine
62
7
6
CONTINUOUS
10
116.2806100000
20
8.6889840000
11
115.9074220000
21
9.0621710000
0
LINE
5
470
100
AcDbEntity
8
05
100
AcDbLine
62
7
6
CONTINUOUS
10
115.8347250000
20
9.1348690000
11
114.8769330000
21
10.0926610000
0
LINE
5
471
100
AcDbEntity
8
05
100
AcDbLine
62
7
6
CONTINUOUS
10
116.5988080000
20
8.6889840000
11
116.2256200000
21
9.0621710000
0
LINE
5
472
100
AcDbEntity
8
05
100
AcDbLine
62
7
6
CONTINUOUS
10
115.9710950000
20
9.3166960000
11
115.0133030000
21
10.2744890000
0
LINE
5
473
100
AcDbEntity
8
05
100
AcDbLine
62
7
6
CONTINUOUS
10
117.3970380000
20
8.2089520000
11
117.3290410000
21
8.2769490000
0
LINE
5
474
100
AcDbEntity
8
05
100
AcDbLine
62
7
6
CONTINUOUS
10
116.1074660000
20
9.4985240000
11
115.1496740000
21
10.4563160000
0
LINE
5
475
100
AcDbEntity
8
05
100
AcDbLine
62
7
6
CONTINUOUS
10
116.9170060000
20
8.6889840000
11
116.5438180000
21
9.0621710000
0
LINE
5
476
100
AcDbEntity
8
05
100
AcDbLine
62
7
6
CONTINUOUS
10
117.7152360000
20
8.2089520000
11
116.8620160000
21
9.0621710000
0
LINE
5
477
100
AcDbEntity
8
05
100
AcDbLine
62
7
6
CONTINUOUS
10
116.2438370000
20
9.6803510000
11
115.2860440000
21
10.6381440000
0
LINE
5
478
100
AcDbEntity
8
05
100
AcDbLine
62
7
6
CONTINUOUS
10
118.0334340000
20
8.2089520000
11
117.1169090000
21
9.1254770000
0
LINE
5
479
100
AcDbEntity
8
05
100
AcDbLine
62
7
6
CONTINUOUS
10
116.3802070000
20
9.8621790000
11
115.5485850000
21
10.6938010000
0
LINE
5
47A
100
AcDbEntity
8
05
100
AcDbLine
62
7
6
CONTINUOUS
10
118.3516320000
20
8.2089520000
11
117.0108430000
21
9.5497410000
0
LINE
5
47B
100
AcDbEntity
8
05
100
AcDbLine
62
7
6
CONTINUOUS
10
116.5165780000
20
10.0440060000
11
115.8667830000
21
10.6938010000
0
LINE
5
47C
100
AcDbEntity
8
05
100
AcDbLine
62
7
6
CONTINUOUS
10
118.6698300000
20
8.2089520000
11
116.9047770000
21
9.9740050000
0
LINE
5
47D
100
AcDbEntity
8
05
100
AcDbLine
62
7
6
CONTINUOUS
10
116.6529480000
20
10.2258340000
11
116.1849810000
21
10.6938010000
0
LINE
5
47E
100
AcDbEntity
8
05
100
AcDbLine
62
7
6
CONTINUOUS
10
118.8755950000
20
8.3213850000
11
116.7987110000
21
10.3982690000
0
LINE
5
47F
100
AcDbEntity
8
05
100
AcDbLine
62
7
6
CONTINUOUS
10
116.7893190000
20
10.4076610000
11
116.5031790000
21
10.6938010000
0
LINE
5
480
100
AcDbEntity
8
05
100
AcDbLine
62
7
6
CONTINUOUS
10
118.7695290000
20
8.7456490000
11
116.8213770000
21
10.6938010000
0
LINE
5
481
100
AcDbEntity
8
05
100
AcDbLine
62
7
6
CONTINUOUS
10
118.6634630000
20
9.1699130000
11
117.1395760000
21
10.6938010000
0
LINE
5
482
100
AcDbEntity
8
05
100
AcDbLine
62
7
6
CONTINUOUS
10
119.7324920000
20
8.4190820000
11
119.6739720000
21
8.4776020000
0
LINE
5
483
100
AcDbEntity
8
05
100
AcDbLine
62
7
6
CONTINUOUS
10
118.5573970000
20
9.5941770000
11
117.4577740000
21
10.6938010000
0
LINE
5
484
100
AcDbEntity
8
05
100
AcDbLine
62
7
6
CONTINUOUS
10
120.1492980000
20
8.3204740000
11
119.6352250000
21
8.8345480000
0
LINE
5
485
100
AcDbEntity
8
05
100
AcDbLine
62
7
6
CONTINUOUS
10
118.4513310000
20
10.0184410000
11
117.7759720000
21
10.6938010000
0
LINE
5
486
100
AcDbEntity
8
05
100
AcDbLine
62
7
6
CONTINUOUS
10
120.5092820000
20
8.2786890000
11
119.6829220000
21
9.1050490000
0
LINE
5
487
100
AcDbEntity
8
05
100
AcDbLine
62
7
6
CONTINUOUS
10
118.3452650000
20
10.4427050000
11
118.0941700000
21
10.6938010000
0
LINE
5
488
100
AcDbEntity
8
05
100
AcDbLine
62
7
6
CONTINUOUS
10
120.8588570000
20
8.2473120000
11
119.7306180000
21
9.3755500000
0
LINE
5
489
100
AcDbEntity
8
05
100
AcDbLine
62
7
6
CONTINUOUS
10
121.1989400000
20
8.2254260000
11
119.7783150000
21
9.6460520000
0
LINE
5
48A
100
AcDbEntity
8
05
100
AcDbLine
62
7
6
CONTINUOUS
10
121.5303060000
20
8.2122580000
11
119.8260120000
21
9.9165530000
0
LINE
5
48B
100
AcDbEntity
8
05
100
AcDbLine
62
7
6
CONTINUOUS
10
121.8536160000
20
8.2071470000
11
119.8737080000
21
10.1870540000
0
LINE
5
48C
100
AcDbEntity
8
05
100
AcDbLine
62
7
6
CONTINUOUS
10
122.1694370000
20
8.2095230000
11
121.7175430000
21
8.6614180000
0
LINE
5
48D
100
AcDbEntity
8
05
100
AcDbLine
62
7
6
CONTINUOUS
10
121.2416420000
20
9.1373190000
11
119.9704990000
21
10.4084620000
0
LINE
5
48E
100
AcDbEntity
8
05
100
AcDbLine
62
7
6
CONTINUOUS
10
122.4782650000
20
8.2188940000
11
122.0476490000
21
8.6495100000
0
LINE
5
48F
100
AcDbEntity
8
05
100
AcDbLine
62
7
6
CONTINUOUS
10
121.2893390000
20
9.4078200000
11
120.1933910000
21
10.5037670000
0
LINE
5
490
100
AcDbEntity
8
05
100
AcDbLine
62
7
6
CONTINUOUS
10
122.7805300000
20
8.2348260000
11
122.3498670000
21
8.6654900000
0
LINE
5
491
100
AcDbEntity
8
05
100
AcDbLine
62
7
6
CONTINUOUS
10
121.3370350000
20
9.6783210000
11
120.4681720000
21
10.5471850000
0
LINE
5
492
100
AcDbEntity
8
05
100
AcDbLine
62
7
6
CONTINUOUS
10
123.1246030000
20
8.2089520000
11
122.6300090000
21
8.7035460000
0
LINE
5
493
100
AcDbEntity
8
05
100
AcDbLine
62
7
6
CONTINUOUS
10
121.3847320000
20
9.9488230000
11
120.7480050000
21
10.5855500000
0
LINE
5
494
100
AcDbEntity
8
05
100
AcDbLine
62
7
6
CONTINUOUS
10
123.4428010000
20
8.2089520000
11
122.8555260000
21
8.7962270000
0
LINE
5
495
100
AcDbEntity
8
05
100
AcDbLine
62
7
6
CONTINUOUS
10
121.5029990000
20
10.1487530000
11
121.0331350000
21
10.6186170000
0
LINE
5
496
100
AcDbEntity
8
05
100
AcDbLine
62
7
6
CONTINUOUS
10
122.5731040000
20
9.0786490000
11
122.3801960000
21
9.2715570000
0
LINE
5
497
100
AcDbEntity
8
05
100
AcDbLine
62
7
6
CONTINUOUS
10
123.7609990000
20
8.2089520000
11
122.9559880000
21
9.0139630000
0
LINE
5
498
100
AcDbEntity
8
05
100
AcDbLine
62
7
6
CONTINUOUS
10
121.7450410000
20
10.2249100000
11
121.3238330000
21
10.6461180000
0
LINE
5
499
100
AcDbEntity
8
05
100
AcDbLine
62
7
6
CONTINUOUS
10
122.8913020000
20
9.0786490000
11
122.6685740000
21
9.3013760000
0
LINE
5
49A
100
AcDbEntity
8
05
100
AcDbLine
62
7
6
CONTINUOUS
10
124.0791970000
20
8.2089520000
11
122.9867720000
21
9.3013760000
0
LINE
5
49B
100
AcDbEntity
8
05
100
AcDbLine
62
7
6
CONTINUOUS
10
122.0342750000
20
10.2538740000
11
121.6204010000
21
10.6677480000
0
LINE
5
49C
100
AcDbEntity
8
05
100
AcDbLine
62
7
6
CONTINUOUS
10
124.3716180000
20
8.2347290000
11
123.3049710000
21
9.3013760000
0
LINE
5
49D
100
AcDbEntity
8
05
100
AcDbLine
62
7
6
CONTINUOUS
10
122.3477810000
20
10.2585660000
11
121.9231780000
21
10.6831690000
0
LINE
5
49E
100
AcDbEntity
8
05
100
AcDbLine
62
7
6
CONTINUOUS
10
124.4193150000
20
8.5052300000
11
123.6231690000
21
9.3013760000
0
LINE
5
49F
100
AcDbEntity
8
05
100
AcDbLine
62
7
6
CONTINUOUS
10
122.6928320000
20
10.2317130000
11
122.2325510000
21
10.6919940000
0
LINE
5
4A0
100
AcDbEntity
8
05
100
AcDbLine
62
7
6
CONTINUOUS
10
124.4670110000
20
8.7757320000
11
123.9413670000
21
9.3013760000
0
LINE
5
4A1
100
AcDbEntity
8
05
100
AcDbLine
62
7
6
CONTINUOUS
10
123.2787500000
20
9.9639930000
11
122.5489540000
21
10.6937890000
0
LINE
5
4A2
100
AcDbEntity
8
05
100
AcDbLine
62
7
6
CONTINUOUS
10
124.5147080000
20
9.0462330000
11
124.2595650000
21
9.3013760000
0
LINE
5
4A3
100
AcDbEntity
8
05
100
AcDbLine
62
7
6
CONTINUOUS
10
123.5969480000
20
9.9639930000
11
122.8728890000
21
10.6880520000
0
LINE
5
4A4
100
AcDbEntity
8
05
100
AcDbLine
62
7
6
CONTINUOUS
10
123.9151460000
20
9.9639930000
11
123.2049290000
21
10.6742100000
0
LINE
5
4A5
100
AcDbEntity
8
05
100
AcDbLine
62
7
6
CONTINUOUS
10
124.2333440000
20
9.9639930000
11
123.5457450000
21
10.6515930000
0
LINE
5
4A6
100
AcDbEntity
8
05
100
AcDbLine
62
7
6
CONTINUOUS
10
124.5515420000
20
9.9639930000
11
123.8961190000
21
10.6194160000
0
LINE
5
4A7
100
AcDbEntity
8
05
100
AcDbLine
62
7
6
CONTINUOUS
10
124.7054950000
20
10.1282390000
11
124.2569840000
21
10.5767500000
0
LINE
5
4A8
100
AcDbEntity
8
035
100
AcDbLine
62
3
6
CONTINUOUS
10
73.1107220000
20
8.2089520000
11
74.8185550000
21
8.2089520000
0
LINE
5
4A9
100
AcDbEntity
8
035
100
AcDbLine
62
3
6
CONTINUOUS
10
73.6614380000
20
10.6930720000
11
75.6797860000
21
10.6930720000
0
LINE
5
4AA
100
AcDbEntity
8
035
100
AcDbLine
62
3
6
CONTINUOUS
10
73.1107220000
20
8.2089520000
11
73.6614380000
21
10.6930720000
0
LINE
5
4AB
100
AcDbEntity
8
035
100
AcDbLine
62
3
6
CONTINUOUS
10
74.8185550000
20
8.2089520000
11
75.1283320000
21
9.6062700000
0
LINE
5
4AC
100
AcDbEntity
8
035
100
AcDbLine
62
3
6
CONTINUOUS
10
78.6223630000
20
8.2089520000
11
79.1730790000
21
10.6930720000
0
LINE
5
4AD
100
AcDbEntity
8
035
100
AcDbLine
62
3
6
CONTINUOUS
10
77.2243080000
20
9.6062700000
11
77.4652470000
21
10.6930720000
0
LINE
5
4AE
100
AcDbEntity
8
035
100
AcDbLine
62
3
6
CONTINUOUS
10
75.1283320000
20
9.6062700000
11
76.6816440000
21
8.2089520000
0
LINE
5
4AF
100
AcDbEntity
8
035
100
AcDbLine
62
3
6
CONTINUOUS
10
75.6797860000
20
10.6930720000
11
77.2243080000
21
9.6062700000
0
LINE
5
4B0
100
AcDbEntity
8
035
100
AcDbLine
62
3
6
CONTINUOUS
10
77.4652470000
20
10.6930720000
11
79.1730790000
21
10.6930720000
0
LINE
5
4B1
100
AcDbEntity
8
035
100
AcDbLine
62
3
6
CONTINUOUS
10
76.6816440000
20
8.2089520000
11
78.6223630000
21
8.2089520000
0
LINE
5
4B2
100
AcDbEntity
8
035
100
AcDbLine
62
3
6
CONTINUOUS
10
79.4762790000
20
8.2089520000
11
80.0269950000
21
10.6930720000
0
LINE
5
4B3
100
AcDbEntity
8
035
100
AcDbLine
62
3
6
CONTINUOUS
10
81.2816520000
20
8.6489310000
11
81.4273260000
21
9.3060230000
0
LINE
5
4B4
100
AcDbEntity
8
035
100
AcDbLine
62
3
6
CONTINUOUS
10
84.1443320000
20
9.3060230000
11
84.2086190000
21
9.5960010000
0
LINE
5
4B5
100
AcDbEntity
8
035
100
AcDbLine
62
3
6
CONTINUOUS
10
84.1340040000
20
8.2089520000
11
84.2315440000
21
8.6489310000
0
LINE
5
4B6
100
AcDbEntity
8
035
100
AcDbLine
62
3
6
CONTINUOUS
10
79.4762790000
20
8.2089520000
11
84.1340040000
21
8.2089520000
0
LINE
5
4B7
100
AcDbEntity
8
035
100
AcDbLine
62
3
6
CONTINUOUS
10
80.0269950000
20
10.6930720000
11
84.6847200000
21
10.6930720000
0
LINE
5
4B8
100
AcDbEntity
8
035
100
AcDbLine
62
3
6
CONTINUOUS
10
81.4916130000
20
9.5960010000
11
81.6372870000
21
10.2530940000
0
LINE
5
4B9
100
AcDbEntity
8
035
100
AcDbLine
62
3
6
CONTINUOUS
10
84.5871790000
20
10.2530940000
11
84.6847200000
21
10.6930720000
0
LINE
5
4BA
100
AcDbEntity
8
035
100
AcDbLine
62
3
6
CONTINUOUS
10
85.0785120000
20
8.9677470000
11
85.4610070000
21
10.6930720000
0
LINE
5
4BB
100
AcDbEntity
8
035
100
AcDbLine
62
3
6
CONTINUOUS
10
86.8294160000
20
9.1814320000
11
87.1645380000
21
10.6930720000
0
LINE
5
4BC
100
AcDbEntity
8
035
100
AcDbLine
62
3
6
CONTINUOUS
10
88.6970730000
20
9.1008870000
11
89.0500510000
21
10.6930720000
0
LINE
5
4BD
100
AcDbEntity
8
035
100
AcDbLine
62
3
6
CONTINUOUS
10
90.3443260000
20
8.8470990000
11
90.7535680000
21
10.6930720000
0
LINE
5
4BE
100
AcDbEntity
8
035
100
AcDbLine
62
3
6
CONTINUOUS
10
85.4610070000
20
10.6930720000
11
87.1645380000
21
10.6930720000
0
ARC
5
4BF
100
AcDbEntity
8
035
100
AcDbCircle
62
3
6
CONTINUOUS
10
85.3565382511
20
8.9076074747
40
0.2844562511
100
AcDbArc
50
167.7944635173
51
179.9992899294
0
ARC
5
4C0
100
AcDbEntity
8
035
100
AcDbCircle
62
3
6
CONTINUOUS
10
85.3565385413
20
8.9076113390
40
0.2844565413
100
AcDbArc
50
180.0000682898
51
234.6229224813
0
ARC
5
4C1
100
AcDbEntity
8
035
100
AcDbCircle
62
3
6
CONTINUOUS
10
86.4662366591
20
10.4704306902
40
2.2011814138
100
AcDbArc
50
234.6229020698
51
253.6104761870
0
ARC
5
4C2
100
AcDbEntity
8
035
100
AcDbCircle
62
3
6
CONTINUOUS
10
87.2145988754
20
13.0148393689
40
4.8533619377
100
AcDbArc
50
253.6103910211
51
263.0540333551
0
ARC
5
4C3
100
AcDbEntity
8
035
100
AcDbCircle
62
3
6
CONTINUOUS
10
87.7114581813
20
17.0931766141
40
8.9618536141
100
AcDbArc
50
263.0539945915
51
270.0000116273
0
ARC
5
4C4
100
AcDbEntity
8
035
100
AcDbCircle
62
3
6
CONTINUOUS
10
87.7114613187
20
17.0931683755
40
8.9618453755
100
AcDbArc
50
269.9999915694
51
276.9460086052
0
ARC
5
4C5
100
AcDbEntity
8
035
100
AcDbCircle
62
3
6
CONTINUOUS
10
88.2083201246
20
13.0148393689
40
4.8533619377
100
AcDbArc
50
276.9459666449
51
286.3896089789
0
ARC
5
4C6
100
AcDbEntity
8
035
100
AcDbCircle
62
3
6
CONTINUOUS
10
88.9566823409
20
10.4704306902
40
2.2011814138
100
AcDbArc
50
286.3895238130
51
305.3770979302
0
ARC
5
4C7
100
AcDbEntity
8
035
100
AcDbCircle
62
3
6
CONTINUOUS
10
90.0663810713
20
8.9076107687
40
0.2844557216
100
AcDbArc
50
305.3770434265
51
347.7177170673
0
ARC
5
4C8
100
AcDbEntity
8
035
100
AcDbCircle
62
3
6
CONTINUOUS
10
87.0025297663
20
9.1404964568
40
0.1778877663
100
AcDbArc
50
179.9998250514
51
225.0422913416
0
ARC
5
4C9
100
AcDbEntity
8
035
100
AcDbCircle
62
3
6
CONTINUOUS
10
87.3618635061
20
9.5003622419
40
0.6864387665
100
AcDbArc
50
225.0423614170
51
247.5300128082
0
ARC
5
4CA
100
AcDbEntity
8
035
100
AcDbCircle
62
3
6
CONTINUOUS
10
87.6034918176
20
10.0845620937
40
1.3186362892
100
AcDbArc
50
247.5298821870
51
260.2785491795
0
ARC
5
4CB
100
AcDbEntity
8
035
100
AcDbCircle
62
3
6
CONTINUOUS
10
87.7630903846
20
11.0161117087
40
2.2637587087
100
AcDbArc
50
260.2783770082
51
269.9999902662
0
ARC
5
4CC
100
AcDbEntity
8
035
100
AcDbCircle
62
3
6
CONTINUOUS
10
87.7630896154
20
11.0161117087
40
2.2637587087
100
AcDbArc
50
270.0000097338
51
279.7216229918
0
ARC
5
4CD
100
AcDbEntity
8
035
100
AcDbCircle
62
3
6
CONTINUOUS
10
87.9226881824
20
10.0845620937
40
1.3186362892
100
AcDbArc
50
279.7214508205
51
292.4701178130
0
ARC
5
4CE
100
AcDbEntity
8
035
100
AcDbCircle
62
3
6
CONTINUOUS
10
88.1643164939
20
9.5003622419
40
0.6864387665
100
AcDbArc
50
292.4699871918
51
314.9576385830
0
ARC
5
4CF
100
AcDbEntity
8
035
100
AcDbCircle
62
3
6
CONTINUOUS
10
88.5236507293
20
9.1404979651
40
0.1778884834
100
AcDbArc
50
314.9572524508
51
347.1339192357
0
ARC
5
4D0
100
AcDbEntity
8
035
100
AcDbCircle
62
3
6
CONTINUOUS
10
87.0025290776
20
9.1404969937
40
0.1778870776
100
AcDbArc
50
166.6959850486
51
179.9999979692
0
LINE
5
4D1
100
AcDbEntity
8
035
100
AcDbLine
62
3
6
CONTINUOUS
10
89.0500510000
20
10.6930720000
11
90.7535680000
21
10.6930720000
0
LINE
5
4D2
100
AcDbEntity
8
035
100
AcDbLine
62
3
6
CONTINUOUS
10
91.0678550000
20
10.0720420000
11
91.2055340000
21
10.6930720000
0
LINE
5
4D3
100
AcDbEntity
8
035
100
AcDbLine
62
3
6
CONTINUOUS
10
92.2073930000
20
8.2089520000
11
92.6204300000
21
10.0720420000
0
LINE
5
4D4
100
AcDbEntity
8
035
100
AcDbLine
62
3
6
CONTINUOUS
10
93.9152250000
20
8.2089520000
11
94.3282620000
21
10.0720420000
0
LINE
5
4D5
100
AcDbEntity
8
035
100
AcDbLine
62
3
6
CONTINUOUS
10
95.9584660000
20
10.0720420000
11
96.0961450000
21
10.6930720000
0
LINE
5
4D6
100
AcDbEntity
8
035
100
AcDbLine
62
3
6
CONTINUOUS
10
91.0678550000
20
10.0720420000
11
92.6204300000
21
10.0720420000
0
LINE
5
4D7
100
AcDbEntity
8
035
100
AcDbLine
62
3
6
CONTINUOUS
10
92.2073930000
20
8.2089520000
11
93.9152250000
21
8.2089520000
0
LINE
5
4D8
100
AcDbEntity
8
035
100
AcDbLine
62
3
6
CONTINUOUS
10
91.2055340000
20
10.6930720000
11
96.0961450000
21
10.6930720000
0
LINE
5
4D9
100
AcDbEntity
8
035
100
AcDbLine
62
3
6
CONTINUOUS
10
94.3282620000
20
10.0720420000
11
95.9584660000
21
10.0720420000
0
LINE
5
4DA
100
AcDbEntity
8
035
100
AcDbLine
62
3
6
CONTINUOUS
10
96.0888300000
20
8.2089520000
11
96.6395460000
21
10.6930720000
0
LINE
5
4DB
100
AcDbEntity
8
035
100
AcDbLine
62
3
6
CONTINUOUS
10
97.7966620000
20
8.2089520000
11
98.0020150000
21
9.1352400000
0
LINE
5
4DC
100
AcDbEntity
8
035
100
AcDbLine
62
3
6
CONTINUOUS
10
96.0888300000
20
8.2089520000
11
97.7966620000
21
8.2089520000
0
LINE
5
4DD
100
AcDbEntity
8
035
100
AcDbLine
62
3
6
CONTINUOUS
10
96.6395460000
20
10.6930720000
11
100.9979220000
21
10.6930720000
0
LINE
5
4DE
100
AcDbEntity
8
035
100
AcDbLine
62
3
6
CONTINUOUS
10
101.3081340000
20
8.4689140000
11
101.3485860000
21
9.0474050000
0
LINE
5
4DF
100
AcDbEntity
8
035
100
AcDbLine
62
3
6
CONTINUOUS
10
99.5959630000
20
8.4068680000
11
99.6272290000
21
8.8619210000
0
LINE
5
4E0
100
AcDbEntity
8
035
100
AcDbLine
62
3
6
CONTINUOUS
10
98.0663020000
20
9.4252180000
11
98.2498370000
21
10.2530940000
0
ARC
5
4E1
100
AcDbEntity
8
035
100
AcDbCircle
62
3
6
CONTINUOUS
10
101.6953320000
20
8.4418380000
40
0.3881440000
100
AcDbArc
50
176.0000000000
51
216.8698980000
0
ARC
5
4E2
100
AcDbEntity
8
035
100
AcDbCircle
62
3
6
CONTINUOUS
10
99.9697530000
20
8.4119050000
40
0.3738240000
100
AcDbArc
50
180.7720050000
51
212.8818750000
0
LINE
5
4E3
100
AcDbEntity
8
035
100
AcDbLine
62
3
6
CONTINUOUS
10
99.6558180000
20
8.2089520000
11
101.3848170000
21
8.2089520000
0
ARC
5
4E4
100
AcDbEntity
8
035
100
AcDbCircle
62
3
6
CONTINUOUS
10
101.0645091256
20
9.0692414046
40
0.2849148980
100
AcDbArc
50
355.6044351018
51
14.9998321139
0
ARC
5
4E5
100
AcDbEntity
8
035
100
AcDbCircle
62
3
6
CONTINUOUS
10
101.0645115927
20
9.0692393407
40
0.2849130492
100
AcDbArc
50
15.0003614107
51
49.8062951149
0
ARC
5
4E6
100
AcDbEntity
8
035
100
AcDbCircle
62
3
6
CONTINUOUS
10
100.8802286242
20
8.8511285638
40
0.5704520544
100
AcDbArc
50
49.8058236467
51
55.6063554031
0
ARC
5
4E7
100
AcDbEntity
8
035
100
AcDbCircle
62
3
6
CONTINUOUS
10
100.3132482994
20
11.1994672129
40
2.0775325922
100
AcDbArc
50
295.3416402972
51
298.8636783469
0
ARC
5
4E8
100
AcDbEntity
8
035
100
AcDbCircle
62
3
6
CONTINUOUS
10
100.6415395293
20
10.6038639832
40
1.3974455839
100
AcDbArc
50
298.8639281557
51
315.7882926038
0
ARC
5
4E9
100
AcDbEntity
8
035
100
AcDbCircle
62
3
6
CONTINUOUS
10
100.9889757242
20
10.2658585190
40
0.9127192659
100
AcDbArc
50
315.7883093494
51
340.1939355680
0
ARC
5
4EA
100
AcDbEntity
8
035
100
AcDbCircle
62
3
6
CONTINUOUS
10
101.4188091494
20
10.1110581593
40
0.4558605079
100
AcDbArc
50
340.1938658204
51
14.9997995246
0
ARC
5
4EB
100
AcDbEntity
8
035
100
AcDbCircle
62
3
6
CONTINUOUS
10
101.4188087341
20
10.1110565785
40
0.4558613183
100
AcDbArc
50
14.9999779363
51
49.8059116405
0
ARC
5
4EC
100
AcDbEntity
8
035
100
AcDbCircle
62
3
6
CONTINUOUS
10
101.1239631890
20
9.7620752320
40
0.9127222113
100
AcDbArc
50
49.8061438314
51
74.2117700500
0
ARC
5
4ED
100
AcDbEntity
8
035
100
AcDbCircle
62
3
6
CONTINUOUS
10
100.9920781414
20
9.2956381767
40
1.3974460423
100
AcDbArc
50
74.2117641360
51
89.7603990413
0
LINE
5
4EE
100
AcDbEntity
8
035
100
AcDbLine
62
3
6
CONTINUOUS
10
102.1438710000
20
8.2089520000
11
102.6945880000
21
10.6930720000
0
LINE
5
4EF
100
AcDbEntity
8
035
100
AcDbLine
62
3
6
CONTINUOUS
10
103.8517040000
20
8.2089520000
11
104.4024200000
21
10.6930720000
0
LINE
5
4F0
100
AcDbEntity
8
035
100
AcDbLine
62
3
6
CONTINUOUS
10
102.1438710000
20
8.2089520000
11
103.8517040000
21
8.2089520000
0
LINE
5
4F1
100
AcDbEntity
8
035
100
AcDbLine
62
3
6
CONTINUOUS
10
102.6945880000
20
10.6930720000
11
104.4024200000
21
10.6930720000
0
LINE
5
4F2
100
AcDbEntity
8
035
100
AcDbLine
62
3
6
CONTINUOUS
10
104.8608770000
20
8.2089520000
11
105.4115940000
21
10.6930720000
0
LINE
5
4F3
100
AcDbEntity
8
035
100
AcDbLine
62
3
6
CONTINUOUS
10
106.4910810000
20
8.2089520000
11
106.6287600000
21
8.8299820000
0
LINE
5
4F4
100
AcDbEntity
8
035
100
AcDbLine
62
3
6
CONTINUOUS
10
105.4115940000
20
10.6930720000
11
107.0417970000
21
10.6930720000
0
LINE
5
4F5
100
AcDbEntity
8
035
100
AcDbLine
62
3
6
CONTINUOUS
10
104.8608770000
20
8.2089520000
11
106.4910810000
21
8.2089520000
0
LINE
5
4F6
100
AcDbEntity
8
035
100
AcDbLine
62
3
6
CONTINUOUS
10
106.6287600000
20
8.8299820000
11
107.3574440000
21
9.1404970000
0
LINE
5
4F7
100
AcDbEntity
8
035
100
AcDbLine
62
3
6
CONTINUOUS
10
106.8555250000
20
9.8528550000
11
108.8272580000
21
10.6930720000
0
LINE
5
4F8
100
AcDbEntity
8
035
100
AcDbLine
62
3
6
CONTINUOUS
10
108.8272580000
20
10.6930720000
11
111.0008630000
21
10.6930720000
0
LINE
5
4F9
100
AcDbEntity
8
035
100
AcDbLine
62
3
6
CONTINUOUS
10
107.3574440000
20
9.1404970000
11
108.2765420000
21
8.2089520000
0
LINE
5
4FA
100
AcDbEntity
8
035
100
AcDbLine
62
3
6
CONTINUOUS
10
108.9969820000
20
9.8391560000
11
110.6054040000
21
8.2089520000
0
LINE
5
4FB
100
AcDbEntity
8
035
100
AcDbLine
62
3
6
CONTINUOUS
10
108.9969820000
20
9.8391560000
11
111.0008630000
21
10.6930720000
0
LINE
5
4FC
100
AcDbEntity
8
035
100
AcDbLine
62
3
6
CONTINUOUS
10
106.8555250000
20
9.8528550000
11
107.0417970000
21
10.6930720000
0
LINE
5
4FD
100
AcDbEntity
8
035
100
AcDbLine
62
3
6
CONTINUOUS
10
108.2765420000
20
8.2089520000
11
110.6054040000
21
8.2089520000
0
LINE
5
4FE
100
AcDbEntity
8
035
100
AcDbLine
62
3
6
CONTINUOUS
10
113.4641510000
20
8.2089520000
11
115.1402870000
21
8.2089520000
0
LINE
5
4FF
100
AcDbEntity
8
035
100
AcDbLine
62
3
6
CONTINUOUS
10
115.3277870000
20
10.6938010000
11
118.2824910000
21
10.6938010000
0
LINE
5
500
100
AcDbEntity
8
035
100
AcDbLine
62
3
6
CONTINUOUS
10
113.4641510000
20
8.2089520000
11
115.3277870000
21
10.6938010000
0
LINE
5
501
100
AcDbEntity
8
035
100
AcDbLine
62
3
6
CONTINUOUS
10
118.2824910000
20
10.6938010000
11
118.9037030000
21
8.2089520000
0
LINE
5
502
100
AcDbEntity
8
035
100
AcDbLine
62
3
6
CONTINUOUS
10
115.5003110000
20
8.6889840000
11
117.2260320000
21
8.6889840000
0
LINE
5
503
100
AcDbEntity
8
035
100
AcDbLine
62
3
6
CONTINUOUS
10
115.7802020000
20
9.0621710000
11
117.1327350000
21
9.0621710000
0
LINE
5
504
100
AcDbEntity
8
035
100
AcDbLine
62
3
6
CONTINUOUS
10
119.6150190000
20
8.7199520000
11
119.8833800000
21
10.2419070000
0
LINE
5
505
100
AcDbEntity
8
035
100
AcDbLine
62
3
6
CONTINUOUS
10
124.3670730000
20
8.2089520000
11
124.5596970000
21
9.3013760000
0
LINE
5
506
100
AcDbEntity
8
035
100
AcDbLine
62
3
6
CONTINUOUS
10
121.2261250000
20
9.0493180000
11
121.3860210000
21
9.9561340000
0
LINE
5
507
100
AcDbEntity
8
035
100
AcDbLine
62
3
6
CONTINUOUS
10
122.8140420000
20
8.2089520000
11
122.8190480000
21
8.2373380000
0
LINE
5
508
100
AcDbEntity
8
035
100
AcDbLine
62
3
6
CONTINUOUS
10
122.3461810000
20
9.0786490000
11
122.3854540000
21
9.3013760000
0
LINE
5
509
100
AcDbEntity
8
035
100
AcDbLine
62
3
6
CONTINUOUS
10
122.3461810000
20
9.0786490000
11
122.9673930000
21
9.0786490000
0
ARC
5
50A
100
AcDbEntity
8
035
100
AcDbCircle
62
3
6
CONTINUOUS
10
122.4684270000
20
-3.0031280000
40
13.6971530000
100
AcDbArc
50
81.6598950000
51
99.8027900000
0
ARC
5
50B
100
AcDbEntity
8
035
100
AcDbCircle
62
3
6
CONTINUOUS
10
121.9084660000
20
21.9041900000
40
13.6971530000
100
AcDbArc
50
261.4614730000
51
273.8118150000
0
ARC
5
50C
100
AcDbEntity
8
035
100
AcDbCircle
62
3
6
CONTINUOUS
10
120.1892670000
20
10.1879710000
40
0.3106060000
100
AcDbArc
50
99.8027900000
51
170.0000000000
0
ARC
5
50D
100
AcDbEntity
8
035
100
AcDbCircle
62
3
6
CONTINUOUS
10
119.9209060000
20
8.6660160000
40
0.3106060000
100
AcDbArc
50
170.0000000000
51
261.4614730000
0
ARC
5
50E
100
AcDbEntity
8
035
100
AcDbCircle
62
3
6
CONTINUOUS
10
124.4101300000
20
10.2418500000
40
0.3106060000
100
AcDbArc
50
350.0000000000
51
81.6598950000
0
LINE
5
50F
100
AcDbEntity
8
035
100
AcDbLine
62
3
6
CONTINUOUS
10
123.1015710000
20
9.9639930000
11
124.6765340000
21
9.9639930000
0
LINE
5
510
100
AcDbEntity
8
035
100
AcDbLine
62
3
6
CONTINUOUS
10
124.6765340000
20
9.9639930000
11
124.7160170000
21
10.1879140000
0
LINE
5
511
100
AcDbEntity
8
035
100
AcDbLine
62
3
6
CONTINUOUS
10
122.9478530000
20
8.9678320000
11
122.9673930000
21
9.0786490000
0
ARC
5
512
100
AcDbEntity
8
035
100
AcDbCircle
62
3
6
CONTINUOUS
10
122.2442760000
20
6.6982740000
40
3.5617970000
100
AcDbArc
50
80.2083390000
51
99.7818250000
0
ARC
5
513
100
AcDbEntity
8
035
100
AcDbCircle
62
3
6
CONTINUOUS
10
122.0108590000
20
12.2111170000
40
3.5617970000
100
AcDbArc
50
261.5304680000
51
281.1930680000
0
ARC
5
514
100
AcDbEntity
8
035
100
AcDbCircle
62
3
6
CONTINUOUS
10
121.6919080000
20
9.9021980000
40
0.3106060000
100
AcDbArc
50
99.7818250000
51
170.0000000000
0
ARC
5
515
100
AcDbEntity
8
035
100
AcDbCircle
62
3
6
CONTINUOUS
10
122.7971930000
20
9.9021030000
40
0.3106060000
100
AcDbArc
50
11.4934250000
51
80.2083390000
0
ARC
5
516
100
AcDbEntity
8
035
100
AcDbCircle
62
3
6
CONTINUOUS
10
121.5320120000
20
8.9953820000
40
0.3106060000
100
AcDbArc
50
170.0000000000
51
261.5304680000
0
ARC
5
517
100
AcDbEntity
8
035
100
AcDbCircle
62
3
6
CONTINUOUS
10
122.6419660000
20
9.0217680000
40
0.3106060000
100
AcDbArc
50
281.1930680000
51
350.0000000000
0
LINE
5
518
100
AcDbEntity
8
035
100
AcDbLine
62
3
6
CONTINUOUS
10
122.8140420000
20
8.2089520000
11
124.3670730000
21
8.2089520000
0
LINE
5
519
100
AcDbEntity
8
035
100
AcDbLine
62
3
6
CONTINUOUS
10
117.3460400000
20
8.2089520000
11
118.9037030000
21
8.2089520000
0
LINE
5
51A
100
AcDbEntity
8
035
100
AcDbLine
62
3
6
CONTINUOUS
10
81.6372870000
20
10.2530940000
11
84.5871790000
21
10.2530940000
0
LINE
5
51B
100
AcDbEntity
8
035
100
AcDbLine
62
3
6
CONTINUOUS
10
81.4916130000
20
9.5960010000
11
84.2086190000
21
9.5960010000
0
LINE
5
51C
100
AcDbEntity
8
035
100
AcDbLine
62
3
6
CONTINUOUS
10
81.4273260000
20
9.3060230000
11
84.1443320000
21
9.3060230000
0
LINE
5
51D
100
AcDbEntity
8
035
100
AcDbLine
62
3
6
CONTINUOUS
10
81.2816520000
20
8.6489310000
11
84.2315440000
21
8.6489310000
0
LINE
5
51E
100
AcDbEntity
8
035
100
AcDbLine
62
3
6
CONTINUOUS
10
98.2498370000
20
10.2530940000
11
99.6563970000
21
10.2530940000
0
LINE
5
51F
100
AcDbEntity
8
035
100
AcDbLine
62
3
6
CONTINUOUS
10
98.0663020000
20
9.4252180000
11
99.4266270000
21
9.4252180000
0
LINE
5
520
100
AcDbEntity
8
035
100
AcDbLine
62
3
6
CONTINUOUS
10
98.0020150000
20
9.1352400000
11
99.4509000000
21
9.1352400000
0
LINE
5
521
100
AcDbEntity
8
035
100
AcDbLine
62
3
6
CONTINUOUS
10
99.6563970000
20
10.2530940000
11
99.7674140000
21
10.2349300000
0
LINE
5
522
100
AcDbEntity
8
035
100
AcDbLine
62
3
6
CONTINUOUS
10
99.7674140000
20
10.2349300000
11
99.8636110000
21
10.1861990000
0
LINE
5
523
100
AcDbEntity
8
035
100
AcDbLine
62
3
6
CONTINUOUS
10
99.8636110000
20
10.1861990000
11
99.9097870000
21
10.1118220000
0
LINE
5
524
100
AcDbEntity
8
035
100
AcDbLine
62
3
6
CONTINUOUS
10
99.9097870000
20
10.1118220000
11
99.9456990000
21
10.0220570000
0
LINE
5
525
100
AcDbEntity
8
035
100
AcDbLine
62
3
6
CONTINUOUS
10
99.9456990000
20
10.0220570000
11
99.9469830000
21
9.9246000000
0
LINE
5
526
100
AcDbEntity
8
035
100
AcDbLine
62
3
6
CONTINUOUS
10
99.9469830000
20
9.9246000000
11
99.9367220000
21
9.7835390000
0
LINE
5
527
100
AcDbEntity
8
035
100
AcDbLine
62
3
6
CONTINUOUS
10
99.9367220000
20
9.7835390000
11
99.8854140000
21
9.6976240000
0
LINE
5
528
100
AcDbEntity
8
035
100
AcDbLine
62
3
6
CONTINUOUS
10
99.8854140000
20
9.6976240000
11
99.7943500000
21
9.5911860000
0
LINE
5
529
100
AcDbEntity
8
035
100
AcDbLine
62
3
6
CONTINUOUS
10
99.7943500000
20
9.5911860000
11
99.6571060000
21
9.5091160000
0
LINE
5
52A
100
AcDbEntity
8
035
100
AcDbLine
62
3
6
CONTINUOUS
10
99.6571060000
20
9.5091160000
11
99.5262760000
21
9.4424340000
0
LINE
5
52B
100
AcDbEntity
8
035
100
AcDbLine
62
3
6
CONTINUOUS
10
99.5262760000
20
9.4424340000
11
99.4266270000
21
9.4252180000
0
LINE
5
52C
100
AcDbEntity
8
035
100
AcDbLine
62
3
6
CONTINUOUS
10
99.4509000000
20
9.1352400000
11
99.5337810000
21
9.1235790000
0
LINE
5
52D
100
AcDbEntity
8
035
100
AcDbLine
62
3
6
CONTINUOUS
10
99.5337810000
20
9.1235790000
11
99.5869810000
21
9.0899330000
0
LINE
5
52E
100
AcDbEntity
8
035
100
AcDbLine
62
3
6
CONTINUOUS
10
99.5869810000
20
9.0899330000
11
99.6195510000
21
9.0367450000
0
LINE
5
52F
100
AcDbEntity
8
035
100
AcDbLine
62
3
6
CONTINUOUS
10
99.6195510000
20
9.0367450000
11
99.6347510000
21
8.9727040000
0
LINE
5
530
100
AcDbEntity
8
035
100
AcDbLine
62
3
6
CONTINUOUS
10
99.6347510000
20
8.9727040000
11
99.6272290000
21
8.8619210000
0
LINE
5
531
100
AcDbEntity
8
035
100
AcDbLine
62
3
6
CONTINUOUS
10
116.7946020000
20
10.4147050000
11
117.1327350000
21
9.0621710000
0
LINE
5
532
100
AcDbEntity
8
035
100
AcDbLine
62
3
6
CONTINUOUS
10
115.7802020000
20
9.0621710000
11
116.7946020000
21
10.4147050000
0
LINE
5
533
100
AcDbEntity
8
035
100
AcDbLine
62
3
6
CONTINUOUS
10
117.2260320000
20
8.6889840000
11
117.3460400000
21
8.2089520000
0
LINE
5
534
100
AcDbEntity
8
035
100
AcDbLine
62
3
6
CONTINUOUS
10
115.1402870000
20
8.2089520000
11
115.5003110000
21
8.6889840000
0
LINE
5
535
100
AcDbEntity
8
035
100
AcDbLine
62
3
6
CONTINUOUS
10
122.3854540000
20
9.3013760000
11
124.5596970000
21
9.3013760000
0
LINE
5
536
100
AcDbEntity
8
035
100
AcDbLine
62
3
6
CONTINUOUS
10
109.9044830000
20
149.8014520000
11
86.9805370000
21
149.8014520000
0
LINE
5
537
100
AcDbEntity
8
035
100
AcDbLine
62
3
6
CONTINUOUS
10
113.3030960000
20
149.8014520000
11
111.3423580000
21
149.8014520000
0
LINE
5
538
100
AcDbEntity
8
035
100
AcDbLine
62
3
6
CONTINUOUS
10
111.9959380000
20
154.6927690000
11
87.2371310000
21
154.6927690000
0
LINE
5
539
100
AcDbEntity
8
035
100
AcDbLine
62
3
6
CONTINUOUS
10
112.1920120000
20
140.0188190000
11
86.4673500000
21
140.0188190000
0
LINE
5
53A
100
AcDbEntity
8
035
100
AcDbLine
62
3
6
CONTINUOUS
10
111.4730730000
20
135.1275020000
11
86.2107560000
21
135.1275020000
0
LINE
5
53B
100
AcDbEntity
8
035
100
AcDbLine
62
3
6
CONTINUOUS
10
112.9763070000
20
144.9101350000
11
86.7239430000
21
144.9101350000
0
ARC
5
53C
100
AcDbEntity
8
035
100
AcDbCircle
62
3
6
CONTINUOUS
10
138.6102700000
20
146.7442760000
40
0.9058830000
100
AcDbArc
50
131.3659420000
51
263.7470250000
0
ARC
5
53D
100
AcDbEntity
8
035
100
AcDbCircle
62
3
6
CONTINUOUS
10
137.4129350000
20
148.1040140000
40
0.9058830000
100
AcDbArc
50
311.3659420000
51
83.7470250000
0
LINE
5
53E
100
AcDbEntity
8
05
100
AcDbLine
62
4
6
CONTINUOUS
10
5.0000000000
20
16.0000000000
11
72.0000000000
21
16.0000000000
0
LINE
5
53F
100
AcDbEntity
8
05
100
AcDbLine
62
4
6
CONTINUOUS
10
5.0000000000
20
21.0000000000
11
72.0000000000
21
21.0000000000
0
LINE
5
540
100
AcDbEntity
8
05
100
AcDbLine
62
4
6
CONTINUOUS
10
5.0000000000
20
26.0000000000
11
72.0000000000
21
26.0000000000
0
LINE
5
541
100
AcDbEntity
8
05
100
AcDbLine
62
4
6
CONTINUOUS
10
5.0000000000
20
31.0000000000
11
72.0000000000
21
31.0000000000
0
LINE
5
542
100
AcDbEntity
8
05
100
AcDbLine
62
4
6
CONTINUOUS
10
5.0000000000
20
36.0000000000
11
72.0000000000
21
36.0000000000
0
LINE
5
543
100
AcDbEntity
8
05
100
AcDbLine
62
4
6
CONTINUOUS
10
5.0000000000
20
41.0000000000
11
72.0000000000
21
41.0000000000
0
LINE
5
544
100
AcDbEntity
8
05
100
AcDbLine
62
4
6
CONTINUOUS
10
5.0000000000
20
46.0000000000
11
72.0000000000
21
46.0000000000
0
LINE
5
545
100
AcDbEntity
8
05
100
AcDbLine
62
4
6
CONTINUOUS
10
110.9116940000
20
10.6550740000
11
110.9496920000
21
10.6930720000
0
LINE
5
546
100
AcDbEntity
8
05
100
AcDbLine
62
4
6
CONTINUOUS
10
110.5868920000
20
8.2089520000
11
110.5962100000
21
8.2182700000
0
ARC
5
547
100
AcDbEntity
8
035
100
AcDbCircle
62
4
6
CONTINUOUS
39
1755644792
10
101.9046649975
20
169.3667151953
40
2.8532674730
100
AcDbArc
50
330.0001582036
51
35.0000695714
0
CIRCLE
5
548
100
AcDbEntity
8
035
100
AcDbCircle
62
4
6
CONTINUOUS
10
104.2419277850
20
171.0032850225
40
0.4076129692
0
SOLID
5
549
100
AcDbEntity
8
035
100
AcDbTrace
62
4
6
CONTINUOUS
10
104.2831009404
20
171.4088132015
11
104.2218645659
21
171.4104039239
12
104.1610813149
22
171.4027999545
13
104.1610813149
23
171.4027999545
0
SOLID
5
54A
100
AcDbEntity
8
035
100
AcDbTrace
62
4
6
CONTINUOUS
10
104.1610813149
20
171.4027999545
11
104.3434074281
21
171.3980637133
12
104.2831009404
22
171.4088132015
13
104.2831009404
23
171.4088132015
0
SOLID
5
54B
100
AcDbEntity
8
035
100
AcDbTrace
62
4
6
CONTINUOUS
10
104.3434074281
20
171.3980637133
11
104.1610813149
21
171.4027999545
12
104.1021239638
22
171.3861730273
13
104.1021239638
23
171.3861730273
0
SOLID
5
54C
100
AcDbEntity
8
035
100
AcDbTrace
62
4
6
CONTINUOUS
10
104.1021239638
20
171.3861730273
11
104.4014220201
21
171.3783982342
12
104.3434074281
22
171.3980637133
13
104.3434074281
23
171.3980637133
0
SOLID
5
54D
100
AcDbEntity
8
035
100
AcDbTrace
62
4
6
CONTINUOUS
10
104.4014220201
20
171.3783982342
11
104.1021239638
21
171.3861730273
12
104.0463240516
22
171.3608986577
13
104.0463240516
23
171.3608986577
0
SOLID
5
54E
100
AcDbEntity
8
035
100
AcDbTrace
62
4
6
CONTINUOUS
10
104.0463240516
20
171.3608986577
11
104.4558344695
21
171.3502609049
12
104.4014220201
22
171.3783982342
13
104.4014220201
23
171.3783982342
0
SOLID
5
54F
100
AcDbEntity
8
035
100
AcDbTrace
62
4
6
CONTINUOUS
10
104.4558344695
20
171.3502609049
11
104.0463240516
21
171.3608986577
12
103.9949418072
22
171.3275476620
13
103.9949418072
23
171.3275476620
0
SOLID
5
550
100
AcDbEntity
8
035
100
AcDbTrace
62
4
6
CONTINUOUS
10
103.9949418072
20
171.3275476620
11
104.5054158830
21
171.3142872007
12
104.4558344695
22
171.3502609049
13
104.4558344695
23
171.3502609049
0
SOLID
5
551
100
AcDbEntity
8
035
100
AcDbTrace
62
4
6
CONTINUOUS
10
104.5054158830
20
171.3142872007
11
103.9949418072
21
171.3275476620
12
103.9491376874
22
171.2868732651
13
103.9491376874
23
171.2868732651
0
SOLID
5
552
100
AcDbEntity
8
035
100
AcDbTrace
62
4
6
CONTINUOUS
10
103.9491376874
20
171.2868732651
11
104.5490464751
21
171.2712895800
12
104.5054158830
22
171.3142872007
13
104.5054158830
23
171.3142872007
0
SOLID
5
553
100
AcDbEntity
8
035
100
AcDbTrace
62
4
6
CONTINUOUS
10
104.5490464751
20
171.2712895800
11
103.9491376874
21
171.2868732651
12
103.9099461682
22
171.2397940894
13
103.9099461682
23
171.2397940894
0
SOLID
5
554
100
AcDbEntity
8
035
100
AcDbTrace
62
4
6
CONTINUOUS
10
103.9099461682
20
171.2397940894
11
104.5857408584
21
171.2222391346
12
104.5490464751
22
171.2712895800
13
104.5490464751
23
171.2712895800
0
SOLID
5
555
100
AcDbEntity
8
035
100
AcDbTrace
62
4
6
CONTINUOUS
10
104.5857408584
20
171.2222391346
11
103.9099461682
21
171.2397940894
12
103.8782523817
22
171.1873734079
13
103.8782523817
23
171.1873734079
0
SOLID
5
556
100
AcDbEntity
8
035
100
AcDbTrace
62
4
6
CONTINUOUS
10
103.8782523817
20
171.1873734079
11
104.6146702982
21
171.1682436583
12
104.5857408584
22
171.2222391346
13
104.5857408584
23
171.2222391346
0
SOLID
5
557
100
AcDbEntity
8
035
100
AcDbTrace
62
4
6
CONTINUOUS
10
104.6146702982
20
171.1682436583
11
103.8782523817
21
171.1873734079
12
103.8547721250
22
171.1307951302
13
103.8547721250
23
171.1307951302
0
SOLID
5
558
100
AcDbEntity
8
035
100
AcDbTrace
62
4
6
CONTINUOUS
10
103.8547721250
20
171.1307951302
11
104.6351814295
21
171.1105226270
12
104.6146702982
22
171.1682436583
13
104.6146702982
23
171.1682436583
0
SOLID
5
559
100
AcDbEntity
8
035
100
AcDbTrace
62
4
6
CONTINUOUS
10
104.6351814295
20
171.1105226270
11
103.8547721250
21
171.1307951302
12
103.8400356947
22
171.0713370645
13
103.8400356947
23
171.0713370645
0
SOLID
5
55A
100
AcDbEntity
8
035
100
AcDbTrace
62
4
6
CONTINUOUS
10
103.8400356947
20
171.0713370645
11
104.6468110127
21
171.0503796577
12
104.6351814295
22
171.1105226270
13
104.6351814295
23
171.1105226270
0
SOLID
5
55B
100
AcDbEntity
8
035
100
AcDbTrace
62
4
6
CONTINUOUS
10
104.6468110127
20
171.0503796577
11
103.8400356947
21
171.0713370645
12
103.8343759099
22
171.0103420582
13
103.8343759099
23
171.0103420582
0
SOLID
5
55C
100
AcDbEntity
8
035
100
AcDbTrace
62
4
6
CONTINUOUS
10
103.8343759099
20
171.0103420582
11
104.6495407543
21
171.0032850225
12
104.6468110127
22
171.0503796577
13
104.6468110127
23
171.0503796577
0
SOLID
5
55D
100
AcDbEntity
8
035
100
AcDbTrace
62
4
6
CONTINUOUS
10
104.6495407543
20
171.0032850225
11
103.8343759099
21
171.0103420582
12
103.8379205956
22
170.9491876703
13
103.8379205956
23
170.9491876703
0
SOLID
5
55E
100
AcDbEntity
8
035
100
AcDbTrace
62
4
6
CONTINUOUS
10
103.8379205956
20
170.9491876703
11
104.6449378291
21
170.9422011700
12
104.6495407543
22
171.0032850225
13
104.6495407543
23
171.0032850225
0
SOLID
5
55F
100
AcDbEntity
8
035
100
AcDbTrace
62
4
6
CONTINUOUS
10
104.6449378291
20
170.9422011700
11
103.8379205956
21
170.9491876703
12
103.8505896957
22
170.8892550594
13
103.8505896957
23
170.8892550594
0
SOLID
5
560
100
AcDbEntity
8
035
100
AcDbTrace
62
4
6
CONTINUOUS
10
103.8505896957
20
170.8892550594
11
104.6312330098
21
170.8824968830
12
104.6449378291
22
170.9422011700
13
104.6449378291
23
170.9422011700
0
SOLID
5
561
100
AcDbEntity
8
035
100
AcDbTrace
62
4
6
CONTINUOUS
10
104.6312330098
20
170.8824968830
11
103.8505896957
21
170.8892550594
12
103.8720970814
22
170.8318977903
13
103.8720970814
23
170.8318977903
0
SOLID
5
562
100
AcDbEntity
8
035
100
AcDbTrace
62
4
6
CONTINUOUS
10
103.8720970814
20
170.8318977903
11
104.6087358167
21
170.8255205699
12
104.6312330098
22
170.8824968830
13
104.6312330098
23
170.8824968830
0
SOLID
5
563
100
AcDbEntity
8
035
100
AcDbTrace
62
4
6
CONTINUOUS
10
104.6087358167
20
170.8255205699
11
103.8720970814
21
170.8318977903
12
103.9019570132
22
170.7784112646
13
103.9019570132
23
170.7784112646
0
SOLID
5
564
100
AcDbEntity
8
035
100
AcDbTrace
62
4
6
CONTINUOUS
10
103.9019570132
20
170.7784112646
11
104.5779543439
21
170.7725590283
12
104.6087358167
22
170.8255205699
13
104.6087358167
23
170.8255205699
0
SOLID
5
565
100
AcDbEntity
8
035
100
AcDbTrace
62
4
6
CONTINUOUS
10
104.5779543439
20
170.7725590283
11
103.9019570132
21
170.7784112646
12
103.9394951109
22
170.7300034638
13
103.9394951109
23
170.7300034638
0
SOLID
5
566
100
AcDbEntity
8
035
100
AcDbTrace
62
4
6
CONTINUOUS
10
103.9394951109
20
170.7300034638
11
104.5395837844
21
170.7248083830
12
104.5779543439
22
170.7725590283
13
104.5779543439
23
170.7725590283
0
SOLID
5
567
100
AcDbEntity
8
035
100
AcDbTrace
62
4
6
CONTINUOUS
10
104.5395837844
20
170.7248083830
11
103.9394951109
21
170.7300034638
12
103.9838635848
22
170.6877676676
13
103.9838635848
23
170.6877676676
0
SOLID
5
568
100
AcDbEntity
8
035
100
AcDbTrace
62
4
6
CONTINUOUS
10
103.9838635848
20
170.6877676676
11
104.4944907289
21
170.6833470721
12
104.5395837844
22
170.7248083830
13
104.5395837844
23
170.7248083830
0
SOLID
5
569
100
AcDbEntity
8
035
100
AcDbTrace
62
4
6
CONTINUOUS
10
104.4944907289
20
170.6833470721
11
103.9838635848
21
170.6877676676
12
104.0340603825
22
170.6526577622
13
104.0340603825
23
170.6526577622
0
SOLID
5
56A
100
AcDbEntity
8
035
100
AcDbTrace
62
4
6
CONTINUOUS
10
104.0340603825
20
170.6526577622
11
104.4436935942
21
170.6491114903
12
104.4944907289
22
170.6833470721
13
104.4944907289
23
170.6833470721
0
SOLID
5
56B
100
AcDbEntity
8
035
100
AcDbTrace
62
4
6
CONTINUOUS
10
104.4436935942
20
170.6491114903
11
104.0340603825
21
170.6526577622
12
104.0889518203
22
170.6254666972
13
104.0889518203
23
170.6254666972
0
SOLID
5
56C
100
AcDbEntity
8
035
100
AcDbTrace
62
4
6
CONTINUOUS
10
104.0889518203
20
170.6254666972
11
104.3883396227
21
170.6228748406
12
104.4436935942
22
170.6491114903
13
104.4436935942
23
170.6491114903
0
SOLID
5
56D
100
AcDbEntity
8
035
100
AcDbTrace
62
4
6
CONTINUOUS
10
104.3883396227
20
170.6228748406
11
104.0889518203
21
170.6254666972
12
104.1472981869
22
170.6068085770
13
104.1472981869
23
170.6068085770
0
SOLID
5
56E
100
AcDbEntity
8
035
100
AcDbTrace
62
4
6
CONTINUOUS
10
104.1472981869
20
170.6068085770
11
104.3296789716
21
170.6052296721
12
104.3883396227
22
170.6228748406
13
104.3883396227
23
170.6228748406
0
SOLID
5
56F
100
AcDbEntity
8
035
100
AcDbTrace
62
4
6
CONTINUOUS
10
104.3296789716
20
170.6052296721
11
104.1472981869
21
170.6068085770
12
104.2077817425
22
170.5971047910
13
104.2077817425
23
170.5971047910
0
SOLID
5
570
100
AcDbEntity
8
035
100
AcDbTrace
62
4
6
CONTINUOUS
10
104.2077817425
20
170.5971047910
11
104.2690364790
21
170.5965744972
12
104.3296789716
22
170.6052296721
13
104.3296789716
23
170.6052296721
0
LINE
5
571
100
AcDbEntity
8
035
100
AcDbLine
62
4
6
CONTINUOUS
39
1755644792
10
104.3756710521
20
167.9400882817
11
103.1401636347
21
168.6533987495
0
CIRCLE
5
572
100
AcDbEntity
8
035
100
AcDbCircle
62
4
6
CONTINUOUS
10
103.1401685261
20
168.6533987495
40
0.4076129692
0
SOLID
5
573
100
AcDbEntity
8
035
100
AcDbTrace
62
4
6
CONTINUOUS
10
103.1813416814
20
169.0589269285
11
103.1201053069
21
169.0605176510
12
103.0593220559
22
169.0529136816
13
103.0593220559
23
169.0529136816
0
SOLID
5
574
100
AcDbEntity
8
035
100
AcDbTrace
62
4
6
CONTINUOUS
10
103.0593220559
20
169.0529136816
11
103.2416481691
21
169.0481774404
12
103.1813416814
22
169.0589269285
13
103.1813416814
23
169.0589269285
0
SOLID
5
575
100
AcDbEntity
8
035
100
AcDbTrace
62
4
6
CONTINUOUS
10
103.2416481691
20
169.0481774404
11
103.0593220559
21
169.0529136816
12
103.0003647048
22
169.0362867543
13
103.0003647048
23
169.0362867543
0
SOLID
5
576
100
AcDbEntity
8
035
100
AcDbTrace
62
4
6
CONTINUOUS
10
103.0003647048
20
169.0362867543
11
103.2996627611
21
169.0285119613
12
103.2416481691
22
169.0481774404
13
103.2416481691
23
169.0481774404
0
SOLID
5
577
100
AcDbEntity
8
035
100
AcDbTrace
62
4
6
CONTINUOUS
10
103.2996627611
20
169.0285119613
11
103.0003647048
21
169.0362867543
12
102.9445647926
22
169.0110123848
13
102.9445647926
23
169.0110123848
0
SOLID
5
578
100
AcDbEntity
8
035
100
AcDbTrace
62
4
6
CONTINUOUS
10
102.9445647926
20
169.0110123848
11
103.3540752106
21
169.0003746320
12
103.2996627611
22
169.0285119613
13
103.2996627611
23
169.0285119613
0
SOLID
5
579
100
AcDbEntity
8
035
100
AcDbTrace
62
4
6
CONTINUOUS
10
103.3540752106
20
169.0003746320
11
102.9445647926
21
169.0110123848
12
102.8931825482
22
168.9776613891
13
102.8931825482
23
168.9776613891
0
SOLID
5
57A
100
AcDbEntity
8
035
100
AcDbTrace
62
4
6
CONTINUOUS
10
102.8931825482
20
168.9776613891
11
103.4036566240
21
168.9644009278
12
103.3540752106
22
169.0003746320
13
103.3540752106
23
169.0003746320
0
SOLID
5
57B
100
AcDbEntity
8
035
100
AcDbTrace
62
4
6
CONTINUOUS
10
103.4036566240
20
168.9644009278
11
102.8931825482
21
168.9776613891
12
102.8473784284
22
168.9369869922
13
102.8473784284
23
168.9369869922
0
SOLID
5
57C
100
AcDbEntity
8
035
100
AcDbTrace
62
4
6
CONTINUOUS
10
102.8473784284
20
168.9369869922
11
103.4472872162
21
168.9214033071
12
103.4036566240
22
168.9644009278
13
103.4036566240
23
168.9644009278
0
SOLID
5
57D
100
AcDbEntity
8
035
100
AcDbTrace
62
4
6
CONTINUOUS
10
103.4472872162
20
168.9214033071
11
102.8473784284
21
168.9369869922
12
102.8081869092
22
168.8899078165
13
102.8081869092
23
168.8899078165
0
SOLID
5
57E
100
AcDbEntity
8
035
100
AcDbTrace
62
4
6
CONTINUOUS
10
102.8081869092
20
168.8899078165
11
103.4839815994
21
168.8723528617
12
103.4472872162
22
168.9214033071
13
103.4472872162
23
168.9214033071
0
SOLID
5
57F
100
AcDbEntity
8
035
100
AcDbTrace
62
4
6
CONTINUOUS
10
103.4839815994
20
168.8723528617
11
102.8081869092
21
168.8899078165
12
102.7764931227
22
168.8374871350
13
102.7764931227
23
168.8374871350
0
SOLID
5
580
100
AcDbEntity
8
035
100
AcDbTrace
62
4
6
CONTINUOUS
10
102.7764931227
20
168.8374871350
11
103.5129110393
21
168.8183573853
12
103.4839815994
22
168.8723528617
13
103.4839815994
23
168.8723528617
0
SOLID
5
581
100
AcDbEntity
8
035
100
AcDbTrace
62
4
6
CONTINUOUS
10
103.5129110393
20
168.8183573853
11
102.7764931227
21
168.8374871350
12
102.7530128660
22
168.7809088573
13
102.7530128660
23
168.7809088573
0
SOLID
5
582
100
AcDbEntity
8
035
100
AcDbTrace
62
4
6
CONTINUOUS
10
102.7530128660
20
168.7809088573
11
103.5334221705
21
168.7606363541
12
103.5129110393
22
168.8183573853
13
103.5129110393
23
168.8183573853
0
SOLID
5
583
100
AcDbEntity
8
035
100
AcDbTrace
62
4
6
CONTINUOUS
10
103.5334221705
20
168.7606363541
11
102.7530128660
21
168.7809088573
12
102.7382764358
22
168.7214507916
13
102.7382764358
23
168.7214507916
0
SOLID
5
584
100
AcDbEntity
8
035
100
AcDbTrace
62
4
6
CONTINUOUS
10
102.7382764358
20
168.7214507916
11
103.5450517537
21
168.7004933848
12
103.5334221705
22
168.7606363541
13
103.5334221705
23
168.7606363541
0
SOLID
5
585
100
AcDbEntity
8
035
100
AcDbTrace
62
4
6
CONTINUOUS
10
103.5450517537
20
168.7004933848
11
102.7382764358
21
168.7214507916
12
102.7326166509
22
168.6604557853
13
102.7326166509
23
168.6604557853
0
SOLID
5
586
100
AcDbEntity
8
035
100
AcDbTrace
62
4
6
CONTINUOUS
10
102.7326166509
20
168.6604557853
11
103.5477814953
21
168.6533987495
12
103.5450517537
22
168.7004933848
13
103.5450517537
23
168.7004933848
0
SOLID
5
587
100
AcDbEntity
8
035
100
AcDbTrace
62
4
6
CONTINUOUS
10
103.5477814953
20
168.6533987495
11
102.7326166509
21
168.6604557853
12
102.7361613366
22
168.5993013974
13
102.7361613366
23
168.5993013974
0
SOLID
5
588
100
AcDbEntity
8
035
100
AcDbTrace
62
4
6
CONTINUOUS
10
102.7361613366
20
168.5993013974
11
103.5431785701
21
168.5923148970
12
103.5477814953
22
168.6533987495
13
103.5477814953
23
168.6533987495
0
SOLID
5
589
100
AcDbEntity
8
035
100
AcDbTrace
62
4
6
CONTINUOUS
10
103.5431785701
20
168.5923148970
11
102.7361613366
21
168.5993013974
12
102.7488304367
22
168.5393687864
13
102.7488304367
23
168.5393687864
0
SOLID
5
58A
100
AcDbEntity
8
035
100
AcDbTrace
62
4
6
CONTINUOUS
10
102.7488304367
20
168.5393687864
11
103.5294737508
21
168.5326106101
12
103.5431785701
22
168.5923148970
13
103.5431785701
23
168.5923148970
0
SOLID
5
58B
100
AcDbEntity
8
035
100
AcDbTrace
62
4
6
CONTINUOUS
10
103.5294737508
20
168.5326106101
11
102.7488304367
21
168.5393687864
12
102.7703378225
22
168.4820115174
13
102.7703378225
23
168.4820115174
0
SOLID
5
58C
100
AcDbEntity
8
035
100
AcDbTrace
62
4
6
CONTINUOUS
10
102.7703378225
20
168.4820115174
11
103.5069765577
21
168.4756342969
12
103.5294737508
22
168.5326106101
13
103.5294737508
23
168.5326106101
0
SOLID
5
58D
100
AcDbEntity
8
035
100
AcDbTrace
62
4
6
CONTINUOUS
10
103.5069765577
20
168.4756342969
11
102.7703378225
21
168.4820115174
12
102.8001977542
22
168.4285249917
13
102.8001977542
23
168.4285249917
0
SOLID
5
58E
100
AcDbEntity
8
035
100
AcDbTrace
62
4
6
CONTINUOUS
10
102.8001977542
20
168.4285249917
11
103.4761950849
21
168.4226727553
12
103.5069765577
22
168.4756342969
13
103.5069765577
23
168.4756342969
0
SOLID
5
58F
100
AcDbEntity
8
035
100
AcDbTrace
62
4
6
CONTINUOUS
10
103.4761950849
20
168.4226727553
11
102.8001977542
21
168.4285249917
12
102.8377358519
22
168.3801171909
13
102.8377358519
23
168.3801171909
0
SOLID
5
590
100
AcDbEntity
8
035
100
AcDbTrace
62
4
6
CONTINUOUS
10
102.8377358519
20
168.3801171909
11
103.4378245254
21
168.3749221101
12
103.4761950849
22
168.4226727553
13
103.4761950849
23
168.4226727553
0
SOLID
5
591
100
AcDbEntity
8
035
100
AcDbTrace
62
4
6
CONTINUOUS
10
103.4378245254
20
168.3749221101
11
102.8377358519
21
168.3801171909
12
102.8821043258
22
168.3378813947
13
102.8821043258
23
168.3378813947
0
SOLID
5
592
100
AcDbEntity
8
035
100
AcDbTrace
62
4
6
CONTINUOUS
10
102.8821043258
20
168.3378813947
11
103.3927314699
21
168.3334607992
12
103.4378245254
22
168.3749221101
13
103.4378245254
23
168.3749221101
0
SOLID
5
593
100
AcDbEntity
8
035
100
AcDbTrace
62
4
6
CONTINUOUS
10
103.3927314699
20
168.3334607992
11
102.8821043258
21
168.3378813947
12
102.9323011235
22
168.3027714893
13
102.9323011235
23
168.3027714893
0
SOLID
5
594
100
AcDbEntity
8
035
100
AcDbTrace
62
4
6
CONTINUOUS
10
102.9323011235
20
168.3027714893
11
103.3419343352
21
168.2992252173
12
103.3927314699
22
168.3334607992
13
103.3927314699
23
168.3334607992
0
SOLID
5
595
100
AcDbEntity
8
035
100
AcDbTrace
62
4
6
CONTINUOUS
10
103.3419343352
20
168.2992252173
11
102.9323011235
21
168.3027714893
12
102.9871925613
22
168.2755804243
13
102.9871925613
23
168.2755804243
0
SOLID
5
596
100
AcDbEntity
8
035
100
AcDbTrace
62
4
6
CONTINUOUS
10
102.9871925613
20
168.2755804243
11
103.2865803637
21
168.2729885677
12
103.3419343352
22
168.2992252173
13
103.3419343352
23
168.2992252173
0
SOLID
5
597
100
AcDbEntity
8
035
100
AcDbTrace
62
4
6
CONTINUOUS
10
103.2865803637
20
168.2729885677
11
102.9871925613
21
168.2755804243
12
103.0455389280
22
168.2569223040
13
103.0455389280
23
168.2569223040
0
SOLID
5
598
100
AcDbEntity
8
035
100
AcDbTrace
62
4
6
CONTINUOUS
10
103.0455389280
20
168.2569223040
11
103.2279197126
21
168.2553433992
12
103.2865803637
22
168.2729885677
13
103.2865803637
23
168.2729885677
0
SOLID
5
599
100
AcDbEntity
8
035
100
AcDbTrace
62
4
6
CONTINUOUS
10
103.2279197126
20
168.2553433992
11
103.0455389280
21
168.2569223040
12
103.1060224835
22
168.2472185181
13
103.1060224835
23
168.2472185181
0
SOLID
5
59A
100
AcDbEntity
8
035
100
AcDbTrace
62
4
6
CONTINUOUS
10
103.1060224835
20
168.2472185181
11
103.1672772200
21
168.2466882243
12
103.2279197126
22
168.2553433992
13
103.2279197126
23
168.2553433992
0
CIRCLE
5
59B
100
AcDbEntity
8
035
100
AcDbCircle
62
4
6
CONTINUOUS
10
104.3756661608
20
167.9400882817
40
0.4076129692
0
SOLID
5
59C
100
AcDbEntity
8
035
100
AcDbTrace
62
4
6
CONTINUOUS
10
104.4168393161
20
168.3456164607
11
104.3556029416
21
168.3472071831
12
104.2948196906
22
168.3396032138
13
104.2948196906
23
168.3396032138
0
SOLID
5
59D
100
AcDbEntity
8
035
100
AcDbTrace
62
4
6
CONTINUOUS
10
104.2948196906
20
168.3396032138
11
104.4771458038
21
168.3348669725
12
104.4168393161
22
168.3456164607
13
104.4168393161
23
168.3456164607
0
SOLID
5
59E
100
AcDbEntity
8
035
100
AcDbTrace
62
4
6
CONTINUOUS
10
104.4771458038
20
168.3348669725
11
104.2948196906
21
168.3396032138
12
104.2358623395
22
168.3229762865
13
104.2358623395
23
168.3229762865
0
SOLID
5
59F
100
AcDbEntity
8
035
100
AcDbTrace
62
4
6
CONTINUOUS
10
104.2358623395
20
168.3229762865
11
104.5351603959
21
168.3152014935
12
104.4771458038
22
168.3348669725
13
104.4771458038
23
168.3348669725
0
SOLID
5
5A0
100
AcDbEntity
8
035
100
AcDbTrace
62
4
6
CONTINUOUS
10
104.5351603959
20
168.3152014935
11
104.2358623395
21
168.3229762865
12
104.1800624273
22
168.2977019170
13
104.1800624273
23
168.2977019170
0
SOLID
5
5A1
100
AcDbEntity
8
035
100
AcDbTrace
62
4
6
CONTINUOUS
10
104.1800624273
20
168.2977019170
11
104.5895728453
21
168.2870641642
12
104.5351603959
22
168.3152014935
13
104.5351603959
23
168.3152014935
0
SOLID
5
5A2
100
AcDbEntity
8
035
100
AcDbTrace
62
4
6
CONTINUOUS
10
104.5895728453
20
168.2870641642
11
104.1800624273
21
168.2977019170
12
104.1286801829
22
168.2643509213
13
104.1286801829
23
168.2643509213
0
SOLID
5
5A3
100
AcDbEntity
8
035
100
AcDbTrace
62
4
6
CONTINUOUS
10
104.1286801829
20
168.2643509213
11
104.6391542588
21
168.2510904600
12
104.5895728453
22
168.2870641642
13
104.5895728453
23
168.2870641642
0
SOLID
5
5A4
100
AcDbEntity
8
035
100
AcDbTrace
62
4
6
CONTINUOUS
10
104.6391542588
20
168.2510904600
11
104.1286801829
21
168.2643509213
12
104.0828760631
22
168.2236765244
13
104.0828760631
23
168.2236765244
0
SOLID
5
5A5
100
AcDbEntity
8
035
100
AcDbTrace
62
4
6
CONTINUOUS
10
104.0828760631
20
168.2236765244
11
104.6827848509
21
168.2080928392
12
104.6391542588
22
168.2510904600
13
104.6391542588
23
168.2510904600
0
SOLID
5
5A6
100
AcDbEntity
8
035
100
AcDbTrace
62
4
6
CONTINUOUS
10
104.6827848509
20
168.2080928392
11
104.0828760631
21
168.2236765244
12
104.0436845440
22
168.1765973487
13
104.0436845440
23
168.1765973487
0
SOLID
5
5A7
100
AcDbEntity
8
035
100
AcDbTrace
62
4
6
CONTINUOUS
10
104.0436845440
20
168.1765973487
11
104.7194792342
21
168.1590423939
12
104.6827848509
22
168.2080928392
13
104.6827848509
23
168.2080928392
0
SOLID
5
5A8
100
AcDbEntity
8
035
100
AcDbTrace
62
4
6
CONTINUOUS
10
104.7194792342
20
168.1590423939
11
104.0436845440
21
168.1765973487
12
104.0119907574
22
168.1241766671
13
104.0119907574
23
168.1241766671
0
SOLID
5
5A9
100
AcDbEntity
8
035
100
AcDbTrace
62
4
6
CONTINUOUS
10
104.0119907574
20
168.1241766671
11
104.7484086740
21
168.1050469175
12
104.7194792342
22
168.1590423939
13
104.7194792342
23
168.1590423939
0
SOLID
5
5AA
100
AcDbEntity
8
035
100
AcDbTrace
62
4
6
CONTINUOUS
10
104.7484086740
20
168.1050469175
11
104.0119907574
21
168.1241766671
12
103.9885105008
22
168.0675983895
13
103.9885105008
23
168.0675983895
0
SOLID
5
5AB
100
AcDbEntity
8
035
100
AcDbTrace
62
4
6
CONTINUOUS
10
103.9885105008
20
168.0675983895
11
104.7689198052
21
168.0473258862
12
104.7484086740
22
168.1050469175
13
104.7484086740
23
168.1050469175
0
SOLID
5
5AC
100
AcDbEntity
8
035
100
AcDbTrace
62
4
6
CONTINUOUS
10
104.7689198052
20
168.0473258862
11
103.9885105008
21
168.0675983895
12
103.9737740705
22
168.0081403238
13
103.9737740705
23
168.0081403238
0
SOLID
5
5AD
100
AcDbEntity
8
035
100
AcDbTrace
62
4
6
CONTINUOUS
10
103.9737740705
20
168.0081403238
11
104.7805493884
21
167.9871829170
12
104.7689198052
22
168.0473258862
13
104.7689198052
23
168.0473258862
0
SOLID
5
5AE
100
AcDbEntity
8
035
100
AcDbTrace
62
4
6
CONTINUOUS
10
104.7805493884
20
167.9871829170
11
103.9737740705
21
168.0081403238
12
103.9681142857
22
167.9471453175
13
103.9681142857
23
167.9471453175
0
SOLID
5
5AF
100
AcDbEntity
8
035
100
AcDbTrace
62
4
6
CONTINUOUS
10
103.9681142857
20
167.9471453175
11
104.7832791300
21
167.9400882817
12
104.7805493884
22
167.9871829170
13
104.7805493884
23
167.9871829170
0
SOLID
5
5B0
100
AcDbEntity
8
035
100
AcDbTrace
62
4
6
CONTINUOUS
10
104.7832791300
20
167.9400882817
11
103.9681142857
21
167.9471453175
12
103.9716589713
22
167.8859909296
13
103.9716589713
23
167.8859909296
0
SOLID
5
5B1
100
AcDbEntity
8
035
100
AcDbTrace
62
4
6
CONTINUOUS
10
103.9716589713
20
167.8859909296
11
104.7786762049
21
167.8790044292
12
104.7832791300
22
167.9400882817
13
104.7832791300
23
167.9400882817
0
SOLID
5
5B2
100
AcDbEntity
8
035
100
AcDbTrace
62
4
6
CONTINUOUS
10
104.7786762049
20
167.8790044292
11
103.9716589713
21
167.8859909296
12
103.9843280714
22
167.8260583186
13
103.9843280714
23
167.8260583186
0
SOLID
5
5B3
100
AcDbEntity
8
035
100
AcDbTrace
62
4
6
CONTINUOUS
10
103.9843280714
20
167.8260583186
11
104.7649713856
21
167.8193001422
12
104.7786762049
22
167.8790044292
13
104.7786762049
23
167.8790044292
0
SOLID
5
5B4
100
AcDbEntity
8
035
100
AcDbTrace
62
4
6
CONTINUOUS
10
104.7649713856
20
167.8193001422
11
103.9843280714
21
167.8260583186
12
104.0058354572
22
167.7687010496
13
104.0058354572
23
167.7687010496
0
SOLID
5
5B5
100
AcDbEntity
8
035
100
AcDbTrace
62
4
6
CONTINUOUS
10
104.0058354572
20
167.7687010496
11
104.7424741924
21
167.7623238291
12
104.7649713856
22
167.8193001422
13
104.7649713856
23
167.8193001422
0
SOLID
5
5B6
100
AcDbEntity
8
035
100
AcDbTrace
62
4
6
CONTINUOUS
10
104.7424741924
20
167.7623238291
11
104.0058354572
21
167.7687010496
12
104.0356953890
22
167.7152145239
13
104.0356953890
23
167.7152145239
0
SOLID
5
5B7
100
AcDbEntity
8
035
100
AcDbTrace
62
4
6
CONTINUOUS
10
104.0356953890
20
167.7152145239
11
104.7116927197
21
167.7093622875
12
104.7424741924
22
167.7623238291
13
104.7424741924
23
167.7623238291
0
SOLID
5
5B8
100
AcDbEntity
8
035
100
AcDbTrace
62
4
6
CONTINUOUS
10
104.7116927197
20
167.7093622875
11
104.0356953890
21
167.7152145239
12
104.0732334867
22
167.6668067231
13
104.0732334867
23
167.6668067231
0
SOLID
5
5B9
100
AcDbEntity
8
035
100
AcDbTrace
62
4
6
CONTINUOUS
10
104.0732334867
20
167.6668067231
11
104.6733221601
21
167.6616116423
12
104.7116927197
22
167.7093622875
13
104.7116927197
23
167.7093622875
0
SOLID
5
5BA
100
AcDbEntity
8
035
100
AcDbTrace
62
4
6
CONTINUOUS
10
104.6733221601
20
167.6616116423
11
104.0732334867
21
167.6668067231
12
104.1176019605
22
167.6245709269
13
104.1176019605
23
167.6245709269
0
SOLID
5
5BB
100
AcDbEntity
8
035
100
AcDbTrace
62
4
6
CONTINUOUS
10
104.1176019605
20
167.6245709269
11
104.6282291046
21
167.6201503314
12
104.6733221601
22
167.6616116423
13
104.6733221601
23
167.6616116423
0
SOLID
5
5BC
100
AcDbEntity
8
035
100
AcDbTrace
62
4
6
CONTINUOUS
10
104.6282291046
20
167.6201503314
11
104.1176019605
21
167.6245709269
12
104.1677987582
22
167.5894610215
13
104.1677987582
23
167.5894610215
0
SOLID
5
5BD
100
AcDbEntity
8
035
100
AcDbTrace
62
4
6
CONTINUOUS
10
104.1677987582
20
167.5894610215
11
104.5774319700
21
167.5859147495
12
104.6282291046
22
167.6201503314
13
104.6282291046
23
167.6201503314
0
SOLID
5
5BE
100
AcDbEntity
8
035
100
AcDbTrace
62
4
6
CONTINUOUS
10
104.5774319700
20
167.5859147495
11
104.1677987582
21
167.5894610215
12
104.2226901960
22
167.5622699565
13
104.2226901960
23
167.5622699565
0
SOLID
5
5BF
100
AcDbEntity
8
035
100
AcDbTrace
62
4
6
CONTINUOUS
10
104.2226901960
20
167.5622699565
11
104.5220779984
21
167.5596780998
12
104.5774319700
22
167.5859147495
13
104.5774319700
23
167.5859147495
0
SOLID
5
5C0
100
AcDbEntity
8
035
100
AcDbTrace
62
4
6
CONTINUOUS
10
104.5220779984
20
167.5596780998
11
104.2226901960
21
167.5622699565
12
104.2810365627
22
167.5436118362
13
104.2810365627
23
167.5436118362
0
SOLID
5
5C1
100
AcDbEntity
8
035
100
AcDbTrace
62
4
6
CONTINUOUS
10
104.2810365627
20
167.5436118362
11
104.4634173473
21
167.5420329314
12
104.5220779984
22
167.5596780998
13
104.5220779984
23
167.5596780998
0
SOLID
5
5C2
100
AcDbEntity
8
035
100
AcDbTrace
62
4
6
CONTINUOUS
10
104.4634173473
20
167.5420329314
11
104.2810365627
21
167.5436118362
12
104.3415201182
22
167.5339080502
13
104.3415201182
23
167.5339080502
0
SOLID
5
5C3
100
AcDbEntity
8
035
100
AcDbTrace
62
4
6
CONTINUOUS
10
104.3415201182
20
167.5339080502
11
104.4027748548
21
167.5333777564
12
104.4634173473
22
167.5420329314
13
104.4634173473
23
167.5420329314
0
CIRCLE
5
5C4
100
AcDbEntity
8
035
100
AcDbCircle
62
4
6
CONTINUOUS
10
99.4336658392
20
170.7933497183
40
0.4076129692
0
SOLID
5
5C5
100
AcDbEntity
8
035
100
AcDbTrace
62
4
6
CONTINUOUS
10
99.4748389945
20
171.1988778973
11
99.4136026201
21
171.2004686197
12
99.3528193690
22
171.1928646503
13
99.3528193690
23
171.1928646503
0
SOLID
5
5C6
100
AcDbEntity
8
035
100
AcDbTrace
62
4
6
CONTINUOUS
10
99.3528193690
20
171.1928646503
11
99.5351454822
21
171.1881284091
12
99.4748389945
22
171.1988778973
13
99.4748389945
23
171.1988778973
0
SOLID
5
5C7
100
AcDbEntity
8
035
100
AcDbTrace
62
4
6
CONTINUOUS
10
99.5351454822
20
171.1881284091
11
99.3528193690
21
171.1928646503
12
99.2938620179
22
171.1762377231
13
99.2938620179
23
171.1762377231
0
SOLID
5
5C8
100
AcDbEntity
8
035
100
AcDbTrace
62
4
6
CONTINUOUS
10
99.2938620179
20
171.1762377231
11
99.5931600743
21
171.1684629301
12
99.5351454822
22
171.1881284091
13
99.5351454822
23
171.1881284091
0
SOLID
5
5C9
100
AcDbEntity
8
035
100
AcDbTrace
62
4
6
CONTINUOUS
10
99.5931600743
20
171.1684629301
11
99.2938620179
21
171.1762377231
12
99.2380621058
22
171.1509633536
13
99.2380621058
23
171.1509633536
0
SOLID
5
5CA
100
AcDbEntity
8
035
100
AcDbTrace
62
4
6
CONTINUOUS
10
99.2380621058
20
171.1509633536
11
99.6475725237
21
171.1403256007
12
99.5931600743
22
171.1684629301
13
99.5931600743
23
171.1684629301
0
SOLID
5
5CB
100
AcDbEntity
8
035
100
AcDbTrace
62
4
6
CONTINUOUS
10
99.6475725237
20
171.1403256007
11
99.2380621058
21
171.1509633536
12
99.1866798613
22
171.1176123578
13
99.1866798613
23
171.1176123578
0
SOLID
5
5CC
100
AcDbEntity
8
035
100
AcDbTrace
62
4
6
CONTINUOUS
10
99.1866798613
20
171.1176123578
11
99.6971539372
21
171.1043518966
12
99.6475725237
22
171.1403256007
13
99.6475725237
23
171.1403256007
0
SOLID
5
5CD
100
AcDbEntity
8
035
100
AcDbTrace
62
4
6
CONTINUOUS
10
99.6971539372
20
171.1043518966
11
99.1866798613
21
171.1176123578
12
99.1408757415
22
171.0769379609
13
99.1408757415
23
171.0769379609
0
SOLID
5
5CE
100
AcDbEntity
8
035
100
AcDbTrace
62
4
6
CONTINUOUS
10
99.1408757415
20
171.0769379609
11
99.7407845293
21
171.0613542758
12
99.6971539372
22
171.1043518966
13
99.6971539372
23
171.1043518966
0
SOLID
5
5CF
100
AcDbEntity
8
035
100
AcDbTrace
62
4
6
CONTINUOUS
10
99.7407845293
20
171.0613542758
11
99.1408757415
21
171.0769379609
12
99.1016842224
22
171.0298587852
13
99.1016842224
23
171.0298587852
0
SOLID
5
5D0
100
AcDbEntity
8
035
100
AcDbTrace
62
4
6
CONTINUOUS
10
99.1016842224
20
171.0298587852
11
99.7774789126
21
171.0123038305
12
99.7407845293
22
171.0613542758
13
99.7407845293
23
171.0613542758
0
SOLID
5
5D1
100
AcDbEntity
8
035
100
AcDbTrace
62
4
6
CONTINUOUS
10
99.7774789126
20
171.0123038305
11
99.1016842224
21
171.0298587852
12
99.0699904358
22
170.9774381037
13
99.0699904358
23
170.9774381037
0
SOLID
5
5D2
100
AcDbEntity
8
035
100
AcDbTrace
62
4
6
CONTINUOUS
10
99.0699904358
20
170.9774381037
11
99.8064083524
21
170.9583083541
12
99.7774789126
22
171.0123038305
13
99.7774789126
23
171.0123038305
0
SOLID
5
5D3
100
AcDbEntity
8
035
100
AcDbTrace
62
4
6
CONTINUOUS
10
99.8064083524
20
170.9583083541
11
99.0699904358
21
170.9774381037
12
99.0465101792
22
170.9208598261
13
99.0465101792
23
170.9208598261
0
SOLID
5
5D4
100
AcDbEntity
8
035
100
AcDbTrace
62
4
6
CONTINUOUS
10
99.0465101792
20
170.9208598261
11
99.8269194836
21
170.9005873228
12
99.8064083524
22
170.9583083541
13
99.8064083524
23
170.9583083541
0
SOLID
5
5D5
100
AcDbEntity
8
035
100
AcDbTrace
62
4
6
CONTINUOUS
10
99.8269194836
20
170.9005873228
11
99.0465101792
21
170.9208598261
12
99.0317737489
22
170.8614017603
13
99.0317737489
23
170.8614017603
0
SOLID
5
5D6
100
AcDbEntity
8
035
100
AcDbTrace
62
4
6
CONTINUOUS
10
99.0317737489
20
170.8614017603
11
99.8385490668
21
170.8404443535
12
99.8269194836
22
170.9005873228
13
99.8269194836
23
170.9005873228
0
SOLID
5
5D7
100
AcDbEntity
8
035
100
AcDbTrace
62
4
6
CONTINUOUS
10
99.8385490668
20
170.8404443535
11
99.0317737489
21
170.8614017603
12
99.0261139641
22
170.8004067541
13
99.0261139641
23
170.8004067541
0
SOLID
5
5D8
100
AcDbEntity
8
035
100
AcDbTrace
62
4
6
CONTINUOUS
10
99.0261139641
20
170.8004067541
11
99.8412788084
21
170.7933497183
12
99.8385490668
22
170.8404443535
13
99.8385490668
23
170.8404443535
0
SOLID
5
5D9
100
AcDbEntity
8
035
100
AcDbTrace
62
4
6
CONTINUOUS
10
99.8412788084
20
170.7933497183
11
99.0261139641
21
170.8004067541
12
99.0296586497
22
170.7392523662
13
99.0296586497
23
170.7392523662
0
SOLID
5
5DA
100
AcDbEntity
8
035
100
AcDbTrace
62
4
6
CONTINUOUS
10
99.0296586497
20
170.7392523662
11
99.8366758833
21
170.7322658658
12
99.8412788084
22
170.7933497183
13
99.8412788084
23
170.7933497183
0
SOLID
5
5DB
100
AcDbEntity
8
035
100
AcDbTrace
62
4
6
CONTINUOUS
10
99.8366758833
20
170.7322658658
11
99.0296586497
21
170.7392523662
12
99.0423277499
22
170.6793197552
13
99.0423277499
23
170.6793197552
0
SOLID
5
5DC
100
AcDbEntity
8
035
100
AcDbTrace
62
4
6
CONTINUOUS
10
99.0423277499
20
170.6793197552
11
99.8229710640
21
170.6725615788
12
99.8366758833
22
170.7322658658
13
99.8366758833
23
170.7322658658
0
SOLID
5
5DD
100
AcDbEntity
8
035
100
AcDbTrace
62
4
6
CONTINUOUS
10
99.8229710640
20
170.6725615788
11
99.0423277499
21
170.6793197552
12
99.0638351356
22
170.6219624861
13
99.0638351356
23
170.6219624861
0
SOLID
5
5DE
100
AcDbEntity
8
035
100
AcDbTrace
62
4
6
CONTINUOUS
10
99.0638351356
20
170.6219624861
11
99.8004738708
21
170.6155852657
12
99.8229710640
22
170.6725615788
13
99.8229710640
23
170.6725615788
0
SOLID
5
5DF
100
AcDbEntity
8
035
100
AcDbTrace
62
4
6
CONTINUOUS
10
99.8004738708
20
170.6155852657
11
99.0638351356
21
170.6219624861
12
99.0936950674
22
170.5684759604
13
99.0936950674
23
170.5684759604
0
SOLID
5
5E0
100
AcDbEntity
8
035
100
AcDbTrace
62
4
6
CONTINUOUS
10
99.0936950674
20
170.5684759604
11
99.7696923981
21
170.5626237241
12
99.8004738708
22
170.6155852657
13
99.8004738708
23
170.6155852657
0
SOLID
5
5E1
100
AcDbEntity
8
035
100
AcDbTrace
62
4
6
CONTINUOUS
10
99.7696923981
20
170.5626237241
11
99.0936950674
21
170.5684759604
12
99.1312331651
22
170.5200681597
13
99.1312331651
23
170.5200681597
0
SOLID
5
5E2
100
AcDbEntity
8
035
100
AcDbTrace
62
4
6
CONTINUOUS
10
99.1312331651
20
170.5200681597
11
99.7313218386
21
170.5148730788
12
99.7696923981
22
170.5626237241
13
99.7696923981
23
170.5626237241
0
SOLID
5
5E3
100
AcDbEntity
8
035
100
AcDbTrace
62
4
6
CONTINUOUS
10
99.7313218386
20
170.5148730788
11
99.1312331651
21
170.5200681597
12
99.1756016390
22
170.4778323634
13
99.1756016390
23
170.4778323634
0
SOLID
5
5E4
100
AcDbEntity
8
035
100
AcDbTrace
62
4
6
CONTINUOUS
10
99.1756016390
20
170.4778323634
11
99.6862287831
21
170.4734117680
12
99.7313218386
22
170.5148730788
13
99.7313218386
23
170.5148730788
0
SOLID
5
5E5
100
AcDbEntity
8
035
100
AcDbTrace
62
4
6
CONTINUOUS
10
99.6862287831
20
170.4734117680
11
99.1756016390
21
170.4778323634
12
99.2257984367
22
170.4427224580
13
99.2257984367
23
170.4427224580
0
SOLID
5
5E6
100
AcDbEntity
8
035
100
AcDbTrace
62
4
6
CONTINUOUS
10
99.2257984367
20
170.4427224580
11
99.6354316484
21
170.4391761861
12
99.6862287831
22
170.4734117680
13
99.6862287831
23
170.4734117680
0
SOLID
5
5E7
100
AcDbEntity
8
035
100
AcDbTrace
62
4
6
CONTINUOUS
10
99.6354316484
20
170.4391761861
11
99.2257984367
21
170.4427224580
12
99.2806898744
22
170.4155313931
13
99.2806898744
23
170.4155313931
0
SOLID
5
5E8
100
AcDbEntity
8
035
100
AcDbTrace
62
4
6
CONTINUOUS
10
99.2806898744
20
170.4155313931
11
99.5800776768
21
170.4129395364
12
99.6354316484
22
170.4391761861
13
99.6354316484
23
170.4391761861
0
SOLID
5
5E9
100
AcDbEntity
8
035
100
AcDbTrace
62
4
6
CONTINUOUS
10
99.5800776768
20
170.4129395364
11
99.2806898744
21
170.4155313931
12
99.3390362411
22
170.3968732728
13
99.3390362411
23
170.3968732728
0
SOLID
5
5EA
100
AcDbEntity
8
035
100
AcDbTrace
62
4
6
CONTINUOUS
10
99.3390362411
20
170.3968732728
11
99.5214170257
21
170.3952943679
12
99.5800776768
22
170.4129395364
13
99.5800776768
23
170.4129395364
0
SOLID
5
5EB
100
AcDbEntity
8
035
100
AcDbTrace
62
4
6
CONTINUOUS
10
99.5214170257
20
170.3952943679
11
99.3390362411
21
170.3968732728
12
99.3995197967
22
170.3871694868
13
99.3995197967
23
170.3871694868
0
SOLID
5
5EC
100
AcDbEntity
8
035
100
AcDbTrace
62
4
6
CONTINUOUS
10
99.3995197967
20
170.3871694868
11
99.4607745332
21
170.3866391930
12
99.5214170257
22
170.3952943679
13
99.5214170257
23
170.3952943679
0
CIRCLE
5
5ED
100
AcDbEntity
8
035
100
AcDbCircle
62
4
6
CONTINUOUS
10
100.6691634739
20
170.0800392505
40
0.4076129692
0
SOLID
5
5EE
100
AcDbEntity
8
035
100
AcDbTrace
62
4
6
CONTINUOUS
10
100.7103366293
20
170.4855674294
11
100.6491002548
21
170.4871581519
12
100.5883170038
22
170.4795541825
13
100.5883170038
23
170.4795541825
0
SOLID
5
5EF
100
AcDbEntity
8
035
100
AcDbTrace
62
4
6
CONTINUOUS
10
100.5883170038
20
170.4795541825
11
100.7706431170
21
170.4748179413
12
100.7103366293
22
170.4855674294
13
100.7103366293
23
170.4855674294
0
SOLID
5
5F0
100
AcDbEntity
8
035
100
AcDbTrace
62
4
6
CONTINUOUS
10
100.7706431170
20
170.4748179413
11
100.5883170038
21
170.4795541825
12
100.5293596527
22
170.4629272553
13
100.5293596527
23
170.4629272553
0
SOLID
5
5F1
100
AcDbEntity
8
035
100
AcDbTrace
62
4
6
CONTINUOUS
10
100.5293596527
20
170.4629272553
11
100.8286577090
21
170.4551524622
12
100.7706431170
22
170.4748179413
13
100.7706431170
23
170.4748179413
0
SOLID
5
5F2
100
AcDbEntity
8
035
100
AcDbTrace
62
4
6
CONTINUOUS
10
100.8286577090
20
170.4551524622
11
100.5293596527
21
170.4629272553
12
100.4735597405
22
170.4376528857
13
100.4735597405
23
170.4376528857
0
SOLID
5
5F3
100
AcDbEntity
8
035
100
AcDbTrace
62
4
6
CONTINUOUS
10
100.4735597405
20
170.4376528857
11
100.8830701585
21
170.4270151329
12
100.8286577090
22
170.4551524622
13
100.8286577090
23
170.4551524622
0
SOLID
5
5F4
100
AcDbEntity
8
035
100
AcDbTrace
62
4
6
CONTINUOUS
10
100.8830701585
20
170.4270151329
11
100.4735597405
21
170.4376528857
12
100.4221774961
22
170.4043018900
13
100.4221774961
23
170.4043018900
0
SOLID
5
5F5
100
AcDbEntity
8
035
100
AcDbTrace
62
4
6
CONTINUOUS
10
100.4221774961
20
170.4043018900
11
100.9326515719
21
170.3910414287
12
100.8830701585
22
170.4270151329
13
100.8830701585
23
170.4270151329
0
SOLID
5
5F6
100
AcDbEntity
8
035
100
AcDbTrace
62
4
6
CONTINUOUS
10
100.9326515719
20
170.3910414287
11
100.4221774961
21
170.4043018900
12
100.3763733763
22
170.3636274931
13
100.3763733763
23
170.3636274931
0
SOLID
5
5F7
100
AcDbEntity
8
035
100
AcDbTrace
62
4
6
CONTINUOUS
10
100.3763733763
20
170.3636274931
11
100.9762821640
21
170.3480438080
12
100.9326515719
22
170.3910414287
13
100.9326515719
23
170.3910414287
0
SOLID
5
5F8
100
AcDbEntity
8
035
100
AcDbTrace
62
4
6
CONTINUOUS
10
100.9762821640
20
170.3480438080
11
100.3763733763
21
170.3636274931
12
100.3371818571
22
170.3165483174
13
100.3371818571
23
170.3165483174
0
SOLID
5
5F9
100
AcDbEntity
8
035
100
AcDbTrace
62
4
6
CONTINUOUS
10
100.3371818571
20
170.3165483174
11
101.0129765473
21
170.2989933626
12
100.9762821640
22
170.3480438080
13
100.9762821640
23
170.3480438080
0
SOLID
5
5FA
100
AcDbEntity
8
035
100
AcDbTrace
62
4
6
CONTINUOUS
10
101.0129765473
20
170.2989933626
11
100.3371818571
21
170.3165483174
12
100.3054880706
22
170.2641276359
13
100.3054880706
23
170.2641276359
0
SOLID
5
5FB
100
AcDbEntity
8
035
100
AcDbTrace
62
4
6
CONTINUOUS
10
100.3054880706
20
170.2641276359
11
101.0419059871
21
170.2449978863
12
101.0129765473
22
170.2989933626
13
101.0129765473
23
170.2989933626
0
SOLID
5
5FC
100
AcDbEntity
8
035
100
AcDbTrace
62
4
6
CONTINUOUS
10
101.0419059871
20
170.2449978863
11
100.3054880706
21
170.2641276359
12
100.2820078139
22
170.2075493582
13
100.2820078139
23
170.2075493582
0
SOLID
5
5FD
100
AcDbEntity
8
035
100
AcDbTrace
62
4
6
CONTINUOUS
10
100.2820078139
20
170.2075493582
11
101.0624171184
21
170.1872768550
12
101.0419059871
22
170.2449978863
13
101.0419059871
23
170.2449978863
0
SOLID
5
5FE
100
AcDbEntity
8
035
100
AcDbTrace
62
4
6
CONTINUOUS
10
101.0624171184
20
170.1872768550
11
100.2820078139
21
170.2075493582
12
100.2672713837
22
170.1480912925
13
100.2672713837
23
170.1480912925
0
SOLID
5
5FF
100
AcDbEntity
8
035
100
AcDbTrace
62
4
6
CONTINUOUS
10
100.2672713837
20
170.1480912925
11
101.0740467016
21
170.1271338857
12
101.0624171184
22
170.1872768550
13
101.0624171184
23
170.1872768550
0
SOLID
5
600
100
AcDbEntity
8
035
100
AcDbTrace
62
4
6
CONTINUOUS
10
101.0740467016
20
170.1271338857
11
100.2672713837
21
170.1480912925
12
100.2616115988
22
170.0870962862
13
100.2616115988
23
170.0870962862
0
SOLID
5
601
100
AcDbEntity
8
035
100
AcDbTrace
62
4
6
CONTINUOUS
10
100.2616115988
20
170.0870962862
11
101.0767764432
21
170.0800392505
12
101.0740467016
22
170.1271338857
13
101.0740467016
23
170.1271338857
0
SOLID
5
602
100
AcDbEntity
8
035
100
AcDbTrace
62
4
6
CONTINUOUS
10
101.0767764432
20
170.0800392505
11
100.2616115988
21
170.0870962862
12
100.2651562845
22
170.0259418983
13
100.2651562845
23
170.0259418983
0
SOLID
5
603
100
AcDbEntity
8
035
100
AcDbTrace
62
4
6
CONTINUOUS
10
100.2651562845
20
170.0259418983
11
101.0721735180
21
170.0189553980
12
101.0767764432
22
170.0800392505
13
101.0767764432
23
170.0800392505
0
SOLID
5
604
100
AcDbEntity
8
035
100
AcDbTrace
62
4
6
CONTINUOUS
10
101.0721735180
20
170.0189553980
11
100.2651562845
21
170.0259418983
12
100.2778253846
22
169.9660092874
13
100.2778253846
23
169.9660092874
0
SOLID
5
605
100
AcDbEntity
8
035
100
AcDbTrace
62
4
6
CONTINUOUS
10
100.2778253846
20
169.9660092874
11
101.0584686987
21
169.9592511110
12
101.0721735180
22
170.0189553980
13
101.0721735180
23
170.0189553980
0
SOLID
5
606
100
AcDbEntity
8
035
100
AcDbTrace
62
4
6
CONTINUOUS
10
101.0584686987
20
169.9592511110
11
100.2778253846
21
169.9660092874
12
100.2993327704
22
169.9086520183
13
100.2993327704
23
169.9086520183
0
SOLID
5
607
100
AcDbEntity
8
035
100
AcDbTrace
62
4
6
CONTINUOUS
10
100.2993327704
20
169.9086520183
11
101.0359715056
21
169.9022747979
12
101.0584686987
22
169.9592511110
13
101.0584686987
23
169.9592511110
0
SOLID
5
608
100
AcDbEntity
8
035
100
AcDbTrace
62
4
6
CONTINUOUS
10
101.0359715056
20
169.9022747979
11
100.2993327704
21
169.9086520183
12
100.3291927021
22
169.8551654926
13
100.3291927021
23
169.8551654926
0
SOLID
5
609
100
AcDbEntity
8
035
100
AcDbTrace
62
4
6
CONTINUOUS
10
100.3291927021
20
169.8551654926
11
101.0051900328
21
169.8493132562
12
101.0359715056
22
169.9022747979
13
101.0359715056
23
169.9022747979
0
SOLID
5
60A
100
AcDbEntity
8
035
100
AcDbTrace
62
4
6
CONTINUOUS
10
101.0051900328
20
169.8493132562
11
100.3291927021
21
169.8551654926
12
100.3667307998
22
169.8067576918
13
100.3667307998
23
169.8067576918
0
SOLID
5
60B
100
AcDbEntity
8
035
100
AcDbTrace
62
4
6
CONTINUOUS
10
100.3667307998
20
169.8067576918
11
100.9668194733
21
169.8015626110
12
101.0051900328
22
169.8493132562
13
101.0051900328
23
169.8493132562
0
SOLID
5
60C
100
AcDbEntity
8
035
100
AcDbTrace
62
4
6
CONTINUOUS
10
100.9668194733
20
169.8015626110
11
100.3667307998
21
169.8067576918
12
100.4110992737
22
169.7645218956
13
100.4110992737
23
169.7645218956
0
SOLID
5
60D
100
AcDbEntity
8
035
100
AcDbTrace
62
4
6
CONTINUOUS
10
100.4110992737
20
169.7645218956
11
100.9217264178
21
169.7601013001
12
100.9668194733
22
169.8015626110
13
100.9668194733
23
169.8015626110
0
SOLID
5
60E
100
AcDbEntity
8
035
100
AcDbTrace
62
4
6
CONTINUOUS
10
100.9217264178
20
169.7601013001
11
100.4110992737
21
169.7645218956
12
100.4612960714
22
169.7294119902
13
100.4612960714
23
169.7294119902
0
SOLID
5
60F
100
AcDbEntity
8
035
100
AcDbTrace
62
4
6
CONTINUOUS
10
100.4612960714
20
169.7294119902
11
100.8709292831
21
169.7258657183
12
100.9217264178
22
169.7601013001
13
100.9217264178
23
169.7601013001
0
SOLID
5
610
100
AcDbEntity
8
035
100
AcDbTrace
62
4
6
CONTINUOUS
10
100.8709292831
20
169.7258657183
11
100.4612960714
21
169.7294119902
12
100.5161875092
22
169.7022209252
13
100.5161875092
23
169.7022209252
0
SOLID
5
611
100
AcDbEntity
8
035
100
AcDbTrace
62
4
6
CONTINUOUS
10
100.5161875092
20
169.7022209252
11
100.8155753116
21
169.6996290686
12
100.8709292831
22
169.7258657183
13
100.8709292831
23
169.7258657183
0
SOLID
5
612
100
AcDbEntity
8
035
100
AcDbTrace
62
4
6
CONTINUOUS
10
100.8155753116
20
169.6996290686
11
100.5161875092
21
169.7022209252
12
100.5745338758
22
169.6835628050
13
100.5745338758
23
169.6835628050
0
SOLID
5
613
100
AcDbEntity
8
035
100
AcDbTrace
62
4
6
CONTINUOUS
10
100.5745338758
20
169.6835628050
11
100.7569146605
21
169.6819839001
12
100.8155753116
22
169.6996290686
13
100.8155753116
23
169.6996290686
0
SOLID
5
614
100
AcDbEntity
8
035
100
AcDbTrace
62
4
6
CONTINUOUS
10
100.7569146605
20
169.6819839001
11
100.5745338758
21
169.6835628050
12
100.6350174314
22
169.6738590190
13
100.6350174314
23
169.6738590190
0
SOLID
5
615
100
AcDbEntity
8
035
100
AcDbTrace
62
4
6
CONTINUOUS
10
100.6350174314
20
169.6738590190
11
100.6962721679
21
169.6733287252
12
100.7569146605
22
169.6819839001
13
100.7569146605
23
169.6819839001
0
LINE
5
616
100
AcDbEntity
8
035
100
AcDbLine
62
4
6
CONTINUOUS
39
1755644792
10
99.4336609479
20
170.7933497183
11
100.6691683653
21
170.0800392505
0
CIRCLE
5
617
100
AcDbEntity
8
035
100
AcDbCircle
62
4
6
CONTINUOUS
10
101.9046660000
20
166.5134477808
40
0.4076080779
0
SOLID
5
618
100
AcDbEntity
8
035
100
AcDbTrace
62
4
6
CONTINUOUS
10
101.9458386612
20
166.9189710935
11
101.8846030216
21
166.9205617968
12
101.8238205000
22
166.9129579187
13
101.8238205000
23
166.9129579187
0
SOLID
5
619
100
AcDbEntity
8
035
100
AcDbTrace
62
4
6
CONTINUOUS
10
101.8238205000
20
166.9129579187
11
102.0061444253
21
166.9082217343
12
101.9458386612
22
166.9189710935
13
101.9458386612
23
166.9189710935
0
SOLID
5
61A
100
AcDbEntity
8
035
100
AcDbTrace
62
4
6
CONTINUOUS
10
102.0061444253
20
166.9082217343
11
101.8238205000
21
166.9129579187
12
101.7648638564
22
166.8963311910
13
101.7648638564
23
166.8963311910
0
SOLID
5
61B
100
AcDbEntity
8
035
100
AcDbTrace
62
4
6
CONTINUOUS
10
101.7648638564
20
166.8963311910
11
102.0641583211
21
166.8885564912
12
102.0061444253
22
166.9082217343
13
102.0061444253
23
166.9082217343
0
SOLID
5
61C
100
AcDbEntity
8
035
100
AcDbTrace
62
4
6
CONTINUOUS
10
102.0641583211
20
166.8885564912
11
101.7648638564
21
166.8963311910
12
101.7090646138
22
166.8710571247
13
101.7090646138
23
166.8710571247
0
SOLID
5
61D
100
AcDbEntity
8
035
100
AcDbTrace
62
4
6
CONTINUOUS
10
101.7090646138
20
166.8710571247
11
102.1185701176
21
166.8604194996
12
102.0641583211
22
166.8885564912
13
102.0641583211
23
166.8885564912
0
SOLID
5
61E
100
AcDbEntity
8
035
100
AcDbTrace
62
4
6
CONTINUOUS
10
102.1185701176
20
166.8604194996
11
101.7090646138
21
166.8710571247
12
101.6576829859
22
166.8377065292
13
101.6576829859
23
166.8377065292
0
SOLID
5
61F
100
AcDbEntity
8
035
100
AcDbTrace
62
4
6
CONTINUOUS
10
101.6576829859
20
166.8377065292
11
102.1681509362
21
166.8244462271
12
102.1185701176
22
166.8604194996
13
102.1185701176
23
166.8604194996
0
SOLID
5
620
100
AcDbEntity
8
035
100
AcDbTrace
62
4
6
CONTINUOUS
10
102.1681509362
20
166.8244462271
11
101.6576829859
21
166.8377065292
12
101.6118794158
22
166.7970326204
13
101.6118794158
23
166.7970326204
0
SOLID
5
621
100
AcDbEntity
8
035
100
AcDbTrace
62
4
6
CONTINUOUS
10
101.6118794158
20
166.7970326204
11
102.2117810047
21
166.7814491223
12
102.1681509362
22
166.8244462271
13
102.1681509362
23
166.8244462271
0
SOLID
5
622
100
AcDbEntity
8
035
100
AcDbTrace
62
4
6
CONTINUOUS
10
102.2117810047
20
166.7814491223
11
101.6118794158
21
166.7970326204
12
101.5726883669
22
166.7499540097
13
101.5726883669
23
166.7499540097
0
SOLID
5
623
100
AcDbEntity
8
035
100
AcDbTrace
62
4
6
CONTINUOUS
10
101.5726883669
20
166.7499540097
11
102.2484749477
21
166.7323992655
12
102.2117810047
22
166.7814491223
13
102.2117810047
23
166.7814491223
0
SOLID
5
624
100
AcDbEntity
8
035
100
AcDbTrace
62
4
6
CONTINUOUS
10
102.2484749477
20
166.7323992655
11
101.5726883669
21
166.7499540097
12
101.5409949607
22
166.6975339572
13
101.5409949607
23
166.6975339572
0
SOLID
5
625
100
AcDbEntity
8
035
100
AcDbTrace
62
4
6
CONTINUOUS
10
101.5409949607
20
166.6975339572
11
102.2774040403
21
166.6784044371
12
102.2484749477
22
166.7323992655
13
102.2484749477
23
166.7323992655
0
SOLID
5
626
100
AcDbEntity
8
035
100
AcDbTrace
62
4
6
CONTINUOUS
10
102.2774040403
20
166.6784044371
11
101.5409949607
21
166.6975339572
12
101.5175149858
22
166.6409563585
13
101.5175149858
23
166.6409563585
0
SOLID
5
627
100
AcDbEntity
8
035
100
AcDbTrace
62
4
6
CONTINUOUS
10
101.5175149858
20
166.6409563585
11
102.2939665531
21
166.6342344708
12
102.2774040403
22
166.6784044371
13
102.2774040403
23
166.6784044371
0
SOLID
5
628
100
AcDbEntity
8
035
100
AcDbTrace
62
4
6
CONTINUOUS
10
102.2939665531
20
166.6342344708
11
101.5175149858
21
166.6409563585
12
101.5027787324
22
166.5814990062
13
101.5027787324
23
166.5814990062
0
SOLID
5
629
100
AcDbEntity
8
035
100
AcDbTrace
62
4
6
CONTINUOUS
10
101.5027787324
20
166.5814990062
11
102.3076712080
21
166.5745309003
12
102.2939665531
22
166.6342344708
13
102.2939665531
23
166.6342344708
0
SOLID
5
62A
100
AcDbEntity
8
035
100
AcDbTrace
62
4
6
CONTINUOUS
10
102.3076712080
20
166.5745309003
11
101.5027787324
21
166.5814990062
12
101.4971190155
22
166.5205047319
13
101.4971190155
23
166.5205047319
0
SOLID
5
62B
100
AcDbEntity
8
035
100
AcDbTrace
62
4
6
CONTINUOUS
10
101.4971190155
20
166.5205047319
11
102.3122740779
21
166.5134477808
12
102.3076712080
22
166.5745309003
13
102.3076712080
23
166.5745309003
0
SOLID
5
62C
100
AcDbEntity
8
035
100
AcDbTrace
62
4
6
CONTINUOUS
10
102.3122740779
20
166.5134477808
11
101.4971190155
21
166.5205047319
12
101.5006636586
22
166.4593510778
13
101.5006636586
23
166.4593510778
0
SOLID
5
62D
100
AcDbEntity
8
035
100
AcDbTrace
62
4
6
CONTINUOUS
10
101.5006636586
20
166.4593510778
11
102.3076712080
21
166.4523646613
12
102.3122740779
22
166.5134477808
13
102.3122740779
23
166.5134477808
0
SOLID
5
62E
100
AcDbEntity
8
035
100
AcDbTrace
62
4
6
CONTINUOUS
10
102.3076712080
20
166.4523646613
11
101.5006636586
21
166.4593510778
12
101.5133326067
22
166.3994191860
13
101.5133326067
23
166.3994191860
0
SOLID
5
62F
100
AcDbEntity
8
035
100
AcDbTrace
62
4
6
CONTINUOUS
10
101.5133326067
20
166.3994191860
11
102.2939665531
21
166.3926610908
12
102.3076712080
22
166.4523646613
13
102.3076712080
23
166.4523646613
0
SOLID
5
630
100
AcDbEntity
8
035
100
AcDbTrace
62
4
6
CONTINUOUS
10
102.2939665531
20
166.3926610908
11
101.5133326067
21
166.3994191860
12
101.5348397343
22
166.3420626053
13
101.5348397343
23
166.3420626053
0
SOLID
5
631
100
AcDbEntity
8
035
100
AcDbTrace
62
4
6
CONTINUOUS
10
101.5348397343
20
166.3420626053
11
102.2714696300
21
166.3356854613
12
102.2939665531
22
166.3926610908
13
102.2939665531
23
166.3926610908
0
SOLID
5
632
100
AcDbEntity
8
035
100
AcDbTrace
62
4
6
CONTINUOUS
10
102.2714696300
20
166.3356854613
11
101.5348397343
21
166.3420626053
12
101.5646993078
22
166.2885767214
13
101.5646993078
23
166.2885767214
0
SOLID
5
633
100
AcDbEntity
8
035
100
AcDbTrace
62
4
6
CONTINUOUS
10
101.5646993078
20
166.2885767214
11
102.2406885266
21
166.2827245553
12
102.2714696300
22
166.3356854613
13
102.2714696300
23
166.3356854613
0
SOLID
5
634
100
AcDbEntity
8
035
100
AcDbTrace
62
4
6
CONTINUOUS
10
102.2406885266
20
166.2827245553
11
101.5646993078
21
166.2885767214
12
101.6022369550
22
166.2401695015
13
101.6022369550
23
166.2401695015
0
SOLID
5
635
100
AcDbEntity
8
035
100
AcDbTrace
62
4
6
CONTINUOUS
10
101.6022369550
20
166.2401695015
11
102.2023184275
21
166.2349744830
12
102.2406885266
22
166.2827245553
13
102.2406885266
23
166.2827245553
0
SOLID
5
636
100
AcDbEntity
8
035
100
AcDbTrace
62
4
6
CONTINUOUS
10
102.2023184275
20
166.2349744830
11
101.6022369550
21
166.2401695015
12
101.6466048965
22
166.1979342121
13
101.6466048965
23
166.1979342121
0
SOLID
5
637
100
AcDbEntity
8
035
100
AcDbTrace
62
4
6
CONTINUOUS
10
101.6466048965
20
166.1979342121
11
102.1572259131
21
166.1935136697
12
102.2023184275
22
166.2349744830
13
102.2023184275
23
166.2349744830
0
SOLID
5
638
100
AcDbEntity
8
035
100
AcDbTrace
62
4
6
CONTINUOUS
10
102.1572259131
20
166.1935136697
11
101.6466048965
21
166.1979342121
12
101.6968010918
22
166.1628247280
13
101.6968010918
23
166.1628247280
0
SOLID
5
639
100
AcDbEntity
8
035
100
AcDbTrace
62
4
6
CONTINUOUS
10
101.6968010918
20
166.1628247280
11
102.1064293880
21
166.1592784986
12
102.1572259131
22
166.1935136697
13
102.1572259131
23
166.1935136697
0
SOLID
5
63A
100
AcDbEntity
8
035
100
AcDbTrace
62
4
6
CONTINUOUS
10
102.1064293880
20
166.1592784986
11
101.6968010918
21
166.1628247280
12
101.7516918709
22
166.1356339894
13
101.7516918709
23
166.1356339894
0
SOLID
5
63B
100
AcDbEntity
8
035
100
AcDbTrace
62
4
6
CONTINUOUS
10
101.7516918709
20
166.1356339894
11
102.0510760807
21
166.1330421638
12
102.1064293880
22
166.1592784986
13
102.1064293880
23
166.1592784986
0
SOLID
5
63C
100
AcDbEntity
8
035
100
AcDbTrace
62
4
6
CONTINUOUS
10
102.0510760807
20
166.1330421638
11
101.7516918709
21
166.1356339894
12
101.8100375374
22
166.1169760930
13
101.8100375374
23
166.1169760930
0
SOLID
5
63D
100
AcDbEntity
8
035
100
AcDbTrace
62
4
6
CONTINUOUS
10
101.8100375374
20
166.1169760930
11
101.9924161335
21
166.1153972071
12
102.0510760807
22
166.1330421638
13
102.0510760807
23
166.1330421638
0
SOLID
5
63E
100
AcDbEntity
8
035
100
AcDbTrace
62
4
6
CONTINUOUS
10
101.9924161335
20
166.1153972071
11
101.8100375374
21
166.1169760930
12
101.8705203672
22
166.1072724234
13
101.8705203672
23
166.1072724234
0
SOLID
5
63F
100
AcDbEntity
8
035
100
AcDbTrace
62
4
6
CONTINUOUS
10
101.8705203672
20
166.1072724234
11
101.9317743687
21
166.1067421360
12
101.9924161335
22
166.1153972071
13
101.9924161335
23
166.1153972071
0
CIRCLE
5
640
100
AcDbEntity
8
035
100
AcDbCircle
62
4
6
CONTINUOUS
10
99.5674042150
20
167.7301529775
40
0.4076129692
0
SOLID
5
641
100
AcDbEntity
8
035
100
AcDbTrace
62
4
6
CONTINUOUS
10
99.6085773703
20
168.1356811565
11
99.5473409958
21
168.1372718790
12
99.4865577448
22
168.1296679096
13
99.4865577448
23
168.1296679096
0
SOLID
5
642
100
AcDbEntity
8
035
100
AcDbTrace
62
4
6
CONTINUOUS
10
99.4865577448
20
168.1296679096
11
99.6688838580
21
168.1249316683
12
99.6085773703
22
168.1356811565
13
99.6085773703
23
168.1356811565
0
SOLID
5
643
100
AcDbEntity
8
035
100
AcDbTrace
62
4
6
CONTINUOUS
10
99.6688838580
20
168.1249316683
11
99.4865577448
21
168.1296679096
12
99.4276003937
22
168.1130409823
13
99.4276003937
23
168.1130409823
0
SOLID
5
644
100
AcDbEntity
8
035
100
AcDbTrace
62
4
6
CONTINUOUS
10
99.4276003937
20
168.1130409823
11
99.7268984500
21
168.1052661893
12
99.6688838580
22
168.1249316683
13
99.6688838580
23
168.1249316683
0
SOLID
5
645
100
AcDbEntity
8
035
100
AcDbTrace
62
4
6
CONTINUOUS
10
99.7268984500
20
168.1052661893
11
99.4276003937
21
168.1130409823
12
99.3718004815
22
168.0877666128
13
99.3718004815
23
168.0877666128
0
SOLID
5
646
100
AcDbEntity
8
035
100
AcDbTrace
62
4
6
CONTINUOUS
10
99.3718004815
20
168.0877666128
11
99.7813108995
21
168.0771288600
12
99.7268984500
22
168.1052661893
13
99.7268984500
23
168.1052661893
0
SOLID
5
647
100
AcDbEntity
8
035
100
AcDbTrace
62
4
6
CONTINUOUS
10
99.7813108995
20
168.0771288600
11
99.3718004815
21
168.0877666128
12
99.3204182371
22
168.0544156171
13
99.3204182371
23
168.0544156171
0
SOLID
5
648
100
AcDbEntity
8
035
100
AcDbTrace
62
4
6
CONTINUOUS
10
99.3204182371
20
168.0544156171
11
99.8308923130
21
168.0411551558
12
99.7813108995
22
168.0771288600
13
99.7813108995
23
168.0771288600
0
SOLID
5
649
100
AcDbEntity
8
035
100
AcDbTrace
62
4
6
CONTINUOUS
10
99.8308923130
20
168.0411551558
11
99.3204182371
21
168.0544156171
12
99.2746141173
22
168.0137412202
13
99.2746141173
23
168.0137412202
0
SOLID
5
64A
100
AcDbEntity
8
035
100
AcDbTrace
62
4
6
CONTINUOUS
10
99.2746141173
20
168.0137412202
11
99.8745229051
21
167.9981575351
12
99.8308923130
22
168.0411551558
13
99.8308923130
23
168.0411551558
0
SOLID
5
64B
100
AcDbEntity
8
035
100
AcDbTrace
62
4
6
CONTINUOUS
10
99.8745229051
20
167.9981575351
11
99.2746141173
21
168.0137412202
12
99.2354225981
22
167.9666620445
13
99.2354225981
23
167.9666620445
0
SOLID
5
64C
100
AcDbEntity
8
035
100
AcDbTrace
62
4
6
CONTINUOUS
10
99.2354225981
20
167.9666620445
11
99.9112172883
21
167.9491070897
12
99.8745229051
22
167.9981575351
13
99.8745229051
23
167.9981575351
0
SOLID
5
64D
100
AcDbEntity
8
035
100
AcDbTrace
62
4
6
CONTINUOUS
10
99.9112172883
20
167.9491070897
11
99.2354225981
21
167.9666620445
12
99.2037288116
22
167.9142413630
13
99.2037288116
23
167.9142413630
0
SOLID
5
64E
100
AcDbEntity
8
035
100
AcDbTrace
62
4
6
CONTINUOUS
10
99.2037288116
20
167.9142413630
11
99.9401467282
21
167.8951116133
12
99.9112172883
22
167.9491070897
13
99.9112172883
23
167.9491070897
0
SOLID
5
64F
100
AcDbEntity
8
035
100
AcDbTrace
62
4
6
CONTINUOUS
10
99.9401467282
20
167.8951116133
11
99.2037288116
21
167.9142413630
12
99.1802485549
22
167.8576630853
13
99.1802485549
23
167.8576630853
0
SOLID
5
650
100
AcDbEntity
8
035
100
AcDbTrace
62
4
6
CONTINUOUS
10
99.1802485549
20
167.8576630853
11
99.9606578594
21
167.8373905820
12
99.9401467282
22
167.8951116133
13
99.9401467282
23
167.8951116133
0
SOLID
5
651
100
AcDbEntity
8
035
100
AcDbTrace
62
4
6
CONTINUOUS
10
99.9606578594
20
167.8373905820
11
99.1802485549
21
167.8576630853
12
99.1655121247
22
167.7982050196
13
99.1655121247
23
167.7982050196
0
SOLID
5
652
100
AcDbEntity
8
035
100
AcDbTrace
62
4
6
CONTINUOUS
10
99.1655121247
20
167.7982050196
11
99.9722874426
21
167.7772476128
12
99.9606578594
22
167.8373905820
13
99.9606578594
23
167.8373905820
0
SOLID
5
653
100
AcDbEntity
8
035
100
AcDbTrace
62
4
6
CONTINUOUS
10
99.9722874426
20
167.7772476128
11
99.1655121247
21
167.7982050196
12
99.1598523398
22
167.7372100133
13
99.1598523398
23
167.7372100133
0
SOLID
5
654
100
AcDbEntity
8
035
100
AcDbTrace
62
4
6
CONTINUOUS
10
99.1598523398
20
167.7372100133
11
99.9750171842
21
167.7301529775
12
99.9722874426
22
167.7772476128
13
99.9722874426
23
167.7772476128
0
SOLID
5
655
100
AcDbEntity
8
035
100
AcDbTrace
62
4
6
CONTINUOUS
10
99.9750171842
20
167.7301529775
11
99.1598523398
21
167.7372100133
12
99.1633970255
22
167.6760556254
13
99.1633970255
23
167.6760556254
0
SOLID
5
656
100
AcDbEntity
8
035
100
AcDbTrace
62
4
6
CONTINUOUS
10
99.1633970255
20
167.6760556254
11
99.9704142590
21
167.6690691250
12
99.9750171842
22
167.7301529775
13
99.9750171842
23
167.7301529775
0
SOLID
5
657
100
AcDbEntity
8
035
100
AcDbTrace
62
4
6
CONTINUOUS
10
99.9704142590
20
167.6690691250
11
99.1633970255
21
167.6760556254
12
99.1760661256
22
167.6161230144
13
99.1760661256
23
167.6161230144
0
SOLID
5
658
100
AcDbEntity
8
035
100
AcDbTrace
62
4
6
CONTINUOUS
10
99.1760661256
20
167.6161230144
11
99.9567094397
21
167.6093648381
12
99.9704142590
22
167.6690691250
13
99.9704142590
23
167.6690691250
0
SOLID
5
659
100
AcDbEntity
8
035
100
AcDbTrace
62
4
6
CONTINUOUS
10
99.9567094397
20
167.6093648381
11
99.1760661256
21
167.6161230144
12
99.1975735114
22
167.5587657454
13
99.1975735114
23
167.5587657454
0
SOLID
5
65A
100
AcDbEntity
8
035
100
AcDbTrace
62
4
6
CONTINUOUS
10
99.1975735114
20
167.5587657454
11
99.9342122466
21
167.5523885249
12
99.9567094397
22
167.6093648381
13
99.9567094397
23
167.6093648381
0
SOLID
5
65B
100
AcDbEntity
8
035
100
AcDbTrace
62
4
6
CONTINUOUS
10
99.9342122466
20
167.5523885249
11
99.1975735114
21
167.5587657454
12
99.2274334431
22
167.5052792197
13
99.2274334431
23
167.5052792197
0
SOLID
5
65C
100
AcDbEntity
8
035
100
AcDbTrace
62
4
6
CONTINUOUS
10
99.2274334431
20
167.5052792197
11
99.9034307738
21
167.4994269833
12
99.9342122466
22
167.5523885249
13
99.9342122466
23
167.5523885249
0
SOLID
5
65D
100
AcDbEntity
8
035
100
AcDbTrace
62
4
6
CONTINUOUS
10
99.9034307738
20
167.4994269833
11
99.2274334431
21
167.5052792197
12
99.2649715408
22
167.4568714189
13
99.2649715408
23
167.4568714189
0
SOLID
5
65E
100
AcDbEntity
8
035
100
AcDbTrace
62
4
6
CONTINUOUS
10
99.2649715408
20
167.4568714189
11
99.8650602143
21
167.4516763381
12
99.9034307738
22
167.4994269833
13
99.9034307738
23
167.4994269833
0
SOLID
5
65F
100
AcDbEntity
8
035
100
AcDbTrace
62
4
6
CONTINUOUS
10
99.8650602143
20
167.4516763381
11
99.2649715408
21
167.4568714189
12
99.3093400147
22
167.4146356227
13
99.3093400147
23
167.4146356227
0
SOLID
5
660
100
AcDbEntity
8
035
100
AcDbTrace
62
4
6
CONTINUOUS
10
99.3093400147
20
167.4146356227
11
99.8199671588
21
167.4102150272
12
99.8650602143
22
167.4516763381
13
99.8650602143
23
167.4516763381
0
SOLID
5
661
100
AcDbEntity
8
035
100
AcDbTrace
62
4
6
CONTINUOUS
10
99.8199671588
20
167.4102150272
11
99.3093400147
21
167.4146356227
12
99.3595368124
22
167.3795257173
13
99.3595368124
23
167.3795257173
0
SOLID
5
662
100
AcDbEntity
8
035
100
AcDbTrace
62
4
6
CONTINUOUS
10
99.3595368124
20
167.3795257173
11
99.7691700241
21
167.3759794453
12
99.8199671588
22
167.4102150272
13
99.8199671588
23
167.4102150272
0
SOLID
5
663
100
AcDbEntity
8
035
100
AcDbTrace
62
4
6
CONTINUOUS
10
99.7691700241
20
167.3759794453
11
99.3595368124
21
167.3795257173
12
99.4144282502
22
167.3523346523
13
99.4144282502
23
167.3523346523
0
SOLID
5
664
100
AcDbEntity
8
035
100
AcDbTrace
62
4
6
CONTINUOUS
10
99.4144282502
20
167.3523346523
11
99.7138160526
21
167.3497427957
12
99.7691700241
22
167.3759794453
13
99.7691700241
23
167.3759794453
0
SOLID
5
665
100
AcDbEntity
8
035
100
AcDbTrace
62
4
6
CONTINUOUS
10
99.7138160526
20
167.3497427957
11
99.4144282502
21
167.3523346523
12
99.4727746169
22
167.3336765320
13
99.4727746169
23
167.3336765320
0
SOLID
5
666
100
AcDbEntity
8
035
100
AcDbTrace
62
4
6
CONTINUOUS
10
99.4727746169
20
167.3336765320
11
99.6551554015
21
167.3320976272
12
99.7138160526
22
167.3497427957
13
99.7138160526
23
167.3497427957
0
SOLID
5
667
100
AcDbEntity
8
035
100
AcDbTrace
62
4
6
CONTINUOUS
10
99.6551554015
20
167.3320976272
11
99.4727746169
21
167.3336765320
12
99.5332581724
22
167.3239727460
13
99.5332581724
23
167.3239727460
0
SOLID
5
668
100
AcDbEntity
8
035
100
AcDbTrace
62
4
6
CONTINUOUS
10
99.5332581724
20
167.3239727460
11
99.5945129089
21
167.3234424522
12
99.6551554015
22
167.3320976272
13
99.6551554015
23
167.3320976272
0
CIRCLE
5
669
100
AcDbEntity
8
035
100
AcDbCircle
62
4
6
CONTINUOUS
10
100.2680999775
20
171.7039758937
40
0.4076080779
0
SOLID
5
66A
100
AcDbEntity
8
035
100
AcDbTrace
62
4
6
CONTINUOUS
10
100.3092726388
20
172.1094992064
11
100.2480369991
21
172.1110899098
12
100.1872544775
22
172.1034860316
13
100.1872544775
23
172.1034860316
0
SOLID
5
66B
100
AcDbEntity
8
035
100
AcDbTrace
62
4
6
CONTINUOUS
10
100.1872544775
20
172.1034860316
11
100.3695784028
21
172.0987498472
12
100.3092726388
22
172.1094992064
13
100.3092726388
23
172.1094992064
0
SOLID
5
66C
100
AcDbEntity
8
035
100
AcDbTrace
62
4
6
CONTINUOUS
10
100.3695784028
20
172.0987498472
11
100.1872544775
21
172.1034860316
12
100.1282978339
22
172.0868593039
13
100.1282978339
23
172.0868593039
0
SOLID
5
66D
100
AcDbEntity
8
035
100
AcDbTrace
62
4
6
CONTINUOUS
10
100.1282978339
20
172.0868593039
11
100.4275922987
21
172.0790846042
12
100.3695784028
22
172.0987498472
13
100.3695784028
23
172.0987498472
0
SOLID
5
66E
100
AcDbEntity
8
035
100
AcDbTrace
62
4
6
CONTINUOUS
10
100.4275922987
20
172.0790846042
11
100.1282978339
21
172.0868593039
12
100.0724985913
22
172.0615852377
13
100.0724985913
23
172.0615852377
0
SOLID
5
66F
100
AcDbEntity
8
035
100
AcDbTrace
62
4
6
CONTINUOUS
10
100.0724985913
20
172.0615852377
11
100.4820040952
21
172.0509476125
12
100.4275922987
22
172.0790846042
13
100.4275922987
23
172.0790846042
0
SOLID
5
670
100
AcDbEntity
8
035
100
AcDbTrace
62
4
6
CONTINUOUS
10
100.4820040952
20
172.0509476125
11
100.0724985913
21
172.0615852377
12
100.0211169635
22
172.0282346422
13
100.0211169635
23
172.0282346422
0
SOLID
5
671
100
AcDbEntity
8
035
100
AcDbTrace
62
4
6
CONTINUOUS
10
100.0211169635
20
172.0282346422
11
100.5315849137
21
172.0149743400
12
100.4820040952
22
172.0509476125
13
100.4820040952
23
172.0509476125
0
SOLID
5
672
100
AcDbEntity
8
035
100
AcDbTrace
62
4
6
CONTINUOUS
10
100.5315849137
20
172.0149743400
11
100.0211169635
21
172.0282346422
12
99.9753133933
22
171.9875607333
13
99.9753133933
23
171.9875607333
0
SOLID
5
673
100
AcDbEntity
8
035
100
AcDbTrace
62
4
6
CONTINUOUS
10
99.9753133933
20
171.9875607333
11
100.5752149822
21
171.9719772352
12
100.5315849137
22
172.0149743400
13
100.5315849137
23
172.0149743400
0
SOLID
5
674
100
AcDbEntity
8
035
100
AcDbTrace
62
4
6
CONTINUOUS
10
100.5752149822
20
171.9719772352
11
99.9753133933
21
171.9875607333
12
99.9361223444
22
171.9404821226
13
99.9361223444
23
171.9404821226
0
SOLID
5
675
100
AcDbEntity
8
035
100
AcDbTrace
62
4
6
CONTINUOUS
10
99.9361223444
20
171.9404821226
11
100.6119089252
21
171.9229273785
12
100.5752149822
22
171.9719772352
13
100.5752149822
23
171.9719772352
0
SOLID
5
676
100
AcDbEntity
8
035
100
AcDbTrace
62
4
6
CONTINUOUS
10
100.6119089252
20
171.9229273785
11
99.9361223444
21
171.9404821226
12
99.9044289382
22
171.8880620701
13
99.9044289382
23
171.8880620701
0
SOLID
5
677
100
AcDbEntity
8
035
100
AcDbTrace
62
4
6
CONTINUOUS
10
99.9044289382
20
171.8880620701
11
100.6408380179
21
171.8689325500
12
100.6119089252
22
171.9229273785
13
100.6119089252
23
171.9229273785
0
SOLID
5
678
100
AcDbEntity
8
035
100
AcDbTrace
62
4
6
CONTINUOUS
10
100.6408380179
20
171.8689325500
11
99.9044289382
21
171.8880620701
12
99.8809489633
22
171.8314844714
13
99.8809489633
23
171.8314844714
0
SOLID
5
679
100
AcDbEntity
8
035
100
AcDbTrace
62
4
6
CONTINUOUS
10
99.8809489633
20
171.8314844714
11
100.6613489029
21
171.8112122114
12
100.6408380179
22
171.8689325500
13
100.6408380179
23
171.8689325500
0
SOLID
5
67A
100
AcDbEntity
8
035
100
AcDbTrace
62
4
6
CONTINUOUS
10
100.6613489029
20
171.8112122114
11
99.8809489633
21
171.8314844714
12
99.8662127099
22
171.7720271192
13
99.8662127099
23
171.7720271192
0
SOLID
5
67B
100
AcDbEntity
8
035
100
AcDbTrace
62
4
6
CONTINUOUS
10
99.8662127099
20
171.7720271192
11
100.6729783466
21
171.7510699639
12
100.6613489029
22
171.8112122114
13
100.6613489029
23
171.8112122114
0
SOLID
5
67C
100
AcDbEntity
8
035
100
AcDbTrace
62
4
6
CONTINUOUS
10
100.6729783466
20
171.7510699639
11
99.8662127099
21
171.7720271192
12
99.8605529930
22
171.7110328448
13
99.8605529930
23
171.7110328448
0
SOLID
5
67D
100
AcDbEntity
8
035
100
AcDbTrace
62
4
6
CONTINUOUS
10
99.8605529930
20
171.7110328448
11
100.6757080554
21
171.7039758937
12
100.6729783466
22
171.7510699639
13
100.6729783466
23
171.7510699639
0
SOLID
5
67E
100
AcDbEntity
8
035
100
AcDbTrace
62
4
6
CONTINUOUS
10
100.6757080554
20
171.7039758937
11
99.8605529930
21
171.7110328448
12
99.8640976361
22
171.6498791908
13
99.8640976361
23
171.6498791908
0
SOLID
5
67F
100
AcDbEntity
8
035
100
AcDbTrace
62
4
6
CONTINUOUS
10
99.8640976361
20
171.6498791908
11
100.6711051855
21
171.6428927742
12
100.6757080554
22
171.7039758937
13
100.6757080554
23
171.7039758937
0
SOLID
5
680
100
AcDbEntity
8
035
100
AcDbTrace
62
4
6
CONTINUOUS
10
100.6711051855
20
171.6428927742
11
99.8640976361
21
171.6498791908
12
99.8767665842
22
171.5899472990
13
99.8767665842
23
171.5899472990
0
SOLID
5
681
100
AcDbEntity
8
035
100
AcDbTrace
62
4
6
CONTINUOUS
10
99.8767665842
20
171.5899472990
11
100.6574005307
21
171.5831892037
12
100.6711051855
22
171.6428927742
13
100.6711051855
23
171.6428927742
0
SOLID
5
682
100
AcDbEntity
8
035
100
AcDbTrace
62
4
6
CONTINUOUS
10
100.6574005307
20
171.5831892037
11
99.8767665842
21
171.5899472990
12
99.8982737119
22
171.5325907182
13
99.8982737119
23
171.5325907182
0
SOLID
5
683
100
AcDbEntity
8
035
100
AcDbTrace
62
4
6
CONTINUOUS
10
99.8982737119
20
171.5325907182
11
100.6349036075
21
171.5262135743
12
100.6574005307
22
171.5831892037
13
100.6574005307
23
171.5831892037
0
SOLID
5
684
100
AcDbEntity
8
035
100
AcDbTrace
62
4
6
CONTINUOUS
10
100.6349036075
20
171.5262135743
11
99.8982737119
21
171.5325907182
12
99.9281332853
22
171.4791048343
13
99.9281332853
23
171.4791048343
0
SOLID
5
685
100
AcDbEntity
8
035
100
AcDbTrace
62
4
6
CONTINUOUS
10
99.9281332853
20
171.4791048343
11
100.6041225041
21
171.4732526682
12
100.6349036075
22
171.5262135743
13
100.6349036075
23
171.5262135743
0
SOLID
5
686
100
AcDbEntity
8
035
100
AcDbTrace
62
4
6
CONTINUOUS
10
100.6041225041
20
171.4732526682
11
99.9281332853
21
171.4791048343
12
99.9656709326
22
171.4306976144
13
99.9656709326
23
171.4306976144
0
SOLID
5
687
100
AcDbEntity
8
035
100
AcDbTrace
62
4
6
CONTINUOUS
10
99.9656709326
20
171.4306976144
11
100.5657524050
21
171.4255025960
12
100.6041225041
22
171.4732526682
13
100.6041225041
23
171.4732526682
0
SOLID
5
688
100
AcDbEntity
8
035
100
AcDbTrace
62
4
6
CONTINUOUS
10
100.5657524050
20
171.4255025960
11
99.9656709326
21
171.4306976144
12
100.0100388740
22
171.3884623250
13
100.0100388740
23
171.3884623250
0
SOLID
5
689
100
AcDbEntity
8
035
100
AcDbTrace
62
4
6
CONTINUOUS
10
100.0100388740
20
171.3884623250
11
100.5206598907
21
171.3840417826
12
100.5657524050
22
171.4255025960
13
100.5657524050
23
171.4255025960
0
SOLID
5
68A
100
AcDbEntity
8
035
100
AcDbTrace
62
4
6
CONTINUOUS
10
100.5206598907
20
171.3840417826
11
100.0100388740
21
171.3884623250
12
100.0602350694
22
171.3533528410
13
100.0602350694
23
171.3533528410
0
SOLID
5
68B
100
AcDbEntity
8
035
100
AcDbTrace
62
4
6
CONTINUOUS
10
100.0602350694
20
171.3533528410
11
100.4698633655
21
171.3498066116
12
100.5206598907
22
171.3840417826
13
100.5206598907
23
171.3840417826
0
SOLID
5
68C
100
AcDbEntity
8
035
100
AcDbTrace
62
4
6
CONTINUOUS
10
100.4698633655
20
171.3498066116
11
100.0602350694
21
171.3533528410
12
100.1151258485
22
171.3261621023
13
100.1151258485
23
171.3261621023
0
SOLID
5
68D
100
AcDbEntity
8
035
100
AcDbTrace
62
4
6
CONTINUOUS
10
100.1151258485
20
171.3261621023
11
100.4145100582
21
171.3235702767
12
100.4698633655
22
171.3498066116
13
100.4698633655
23
171.3498066116
0
SOLID
5
68E
100
AcDbEntity
8
035
100
AcDbTrace
62
4
6
CONTINUOUS
10
100.4145100582
20
171.3235702767
11
100.1151258485
21
171.3261621023
12
100.1734715150
22
171.3075042059
13
100.1734715150
23
171.3075042059
0
SOLID
5
68F
100
AcDbEntity
8
035
100
AcDbTrace
62
4
6
CONTINUOUS
10
100.1734715150
20
171.3075042059
11
100.3558501110
21
171.3059253200
12
100.4145100582
22
171.3235702767
13
100.4145100582
23
171.3235702767
0
SOLID
5
690
100
AcDbEntity
8
035
100
AcDbTrace
62
4
6
CONTINUOUS
10
100.3558501110
20
171.3059253200
11
100.1734715150
21
171.3075042059
12
100.2339543447
22
171.2978005364
13
100.2339543447
23
171.2978005364
0
SOLID
5
691
100
AcDbEntity
8
035
100
AcDbTrace
62
4
6
CONTINUOUS
10
100.2339543447
20
171.2978005364
11
100.2952083462
21
171.2972702489
12
100.3558501110
22
171.3059253200
13
100.3558501110
23
171.3059253200
0
CIRCLE
5
692
100
AcDbEntity
8
035
100
AcDbCircle
62
4
6
CONTINUOUS
10
103.3313016096
20
171.8377240521
40
0.4076129692
0
SOLID
5
693
100
AcDbEntity
8
035
100
AcDbTrace
62
4
6
CONTINUOUS
10
103.3724747649
20
172.2432522311
11
103.3112383904
21
172.2448429535
12
103.2504551394
22
172.2372389841
13
103.2504551394
23
172.2372389841
0
SOLID
5
694
100
AcDbEntity
8
035
100
AcDbTrace
62
4
6
CONTINUOUS
10
103.2504551394
20
172.2372389841
11
103.4327812526
21
172.2325027429
12
103.3724747649
22
172.2432522311
13
103.3724747649
23
172.2432522311
0
SOLID
5
695
100
AcDbEntity
8
035
100
AcDbTrace
62
4
6
CONTINUOUS
10
103.4327812526
20
172.2325027429
11
103.2504551394
21
172.2372389841
12
103.1914977883
22
172.2206120569
13
103.1914977883
23
172.2206120569
0
SOLID
5
696
100
AcDbEntity
8
035
100
AcDbTrace
62
4
6
CONTINUOUS
10
103.1914977883
20
172.2206120569
11
103.4907958447
21
172.2128372639
12
103.4327812526
22
172.2325027429
13
103.4327812526
23
172.2325027429
0
SOLID
5
697
100
AcDbEntity
8
035
100
AcDbTrace
62
4
6
CONTINUOUS
10
103.4907958447
20
172.2128372639
11
103.1914977883
21
172.2206120569
12
103.1356978761
22
172.1953376874
13
103.1356978761
23
172.1953376874
0
SOLID
5
698
100
AcDbEntity
8
035
100
AcDbTrace
62
4
6
CONTINUOUS
10
103.1356978761
20
172.1953376874
11
103.5452082941
21
172.1846999345
12
103.4907958447
22
172.2128372639
13
103.4907958447
23
172.2128372639
0
SOLID
5
699
100
AcDbEntity
8
035
100
AcDbTrace
62
4
6
CONTINUOUS
10
103.5452082941
20
172.1846999345
11
103.1356978761
21
172.1953376874
12
103.0843156317
22
172.1619866916
13
103.0843156317
23
172.1619866916
0
SOLID
5
69A
100
AcDbEntity
8
035
100
AcDbTrace
62
4
6
CONTINUOUS
10
103.0843156317
20
172.1619866916
11
103.5947897076
21
172.1487262304
12
103.5452082941
22
172.1846999345
13
103.5452082941
23
172.1846999345
0
SOLID
5
69B
100
AcDbEntity
8
035
100
AcDbTrace
62
4
6
CONTINUOUS
10
103.5947897076
20
172.1487262304
11
103.0843156317
21
172.1619866916
12
103.0385115119
22
172.1213122947
13
103.0385115119
23
172.1213122947
0
SOLID
5
69C
100
AcDbEntity
8
035
100
AcDbTrace
62
4
6
CONTINUOUS
10
103.0385115119
20
172.1213122947
11
103.6384202997
21
172.1057286096
12
103.5947897076
22
172.1487262304
13
103.5947897076
23
172.1487262304
0
SOLID
5
69D
100
AcDbEntity
8
035
100
AcDbTrace
62
4
6
CONTINUOUS
10
103.6384202997
20
172.1057286096
11
103.0385115119
21
172.1213122947
12
102.9993199928
22
172.0742331191
13
102.9993199928
23
172.0742331191
0
SOLID
5
69E
100
AcDbEntity
8
035
100
AcDbTrace
62
4
6
CONTINUOUS
10
102.9993199928
20
172.0742331191
11
103.6751146830
21
172.0566781643
12
103.6384202997
22
172.1057286096
13
103.6384202997
23
172.1057286096
0
SOLID
5
69F
100
AcDbEntity
8
035
100
AcDbTrace
62
4
6
CONTINUOUS
10
103.6751146830
20
172.0566781643
11
102.9993199928
21
172.0742331191
12
102.9676262062
22
172.0218124375
13
102.9676262062
23
172.0218124375
0
SOLID
5
6A0
100
AcDbEntity
8
035
100
AcDbTrace
62
4
6
CONTINUOUS
10
102.9676262062
20
172.0218124375
11
103.7040441228
21
172.0026826879
12
103.6751146830
22
172.0566781643
13
103.6751146830
23
172.0566781643
0
SOLID
5
6A1
100
AcDbEntity
8
035
100
AcDbTrace
62
4
6
CONTINUOUS
10
103.7040441228
20
172.0026826879
11
102.9676262062
21
172.0218124375
12
102.9441459496
22
171.9652341599
13
102.9441459496
23
171.9652341599
0
SOLID
5
6A2
100
AcDbEntity
8
035
100
AcDbTrace
62
4
6
CONTINUOUS
10
102.9441459496
20
171.9652341599
11
103.7245552540
21
171.9449616566
12
103.7040441228
22
172.0026826879
13
103.7040441228
23
172.0026826879
0
SOLID
5
6A3
100
AcDbEntity
8
035
100
AcDbTrace
62
4
6
CONTINUOUS
10
103.7245552540
20
171.9449616566
11
102.9441459496
21
171.9652341599
12
102.9294095193
22
171.9057760942
13
102.9294095193
23
171.9057760942
0
SOLID
5
6A4
100
AcDbEntity
8
035
100
AcDbTrace
62
4
6
CONTINUOUS
10
102.9294095193
20
171.9057760942
11
103.7361848372
21
171.8848186874
12
103.7245552540
22
171.9449616566
13
103.7245552540
23
171.9449616566
0
SOLID
5
6A5
100
AcDbEntity
8
035
100
AcDbTrace
62
4
6
CONTINUOUS
10
103.7361848372
20
171.8848186874
11
102.9294095193
21
171.9057760942
12
102.9237497345
22
171.8447810879
13
102.9237497345
23
171.8447810879
0
SOLID
5
6A6
100
AcDbEntity
8
035
100
AcDbTrace
62
4
6
CONTINUOUS
10
102.9237497345
20
171.8447810879
11
103.7389145788
21
171.8377240521
12
103.7361848372
22
171.8848186874
13
103.7361848372
23
171.8848186874
0
SOLID
5
6A7
100
AcDbEntity
8
035
100
AcDbTrace
62
4
6
CONTINUOUS
10
103.7389145788
20
171.8377240521
11
102.9237497345
21
171.8447810879
12
102.9272944201
22
171.7836267000
13
102.9272944201
23
171.7836267000
0
SOLID
5
6A8
100
AcDbEntity
8
035
100
AcDbTrace
62
4
6
CONTINUOUS
10
102.9272944201
20
171.7836267000
11
103.7343116537
21
171.7766401996
12
103.7389145788
22
171.8377240521
13
103.7389145788
23
171.8377240521
0
SOLID
5
6A9
100
AcDbEntity
8
035
100
AcDbTrace
62
4
6
CONTINUOUS
10
103.7343116537
20
171.7766401996
11
102.9272944201
21
171.7836267000
12
102.9399635202
22
171.7236940890
13
102.9399635202
23
171.7236940890
0
SOLID
5
6AA
100
AcDbEntity
8
035
100
AcDbTrace
62
4
6
CONTINUOUS
10
102.9399635202
20
171.7236940890
11
103.7206068344
21
171.7169359126
12
103.7343116537
22
171.7766401996
13
103.7343116537
23
171.7766401996
0
SOLID
5
6AB
100
AcDbEntity
8
035
100
AcDbTrace
62
4
6
CONTINUOUS
10
103.7206068344
20
171.7169359126
11
102.9399635202
21
171.7236940890
12
102.9614709060
22
171.6663368199
13
102.9614709060
23
171.6663368199
0
SOLID
5
6AC
100
AcDbEntity
8
035
100
AcDbTrace
62
4
6
CONTINUOUS
10
102.9614709060
20
171.6663368199
11
103.6981096412
21
171.6599595995
12
103.7206068344
22
171.7169359126
13
103.7206068344
23
171.7169359126
0
SOLID
5
6AD
100
AcDbEntity
8
035
100
AcDbTrace
62
4
6
CONTINUOUS
10
103.6981096412
20
171.6599595995
11
102.9614709060
21
171.6663368199
12
102.9913308378
22
171.6128502942
13
102.9913308378
23
171.6128502942
0
SOLID
5
6AE
100
AcDbEntity
8
035
100
AcDbTrace
62
4
6
CONTINUOUS
10
102.9913308378
20
171.6128502942
11
103.6673281685
21
171.6069980579
12
103.6981096412
22
171.6599595995
13
103.6981096412
23
171.6599595995
0
SOLID
5
6AF
100
AcDbEntity
8
035
100
AcDbTrace
62
4
6
CONTINUOUS
10
103.6673281685
20
171.6069980579
11
102.9913308378
21
171.6128502942
12
103.0288689355
22
171.5644424935
13
103.0288689355
23
171.5644424935
0
SOLID
5
6B0
100
AcDbEntity
8
035
100
AcDbTrace
62
4
6
CONTINUOUS
10
103.0288689355
20
171.5644424935
11
103.6289576090
21
171.5592474127
12
103.6673281685
22
171.6069980579
13
103.6673281685
23
171.6069980579
0
SOLID
5
6B1
100
AcDbEntity
8
035
100
AcDbTrace
62
4
6
CONTINUOUS
10
103.6289576090
20
171.5592474127
11
103.0288689355
21
171.5644424935
12
103.0732374094
22
171.5222066972
13
103.0732374094
23
171.5222066972
0
SOLID
5
6B2
100
AcDbEntity
8
035
100
AcDbTrace
62
4
6
CONTINUOUS
10
103.0732374094
20
171.5222066972
11
103.5838645535
21
171.5177861018
12
103.6289576090
22
171.5592474127
13
103.6289576090
23
171.5592474127
0
SOLID
5
6B3
100
AcDbEntity
8
035
100
AcDbTrace
62
4
6
CONTINUOUS
10
103.5838645535
20
171.5177861018
11
103.0732374094
21
171.5222066972
12
103.1234342071
22
171.4870967919
13
103.1234342071
23
171.4870967919
0
SOLID
5
6B4
100
AcDbEntity
8
035
100
AcDbTrace
62
4
6
CONTINUOUS
10
103.1234342071
20
171.4870967919
11
103.5330674188
21
171.4835505199
12
103.5838645535
22
171.5177861018
13
103.5838645535
23
171.5177861018
0
SOLID
5
6B5
100
AcDbEntity
8
035
100
AcDbTrace
62
4
6
CONTINUOUS
10
103.5330674188
20
171.4835505199
11
103.1234342071
21
171.4870967919
12
103.1783256448
22
171.4599057269
13
103.1783256448
23
171.4599057269
0
SOLID
5
6B6
100
AcDbEntity
8
035
100
AcDbTrace
62
4
6
CONTINUOUS
10
103.1783256448
20
171.4599057269
11
103.4777134472
21
171.4573138702
12
103.5330674188
22
171.4835505199
13
103.5330674188
23
171.4835505199
0
SOLID
5
6B7
100
AcDbEntity
8
035
100
AcDbTrace
62
4
6
CONTINUOUS
10
103.4777134472
20
171.4573138702
11
103.1783256448
21
171.4599057269
12
103.2366720115
22
171.4412476066
13
103.2366720115
23
171.4412476066
0
SOLID
5
6B8
100
AcDbEntity
8
035
100
AcDbTrace
62
4
6
CONTINUOUS
10
103.2366720115
20
171.4412476066
11
103.4190527961
21
171.4396687018
12
103.4777134472
22
171.4573138702
13
103.4777134472
23
171.4573138702
0
SOLID
5
6B9
100
AcDbEntity
8
035
100
AcDbTrace
62
4
6
CONTINUOUS
10
103.4190527961
20
171.4396687018
11
103.2366720115
21
171.4412476066
12
103.2971555671
22
171.4315438206
13
103.2971555671
23
171.4315438206
0
SOLID
5
6BA
100
AcDbEntity
8
035
100
AcDbTrace
62
4
6
CONTINUOUS
10
103.2971555671
20
171.4315438206
11
103.3584103036
21
171.4310135268
12
103.4190527961
22
171.4396687018
13
103.4190527961
23
171.4396687018
0
ARC
5
6BB
100
AcDbEntity
8
035
100
AcDbCircle
62
4
6
CONTINUOUS
39
1755644792
10
101.9046670025
20
169.3667228047
40
2.8532674730
100
AcDbArc
50
150.0001582036
51
215.0000695714
0
ARC
5
6BC
100
AcDbEntity
8
035
100
AcDbCircle
62
4
6
CONTINUOUS
39
1755644792
10
101.9046698047
20
169.3667179975
40
2.8532674730
100
AcDbArc
50
60.0001582036
51
125.0000695714
0
LINE
5
6BD
100
AcDbEntity
8
035
100
AcDbLine
62
4
6
CONTINUOUS
39
1755644792
10
101.9046660000
20
172.2199902192
11
101.9046660000
21
166.5134477808
0
ARC
5
6BE
100
AcDbEntity
8
035
100
AcDbCircle
62
4
6
CONTINUOUS
39
1755644792
10
101.9046660000
20
169.3667190000
40
4.4837035308
100
AcDbArc
50
180.0000000000
51
360.0000000000
0
ARC
5
6BF
100
AcDbEntity
8
035
100
AcDbCircle
62
4
6
CONTINUOUS
39
1755644792
10
101.9046660000
20
169.3667190000
40
4.4837035308
100
AcDbArc
50
0.0000000000
51
180.0000000000
0
LINE
5
6C0
100
AcDbEntity
8
025
100
AcDbLine
62
4
6
CONTINUOUS
10
86.9805370000
20
149.8014520000
11
87.4084720000
21
144.9101350000
0
LINE
5
6C1
100
AcDbEntity
8
025
100
AcDbLine
62
4
6
CONTINUOUS
10
116.8287950000
20
149.8014520000
11
116.4008600000
21
144.9101350000
0
LINE
5
6C2
100
AcDbEntity
8
025
100
AcDbLine
62
4
6
CONTINUOUS
10
115.1331190000
20
154.6927690000
11
113.5645280000
21
154.6927690000
0
LINE
5
6C3
100
AcDbEntity
8
025
100
AcDbLine
62
4
6
CONTINUOUS
10
116.5722010000
20
154.6927690000
11
115.9174140000
21
154.6927690000
0
LINE
5
6C4
100
AcDbEntity
8
025
100
AcDbLine
62
4
6
CONTINUOUS
10
116.8287950000
20
149.8014520000
11
114.7409710000
21
149.8014520000
0
LINE
5
6C5
100
AcDbEntity
8
025
100
AcDbLine
62
4
6
CONTINUOUS
10
87.2371310000
20
154.6927690000
11
87.6650660000
21
149.8014520000
0
LINE
5
6C6
100
AcDbEntity
8
025
100
AcDbLine
62
4
6
CONTINUOUS
10
116.5722010000
20
154.6927690000
11
116.1442670000
21
149.8014520000
0
LINE
5
6C7
100
AcDbEntity
8
025
100
AcDbLine
62
4
6
CONTINUOUS
10
86.7239430000
20
144.9101350000
11
87.1518780000
21
140.0188190000
0
LINE
5
6C8
100
AcDbEntity
8
025
100
AcDbLine
62
4
6
CONTINUOUS
10
86.4673500000
20
140.0188190000
11
86.8952850000
21
135.1275020000
0
LINE
5
6C9
100
AcDbEntity
8
025
100
AcDbLine
62
4
6
CONTINUOUS
10
115.6293210000
20
118.6749560000
11
116.2677110000
21
106.0841200000
0
LINE
5
6CA
100
AcDbEntity
8
025
100
AcDbLine
62
4
6
CONTINUOUS
10
116.2677110000
20
106.0841200000
11
116.7967890000
21
118.6749560000
0
LINE
5
6CB
100
AcDbEntity
8
025
100
AcDbLine
62
4
6
CONTINUOUS
10
107.3249550000
20
118.6749560000
11
108.6022640000
21
106.0841200000
0
LINE
5
6CC
100
AcDbEntity
8
025
100
AcDbLine
62
4
6
CONTINUOUS
10
114.0448360000
20
118.6749560000
11
114.8864780000
21
106.0841200000
0
LINE
5
6CD
100
AcDbEntity
8
025
100
AcDbLine
62
4
6
CONTINUOUS
10
112.0914780000
20
118.6749560000
11
113.1108000000
21
106.0841200000
0
LINE
5
6CE
100
AcDbEntity
8
025
100
AcDbLine
62
4
6
CONTINUOUS
10
109.8285990000
20
118.6749560000
11
110.9946290000
21
106.0841200000
0
LINE
5
6CF
100
AcDbEntity
8
025
100
AcDbLine
62
4
6
CONTINUOUS
10
108.6022640000
20
106.0841200000
11
109.8285990000
21
118.6749560000
0
LINE
5
6D0
100
AcDbEntity
8
025
100
AcDbLine
62
4
6
CONTINUOUS
10
104.6566190000
20
118.6749560000
11
106.0063960000
21
106.0841200000
0
LINE
5
6D1
100
AcDbEntity
8
025
100
AcDbLine
62
4
6
CONTINUOUS
10
106.0063960000
20
106.0841200000
11
107.3249550000
21
118.6749560000
0
LINE
5
6D2
100
AcDbEntity
8
025
100
AcDbLine
62
4
6
CONTINUOUS
10
99.1527130000
20
118.6749560000
11
97.8029360000
21
106.0841200000
0
LINE
5
6D3
100
AcDbEntity
8
025
100
AcDbLine
62
4
6
CONTINUOUS
10
87.5416220000
20
106.0841200000
11
87.0125430000
21
118.6749560000
0
LINE
5
6D4
100
AcDbEntity
8
025
100
AcDbLine
62
4
6
CONTINUOUS
10
91.7178540000
20
118.6749560000
11
90.6985320000
21
106.0841200000
0
LINE
5
6D5
100
AcDbEntity
8
025
100
AcDbLine
62
4
6
CONTINUOUS
10
90.6985320000
20
106.0841200000
11
89.7644960000
21
118.6749560000
0
LINE
5
6D6
100
AcDbEntity
8
025
100
AcDbLine
62
4
6
CONTINUOUS
10
89.7644960000
20
118.6749560000
11
88.9228540000
21
106.0841200000
0
LINE
5
6D7
100
AcDbEntity
8
025
100
AcDbLine
62
4
6
CONTINUOUS
10
88.9228540000
20
106.0841200000
11
88.1800110000
21
118.6749560000
0
LINE
5
6D8
100
AcDbEntity
8
025
100
AcDbLine
62
4
6
CONTINUOUS
10
88.1800110000
20
118.6749560000
11
87.5416220000
21
106.0841200000
0
LINE
5
6D9
100
AcDbEntity
8
025
100
AcDbLine
62
4
6
CONTINUOUS
10
92.8147030000
20
106.0841200000
11
91.7178540000
21
118.6749560000
0
LINE
5
6DA
100
AcDbEntity
8
025
100
AcDbLine
62
4
6
CONTINUOUS
10
95.2070680000
20
106.0841200000
11
93.9807330000
21
118.6749560000
0
LINE
5
6DB
100
AcDbEntity
8
025
100
AcDbLine
62
4
6
CONTINUOUS
10
93.9807330000
20
118.6749560000
11
92.8147030000
21
106.0841200000
0
LINE
5
6DC
100
AcDbEntity
8
025
100
AcDbLine
62
4
6
CONTINUOUS
10
97.8029360000
20
106.0841200000
11
96.4843770000
21
118.6749560000
0
LINE
5
6DD
100
AcDbEntity
8
025
100
AcDbLine
62
4
6
CONTINUOUS
10
113.6354700000
20
113.1566960000
11
113.9463110000
21
117.3468320000
0
LINE
5
6DE
100
AcDbEntity
8
025
100
AcDbLine
62
4
6
CONTINUOUS
10
111.3444650000
20
110.0999190000
11
111.9874970000
21
117.4813510000
0
LINE
5
6DF
100
AcDbEntity
8
025
100
AcDbLine
62
4
6
CONTINUOUS
10
115.3150670000
20
113.3485050000
11
115.6293210000
21
118.6749560000
0
LINE
5
6E0
100
AcDbEntity
8
025
100
AcDbLine
62
4
6
CONTINUOUS
10
104.3299700000
20
115.6745010000
11
104.6566190000
21
118.6749560000
0
LINE
5
6E1
100
AcDbEntity
8
025
100
AcDbLine
62
4
6
CONTINUOUS
10
101.9046660000
20
118.6749560000
11
102.5510830000
21
112.7824410000
0
LINE
5
6E2
100
AcDbEntity
8
025
100
AcDbLine
62
4
6
CONTINUOUS
10
99.4673030000
20
115.7852710000
11
99.1527130000
21
118.6749560000
0
LINE
5
6E3
100
AcDbEntity
8
025
100
AcDbLine
62
4
6
CONTINUOUS
10
117.3419820000
20
140.0188190000
11
116.9140480000
21
135.1275020000
0
LINE
5
6E4
100
AcDbEntity
8
025
100
AcDbLine
62
4
6
CONTINUOUS
10
116.0481290000
20
140.0188190000
11
114.5448970000
21
140.0188190000
0
LINE
5
6E5
100
AcDbEntity
8
025
100
AcDbLine
62
4
6
CONTINUOUS
10
115.1331190000
20
135.1275020000
11
113.6298870000
21
135.1275020000
0
LINE
5
6E6
100
AcDbEntity
8
025
100
AcDbLine
62
4
6
CONTINUOUS
10
117.5985760000
20
135.1275020000
11
116.3095610000
21
135.1275020000
0
LINE
5
6E7
100
AcDbEntity
8
025
100
AcDbLine
62
4
6
CONTINUOUS
10
99.1527130000
20
121.7291400000
11
99.1527130000
21
127.4793260000
0
LINE
5
6E8
100
AcDbEntity
8
025
100
AcDbLine
62
4
6
CONTINUOUS
10
107.3249550000
20
126.0209120000
11
107.3249550000
21
127.3323900000
0
LINE
5
6E9
100
AcDbEntity
8
025
100
AcDbLine
62
4
6
CONTINUOUS
10
104.6566190000
20
124.4458670000
11
104.6566190000
21
127.4793260000
0
LINE
5
6EA
100
AcDbEntity
8
025
100
AcDbLine
62
4
6
CONTINUOUS
10
104.6566190000
20
121.7291400000
11
104.6566190000
21
123.0309040000
0
LINE
5
6EB
100
AcDbEntity
8
025
100
AcDbLine
62
4
6
CONTINUOUS
10
99.1527130000
20
118.6749560000
11
99.1527130000
21
120.2575790000
0
LINE
5
6EC
100
AcDbEntity
8
025
100
AcDbLine
62
4
6
CONTINUOUS
10
107.3249550000
20
118.6749560000
11
107.3249550000
21
125.2955490000
0
LINE
5
6ED
100
AcDbEntity
8
025
100
AcDbLine
62
4
6
CONTINUOUS
10
104.6566190000
20
118.6749560000
11
104.6566190000
21
120.0311840000
0
LINE
5
6EE
100
AcDbEntity
8
025
100
AcDbLine
62
4
6
CONTINUOUS
10
101.9046660000
20
118.6749560000
11
101.9046660000
21
127.4793260000
0
LINE
5
6EF
100
AcDbEntity
8
025
100
AcDbLine
62
4
6
CONTINUOUS
10
116.7967890000
20
118.6749560000
11
116.7967890000
21
127.4793260000
0
LINE
5
6F0
100
AcDbEntity
8
025
100
AcDbLine
62
4
6
CONTINUOUS
10
109.8285990000
20
118.6749560000
11
109.8285990000
21
127.4793260000
0
LINE
5
6F1
100
AcDbEntity
8
025
100
AcDbLine
62
4
6
CONTINUOUS
10
112.0914780000
20
118.6749560000
11
112.0914780000
21
127.4793260000
0
LINE
5
6F2
100
AcDbEntity
8
025
100
AcDbLine
62
4
6
CONTINUOUS
10
114.0448360000
20
118.6749560000
11
114.0448360000
21
127.4793260000
0
LINE
5
6F3
100
AcDbEntity
8
025
100
AcDbLine
62
4
6
CONTINUOUS
10
115.6293210000
20
118.6749560000
11
115.6293210000
21
127.4793260000
0
LINE
5
6F4
100
AcDbEntity
8
025
100
AcDbLine
62
4
6
CONTINUOUS
10
87.0125430000
20
118.6749560000
11
87.0125430000
21
127.4793260000
0
LINE
5
6F5
100
AcDbEntity
8
025
100
AcDbLine
62
4
6
CONTINUOUS
10
88.1800110000
20
118.6749560000
11
88.1800110000
21
127.4793260000
0
LINE
5
6F6
100
AcDbEntity
8
025
100
AcDbLine
62
4
6
CONTINUOUS
10
89.7644960000
20
118.6749560000
11
89.7644960000
21
127.4793260000
0
LINE
5
6F7
100
AcDbEntity
8
025
100
AcDbLine
62
4
6
CONTINUOUS
10
91.7178540000
20
118.6749560000
11
91.7178540000
21
127.4793260000
0
LINE
5
6F8
100
AcDbEntity
8
025
100
AcDbLine
62
4
6
CONTINUOUS
10
93.9807330000
20
118.6749560000
11
93.9807330000
21
127.4793260000
0
LINE
5
6F9
100
AcDbEntity
8
025
100
AcDbLine
62
4
6
CONTINUOUS
10
96.4843770000
20
118.6749560000
11
96.4843770000
21
127.4793260000
0
LINE
5
6FA
100
AcDbEntity
8
025
100
AcDbLine
62
4
6
CONTINUOUS
10
117.0853890000
20
144.9101350000
11
113.8913170000
21
144.9101350000
0
LINE
5
6FB
100
AcDbEntity
8
025
100
AcDbLine
62
4
6
CONTINUOUS
10
117.0853890000
20
144.9101350000
11
116.6574540000
21
140.0188190000
0
LINE
5
6FC
100
AcDbEntity
8
025
100
AcDbLine
62
4
6
CONTINUOUS
10
95.7224540000
20
111.1644450000
11
95.2070680000
21
106.0841200000
0
LINE
5
6FD
100
AcDbEntity
8
025
100
AcDbLine
62
4
6
CONTINUOUS
10
114.8864780000
20
106.0841200000
11
115.1045570000
21
109.7804490000
0
LINE
5
6FE
100
AcDbEntity
8
025
100
AcDbLine
62
4
6
CONTINUOUS
10
103.2858990000
20
106.0841200000
11
104.0228430000
21
112.8533710000
0
LINE
5
6FF
100
AcDbEntity
8
025
100
AcDbLine
62
4
6
CONTINUOUS
10
102.7248850000
20
111.1981280000
11
103.0834120000
21
107.9299140000
0
LINE
5
700
100
AcDbEntity
8
025
100
AcDbLine
62
4
6
CONTINUOUS
10
101.1233980000
20
111.5531870000
11
100.5234330000
21
106.0841200000
0
LINE
5
701
100
AcDbEntity
8
025
100
AcDbLine
62
4
6
CONTINUOUS
10
100.5234330000
20
106.0841200000
11
99.9530130000
21
111.3237480000
0
LINE
5
702
100
AcDbEntity
8
025
100
AcDbLine
62
4
6
CONTINUOUS
10
96.0714410000
20
114.6045120000
11
95.9617290000
21
113.5230500000
0
LINE
5
703
100
AcDbEntity
8
025
100
AcDbLine
62
4
6
CONTINUOUS
10
113.3946060000
20
109.9098320000
11
113.5769560000
21
112.3679220000
0
LINE
5
704
100
AcDbEntity
8
025
100
AcDbLine
62
4
6
CONTINUOUS
10
115.1456770000
20
110.4774280000
11
115.2348980000
21
111.9896830000
0
LINE
5
705
100
AcDbEntity
8
025
100
AcDbLine
62
4
6
CONTINUOUS
10
99.8494920000
20
112.2746540000
11
99.6824240000
21
113.8092640000
0
LINE
5
706
100
AcDbEntity
8
025
100
AcDbLine
62
4
6
CONTINUOUS
10
110.9946290000
20
106.0841200000
11
111.2919450000
21
109.4970420000
0
LINE
5
707
100
AcDbEntity
8
0
100
AcDbLine
62
4
6
CONTINUOUS
10
102.7046660000
20
257.6518460000
11
141.5266630000
21
257.6518460000
0
LINE
5
708
100
AcDbEntity
8
0
100
AcDbLine
62
4
6
CONTINUOUS
10
112.1624580000
20
70.9743460000
11
141.5266630000
21
70.9743460000
0
LINE
5
709
100
AcDbEntity
8
0
100
AcDbLine
62
4
6
CONTINUOUS
10
140.7266630000
20
254.1518460000
11
140.7266630000
21
74.4743460000
0
LINE
5
70A
100
AcDbEntity
8
0
100
AcDbLine
62
4
6
CONTINUOUS
10
141.3099960000
20
254.1518460000
11
140.7266630000
21
257.6518460000
0
LINE
5
70B
100
AcDbEntity
8
0
100
AcDbLine
62
4
6
CONTINUOUS
10
140.7266630000
20
257.6518460000
11
140.1433290000
21
254.1518460000
0
LINE
5
70C
100
AcDbEntity
8
0
100
AcDbLine
62
4
6
CONTINUOUS
10
140.1433290000
20
254.1518460000
11
141.3099960000
21
254.1518460000
0
SOLID
5
70D
100
AcDbEntity
8
0
100
AcDbTrace
62
4
6
CONTINUOUS
10
140.1433290000
20
254.1518460800
11
141.3099960000
21
254.1518460800
12
140.7266630000
22
257.6518460000
13
140.7266630000
23
257.6518460000
0
LINE
5
70E
100
AcDbEntity
8
0
100
AcDbLine
62
4
6
CONTINUOUS
10
141.3099960000
20
74.4743460000
11
140.7266630000
21
70.9743460000
0
LINE
5
70F
100
AcDbEntity
8
0
100
AcDbLine
62
4
6
CONTINUOUS
10
140.7266630000
20
70.9743460000
11
140.1433290000
21
74.4743460000
0
LINE
5
710
100
AcDbEntity
8
0
100
AcDbLine
62
4
6
CONTINUOUS
10
140.1433290000
20
74.4743460000
11
141.3099960000
21
74.4743460000
0
SOLID
5
711
100
AcDbEntity
8
0
100
AcDbTrace
62
4
6
CONTINUOUS
10
141.3099960000
20
74.4743461440
11
140.1433290000
21
74.4743461440
12
140.7266630000
22
70.9743460000
13
140.7266630000
23
70.9743460000
0
LINE
5
712
100
AcDbEntity
8
0
100
AcDbLine
62
4
6
CONTINUOUS
10
95.6116180000
20
251.9392190000
11
95.6116180000
21
265.0159570000
0
LINE
5
713
100
AcDbEntity
8
0
100
AcDbLine
62
4
6
CONTINUOUS
10
108.1977140000
20
251.9392190000
11
108.1977140000
21
256.0723170000
0
LINE
5
714
100
AcDbEntity
8
0
100
AcDbLine
62
4
6
CONTINUOUS
10
88.2930920000
20
264.2159570000
11
115.5162400000
21
264.2159570000
0
LINE
5
715
100
AcDbEntity
8
0
100
AcDbLine
62
4
6
CONTINUOUS
10
92.1116180000
20
263.6326230000
11
95.6116180000
21
264.2159570000
0
LINE
5
716
100
AcDbEntity
8
0
100
AcDbLine
62
4
6
CONTINUOUS
10
95.6116180000
20
264.2159570000
11
92.1116180000
21
264.7992900000
0
LINE
5
717
100
AcDbEntity
8
0
100
AcDbLine
62
4
6
CONTINUOUS
10
92.1116180000
20
264.7992900000
11
92.1116180000
21
263.6326230000
0
SOLID
5
718
100
AcDbEntity
8
0
100
AcDbTrace
62
4
6
CONTINUOUS
10
95.6116180000
20
264.2159570000
11
92.1116180000
21
264.7992900000
12
92.1116180000
22
263.6326230000
13
92.1116180000
23
263.6326230000
0
LINE
5
719
100
AcDbEntity
8
0
100
AcDbLine
62
4
6
CONTINUOUS
10
111.6977140000
20
263.6326230000
11
108.1977140000
21
264.2159570000
0
LINE
5
71A
100
AcDbEntity
8
0
100
AcDbLine
62
4
6
CONTINUOUS
10
108.1977140000
20
264.2159570000
11
111.6977140000
21
264.7992900000
0
LINE
5
71B
100
AcDbEntity
8
0
100
AcDbLine
62
4
6
CONTINUOUS
10
111.6977140000
20
264.7992900000
11
111.6977140000
21
263.6326230000
0
SOLID
5
71C
100
AcDbEntity
8
0
100
AcDbTrace
62
4
6
CONTINUOUS
10
108.1977140000
20
264.2159570000
11
111.6977140000
21
263.6326230000
12
111.6977140000
22
264.7992900000
13
111.6977140000
23
264.7992900000
0
LINE
5
71D
100
AcDbEntity
8
0
100
AcDbLine
62
4
6
CONTINUOUS
10
108.1977140000
20
259.0676880000
11
108.1977140000
21
265.0159570000
0
LINE
5
71E
100
AcDbEntity
8
025
100
AcDbLine
62
4
6
CONTINUOUS
10
116.7967890000
20
118.6749560000
11
117.2356430000
21
106.0841200000
0
LINE
5
71F
100
AcDbEntity
8
025
100
AcDbLine
62
4
6
CONTINUOUS
10
117.6744970000
20
118.6749560000
11
117.2356430000
21
106.0841200000
0
LINE
5
720
100
AcDbEntity
8
025
100
AcDbLine
62
4
6
CONTINUOUS
10
117.6744970000
20
118.6749560000
11
117.6744970000
21
127.4541610000
0
LINE
5
721
100
AcDbEntity
8
025
100
AcDbLine
62
4
6
CONTINUOUS
10
117.6744970000
20
118.6749560000
11
117.7797660000
21
113.8654430000
0
LINE
5
722
100
AcDbEntity
8
025
100
AcDbLine
62
4
6
CONTINUOUS
10
87.0125430000
20
118.6749560000
11
86.5736890000
21
106.0841200000
0
LINE
5
723
100
AcDbEntity
8
025
100
AcDbLine
62
4
6
CONTINUOUS
10
86.1348350000
20
118.6749560000
11
86.5736890000
21
106.0841200000
0
LINE
5
724
100
AcDbEntity
8
025
100
AcDbLine
62
4
6
CONTINUOUS
10
86.1348350000
20
118.6749560000
11
86.0295660000
21
113.8654430000
0
LINE
5
725
100
AcDbEntity
8
025
100
AcDbLine
62
4
6
CONTINUOUS
10
86.1348350000
20
118.6749560000
11
86.1348350000
21
127.4541610000
0
LINE
5
726
100
AcDbEntity
8
0
100
AcDbLine
62
4
6
CONTINUOUS
10
85.7068470000
20
117.6805370000
11
85.7068470000
21
56.8682560000
0
LINE
5
727
100
AcDbEntity
8
0
100
AcDbLine
62
4
6
CONTINUOUS
10
118.1024850000
20
117.6805370000
11
118.1024850000
21
72.9051160000
0
LINE
5
728
100
AcDbEntity
8
0
100
AcDbLine
62
4
6
CONTINUOUS
10
89.2068470000
20
57.6682560000
11
114.6024850000
21
57.6682560000
0
LINE
5
729
100
AcDbEntity
8
0
100
AcDbLine
62
4
6
CONTINUOUS
10
89.2068470000
20
57.0849230000
11
85.7068470000
21
57.6682560000
0
LINE
5
72A
100
AcDbEntity
8
0
100
AcDbLine
62
4
6
CONTINUOUS
10
85.7068470000
20
57.6682560000
11
89.2068470000
21
58.2515890000
0
LINE
5
72B
100
AcDbEntity
8
0
100
AcDbLine
62
4
6
CONTINUOUS
10
89.2068470000
20
58.2515890000
11
89.2068470000
21
57.0849230000
0
SOLID
5
72C
100
AcDbEntity
8
0
100
AcDbTrace
62
4
6
CONTINUOUS
10
85.7068470000
20
57.6682560000
11
89.2068470000
21
57.0849230000
12
89.2068470000
22
58.2515890000
13
89.2068470000
23
58.2515890000
0
LINE
5
72D
100
AcDbEntity
8
0
100
AcDbLine
62
4
6
CONTINUOUS
10
114.6024850000
20
57.0849230000
11
118.1024850000
21
57.6682560000
0
LINE
5
72E
100
AcDbEntity
8
0
100
AcDbLine
62
4
6
CONTINUOUS
10
118.1024850000
20
57.6682560000
11
114.6024850000
21
58.2515890000
0
LINE
5
72F
100
AcDbEntity
8
0
100
AcDbLine
62
4
6
CONTINUOUS
10
114.6024850000
20
58.2515890000
11
114.6024850000
21
57.0849230000
0
SOLID
5
730
100
AcDbEntity
8
0
100
AcDbTrace
62
4
6
CONTINUOUS
10
118.1024850000
20
57.6682560000
11
114.6024850000
21
58.2515890000
12
114.6024850000
22
57.0849230000
13
114.6024850000
23
57.0849230000
0
LINE
5
731
100
AcDbEntity
8
0
100
AcDbLine
62
4
6
CONTINUOUS
10
118.1024850000
20
69.0959010000
11
118.1024850000
21
56.8682560000
0
TEXT
5
732
100
AcDbEntity
8
05
100
AcDbText
62
4
6
CONTINUOUS
10
155.0000000000
20
11.0000000000
40
1.5000000000
1
Zeichn. Nr.
51
15.0000000000
72
5
11
166.1785714286
21
11.0000000000
100
AcDbText
0
TEXT
5
733
100
AcDbEntity
8
05
100
AcDbText
62
4
6
CONTINUOUS
10
155.0000000000
20
28.0000000000
40
1.5000000000
1
Ersetzt durch:         Blatt
51
15.0000000000
72
5
11
184.1428571429
21
28.0000000000
100
AcDbText
0
TEXT
5
734
100
AcDbEntity
8
05
100
AcDbText
62
4
6
CONTINUOUS
10
155.0000000000
20
43.0000000000
40
1.5000000000
1
Gezeichnet
51
15.0000000000
72
5
11
165.2142857143
21
43.0000000000
100
AcDbText
0
TEXT
5
735
100
AcDbEntity
8
05
100
AcDbText
62
4
6
CONTINUOUS
10
155.0000000000
20
32.0000000000
40
1.5000000000
1
Gesehen
51
15.0000000000
72
5
11
162.6071428571
21
32.0000000000
100
AcDbText
0
TEXT
5
736
100
AcDbEntity
8
05
100
AcDbText
62
4
6
CONTINUOUS
10
174.0000000000
20
47.0000000000
40
1.5000000000
1
Datum     Name
51
15.0000000000
72
5
11
190.3571428571
21
47.0000000000
100
AcDbText
0
TEXT
5
737
100
AcDbEntity
8
05
100
AcDbText
62
4
6
CONTINUOUS
10
114.0000000000
20
47.0000000000
40
1.5000000000
1
Werkstoff:      Massstab:
51
15.0000000000
72
5
11
140.5714285714
21
47.0000000000
100
AcDbText
0
TEXT
5
738
100
AcDbEntity
8
05
100
AcDbText
62
4
6
CONTINUOUS
10
73.0000000000
20
28.0000000000
40
1.5000000000
1
Benennung:
51
15.0000000000
72
5
11
83.2857142857
21
28.0000000000
100
AcDbText
0
TEXT
5
739
100
AcDbEntity
8
05
100
AcDbText
62
4
6
CONTINUOUS
10
73.0000000000
20
44.0000000000
40
1.5000000000
1
*)Lieferant darf ohne 
51
15.0000000000
72
5
11
95.1428571429
21
44.0000000000
100
AcDbText
0
TEXT
5
73A
100
AcDbEntity
8
05
100
AcDbText
62
4
6
CONTINUOUS
10
73.0000000000
20
41.5000000000
40
1.5000000000
1
 Ruecksprache nicht 
51
15.0000000000
72
5
11
93.9285714286
21
41.5000000000
100
AcDbText
0
TEXT
5
73B
100
AcDbEntity
8
05
100
AcDbText
62
4
6
CONTINUOUS
10
73.0000000000
20
39.0000000000
40
1.5000000000
1
 geaendert werden
51
15.0000000000
72
5
11
91.4285714286
21
39.0000000000
100
AcDbText
0
TEXT
5
73C
100
AcDbEntity
8
05
100
AcDbText
62
4
6
CONTINUOUS
10
73.0000000000
20
35.0000000000
40
1.5000000000
1
Zeichnung urheberrechtlich
51
15.0000000000
72
5
11
99.3214285714
21
35.0000000000
100
AcDbText
0
TEXT
5
73D
100
AcDbEntity
8
05
100
AcDbText
62
4
6
CONTINUOUS
10
73.0000000000
20
32.5000000000
40
1.5000000000
1
geschuetzt (DIN 34) (C)
51
15.0000000000
72
5
11
96.2857142857
21
32.5000000000
100
AcDbText
0
TEXT
5
73E
100
AcDbEntity
8
05
100
AcDbText
62
4
6
CONTINUOUS
10
155.0000000000
20
37.0000000000
40
1.5000000000
1
Geprueft
51
15.0000000000
72
5
11
163.1428571429
21
37.0000000000
100
AcDbText
0
TEXT
5
73F
100
AcDbEntity
8
05
100
AcDbText
62
4
6
CONTINUOUS
10
155.0000000000
20
20.0000000000
40
1.5000000000
1
Ersatz fuer:           von  Blatt
51
15.0000000000
72
5
11
190.0357142857
21
20.0000000000
100
AcDbText
0
TEXT
5
740
100
AcDbEntity
8
05
100
AcDbText
62
4
6
CONTINUOUS
10
8.0000000000
20
6.0000000000
40
1.5000000000
1
Ind.  Aenderung             Datum   
51
15.0000000000
72
5
11
48.6785714286
21
6.0000000000
100
AcDbText
0
TEXT
5
741
100
AcDbEntity
8
05
100
AcDbText
62
4
6
CONTINUOUS
10
48.6785714286
20
6.0000000000
40
1.5000000000
1
 Name
51
15.0000000000
72
5
11
54.5714285714
21
6.0000000000
100
AcDbText
0
TEXT
5
742
100
AcDbEntity
8
035
100
AcDbText
62
4
6
CONTINUOUS
10
127.4230740000
20
8.2646360000
40
2.4848480000
1
FL-9494 SCHAAN
51
15.0000000000
72
5
11
154.5197498095
21
8.2646360000
100
AcDbText
0
TEXT
5
743
100
AcDbEntity
8
05
100
AcDbText
62
4
6
CONTINUOUS
10
190.8452380952
20
42.0000000000
40
2.5000000000
1
Alinjak
72
5
11
202.1547619048
21
42.0000000000
100
AcDbText
0
TEXT
5
744
100
AcDbEntity
8
05
100
AcDbText
62
4
6
CONTINUOUS
10
173.4464285714
20
42.0000000000
40
2.5000000000
1
10.08.98
51
15.0000000000
72
5
11
187.5535714286
21
42.0000000000
100
AcDbText
0
TEXT
5
745
100
AcDbEntity
8
05
100
AcDbText
62
2
6
CONTINUOUS
10
105.0238095238
20
17.5000000000
40
5.0000000000
1
NP2C
51
15.0000000000
72
5
11
120.9761904762
21
17.5000000000
100
AcDbText
0
TEXT
5
746
100
AcDbEntity
8
05
100
AcDbText
62
3
6
CONTINUOUS
10
96.0012096667
20
26.0821910000
40
3.5000000000
1
1/4" Phone Plugs
51
15.0000000000
72
5
11
135.9178763333
21
26.0821910000
100
AcDbText
0
TEXT
5
747
100
AcDbEntity
8
05
100
AcDbText
62
3
6
CONTINUOUS
10
167.8247810000
20
6.9765410000
40
3.5000000000
1
3102 St 06 01
51
15.0000000000
72
5
11
201.0747810000
21
6.9765410000
100
AcDbText
0
TEXT
5
748
100
AcDbEntity
8
05
100
AcDbText
62
2
6
CONTINUOUS
10
140.1482807143
20
39.6560560000
40
5.0000000000
1
2:1
51
15.0000000000
72
5
11
148.7197092857
21
39.6560560000
100
AcDbText
0
TEXT
5
749
100
AcDbEntity
8
035
100
AcDbText
62
3
6
CONTINUOUS
10
88.9174800000
20
276.6346190000
40
5.5000000000
1
NP2C
51
12.0000000000
72
5
11
106.4650990476
21
276.6346190000
100
AcDbText
0
TEXT
5
74A
100
AcDbEntity
8
0
100
AcDbText
62
3
6
CONTINUOUS
10
139.7266630000
20
147.5630960000
40
3.5000000000
1
95.00 [3.740"]
50
90.0000000000
72
5
11
139.7266630000
21
181.0630960000
100
AcDbText
0
TEXT
5
74B
100
AcDbEntity
8
0
100
AcDbText
62
3
6
CONTINUOUS
10
84.6007326667
20
265.9435760000
40
3.5000000000
1
%%c6.29 [0.248"]
72
5
11
120.5173993333
21
265.9435760000
100
AcDbText
0
TEXT
5
74C
100
AcDbEntity
8
0
100
AcDbText
62
3
6
CONTINUOUS
10
84.0380306667
20
59.0109120000
40
3.5000000000
1
%%c16.20 [0.638"]
72
5
11
121.7046973333
21
59.0109120000
100
AcDbText
0
ENDSEC
0
SECTION
2
OBJECTS
0
DICTIONARY
5
74D
100
AcDbDictionary
3
ACAD_GROUP
350
74E
3
ACAD_MLINESTYLE
350
74F
0
DICTIONARY
5
74E
102
{ACAD_REACTORS
330
74D
102
}
100
AcDbDictionary
0
DICTIONARY
5
74F
102
{ACAD_REACTORS
330
74D
102
}
100
AcDbDictionary
3
STANDARD
350
750
0
MLINESTYLE
5
750
102
{ACAD_REACTORS
330
74F
102
}
100
AcDbMlineStyle
2
STANDARD
70
0
3

62
256
51
90.0
52
90.0
71
2
49
0.5
62
256
6
BYLAYER
49
-0.5
62
256
6
BYLAYER
0
ENDSEC
0
EOF
