999
DXF file: np3c-bag.dxf
999
Pro/ENGINEER 2001040 by Parametric Technology Corporation
0
SECTION
2
HEADER
9
$ACADVER
1
AC1012
9
$EXTMAX
10
210.0000000000
20
297.0000000000
9
$EXTMIN
10
0.0000000000
20
0.0000000000
9
$LIMMIN
10
0.0000000000
20
0.0000000000
9
$LIMMAX
10
210.0000000000
20
297.0000000000
9
$VIEWCTR
10
105.0000000000
20
148.5000000000
9
$VIEWSIZE
40
297.0000000000
9
$CLAYER
8
0
9
$LTSCALE
40
19.3600000000
9
$CELTYPE
6
BYLAYER
9
$DIMSCALE
40
1
9
$DIMASZ
40
3.5000000000
9
$DIMEXO
40
2.2000000000
9
$DIMDLI
40
13.3760000000
9
$DIMEXE
40
6.3360000000
9
$DIMCEN
40
3.1680000000
9
$DIMTXT
40
3.9776785714
9
$DIMLFAC
40
1.0000000000
0
ENDSEC
0
SECTION
2
CLASSES
0
ENDSEC
0
SECTION
2
TABLES
0
TABLE
2
VPORT
5
1F4
100
AcDbSymbolTable
70
2
0
VPORT
5
1F5
100
AcDbSymbolTableRecord
100
AcDbViewportTableRecord
2
*ACTIVE
70
0
10
0.0
20
0.0
11
1.0
21
1.0
12
105.0000000000
22
148.5000000000
13
0.0
23
0.0
14
1.0
24
1.0
15
0.0
25
0.0
16
0.0
26
0.0
36
1.0
17
0.0
27
0.0
37
0.0
40
297.0000000000
41
0.7070707071
42
50.0
43
0.0
44
0.0
50
0.0
51
0.0
71
0
72
100
73
1
74
1
75
0
76
0
77
0
78
0
0
ENDTAB
0
TABLE
2
LTYPE
5
1F6
100
AcDbSymbolTable
70
6
0
LTYPE
5
1F7
100
AcDbSymbolTableRecord
100
AcDbLinetypeTableRecord
2
BYBLOCK
70
0
3

72
65
73
0
40
0.0
0
LTYPE
5
1F8
100
AcDbSymbolTableRecord
100
AcDbLinetypeTableRecord
2
BYLAYER
70
0
3

72
65
73
0
40
0.0
0
LTYPE
5
1F9
100
AcDbSymbolTableRecord
100
AcDbLinetypeTableRecord
2
CONTINUOUS
70
64
3
Solid line
72
65
73
0
40
0
0
LTYPE
5
1FA
100
AcDbSymbolTableRecord
100
AcDbLinetypeTableRecord
2
CENTER
70
64
3
____ _ ____ _ ____ _ ____ _ ____ _ ____ _ ____
72
65
73
4
40
0.6
49
0.375
74
0
49
-0.075
74
0
49
0.075
74
0
49
-0.075
74
0
0
LTYPE
5
1FB
100
AcDbSymbolTableRecord
100
AcDbLinetypeTableRecord
2
HIDDEN
70
64
3
- - - - - - - - - - - - - - - - - - - -
72
65
73
2
40
0.2
49
0.1
74
0
49
-0.1
74
0
0
LTYPE
5
1FC
100
AcDbSymbolTableRecord
100
AcDbLinetypeTableRecord
2
PHANTOM
70
64
3
_____ _ _ _____ _ _ _____ _ _ _____
72
65
73
6
40
0.8
49
0.45
74
0
49
-0.05
74
0
49
0.1
74
0
49
-0.05
74
0
49
0.1
74
0
49
-0.05
74
0
0
LTYPE
5
1FD
100
AcDbSymbolTableRecord
100
AcDbLinetypeTableRecord
2
DOT
70
64
3
. . . . . . . . . . . . . . . . . . . .
72
65
73
2
40
0.2
49
0.1
74
0
49
-0.1
74
0
0
LTYPE
5
1FE
100
AcDbSymbolTableRecord
100
AcDbLinetypeTableRecord
2
DASHED
70
64
3
- - - - - - - - - - - - - - - - - - - -
72
65
73
2
40
0.2
49
0.1
74
0
49
-0.1
74
0
0
ENDTAB
0
TABLE
2
LAYER
5
1FF
100
AcDbSymbolTable
70
36
0
LAYER
5
200
100
AcDbSymbolTableRecord
100
AcDbLayerTableRecord
2
0
70
0
62
7
6
CONTINUOUS
0
LAYER
5
201
100
AcDbSymbolTableRecord
100
AcDbLayerTableRecord
2
DEFAULT_1
70
0
62
7
6
CENTER
0
LAYER
5
202
100
AcDbSymbolTableRecord
100
AcDbLayerTableRecord
2
DEFAULT_2
70
0
62
8
6
HIDDEN
0
LAYER
5
203
100
AcDbSymbolTableRecord
100
AcDbLayerTableRecord
2
DEFAULT_3
70
0
62
7
6
PHANTOM
0
LAYER
5
204
100
AcDbSymbolTableRecord
100
AcDbLayerTableRecord
2
0
70
0
62
7
6
CONTINUOUS
0
LAYER
5
205
100
AcDbSymbolTableRecord
100
AcDbLayerTableRecord
2
010
70
0
62
7
6
CONTINUOUS
0
LAYER
5
206
100
AcDbSymbolTableRecord
100
AcDbLayerTableRecord
2
025
70
0
62
7
6
CONTINUOUS
0
LAYER
5
207
100
AcDbSymbolTableRecord
100
AcDbLayerTableRecord
2
035
70
0
62
7
6
CONTINUOUS
0
LAYER
5
208
100
AcDbSymbolTableRecord
100
AcDbLayerTableRecord
2
05
70
0
62
7
6
CONTINUOUS
0
LAYER
5
209
100
AcDbSymbolTableRecord
100
AcDbLayerTableRecord
2
BEM
70
0
62
7
6
CONTINUOUS
0
LAYER
5
20A
100
AcDbSymbolTableRecord
100
AcDbLayerTableRecord
2
DEFPOINTS
70
0
62
7
6
CONTINUOUS
0
LAYER
5
20B
100
AcDbSymbolTableRecord
100
AcDbLayerTableRecord
2
MITTE
70
0
62
7
6
CONTINUOUS
0
LAYER
5
20C
100
AcDbSymbolTableRecord
100
AcDbLayerTableRecord
2
RAHMEN
70
0
62
7
6
CONTINUOUS
0
ENDTAB
0
TABLE
2
STYLE
5
20D
100
AcDbSymbolTable
70
1
0
STYLE
5
20E
100
AcDbSymbolTableRecord
100
AcDbTextStyleTableRecord
2
STANDARD
70
0
40
0.0
41
0.80
50
0.0
71
0
42
0.2
3
txt
4

0
ENDTAB
0
TABLE
2
VIEW
5
20F
100
AcDbSymbolTable
70
0
0
ENDTAB
0
TABLE
2
UCS
5
210
100
AcDbSymbolTable
70
0
0
ENDTAB
0
TABLE
2
APPID
5
211
100
AcDbSymbolTable
70
1
0
APPID
5
212
100
AcDbSymbolTableRecord
100
AcDbRegAppTableRecord
2
ACAD
70
0
0
ENDTAB
0
TABLE
2
DIMSTYLE
5
213
100
AcDbSymbolTable
0
DIMSTYLE
105
214
100
AcDbSymbolTableRecord
100
AcDbDimStyleTableRecord
2
STANDARD
70
0
3

4

5

6

7

40
1.0
41
0.18
42
0.0625
43
0.38
44
0.18
45
0.0
46
0.0
47
0.0
48
0.0
140
0.18
141
0.09
142
0.0
143
25.4
144
1.0
145
0.0
146
1.0
147
0.09
71
0
72
0
73
1
74
1
75
0
76
0
77
0
78
0
170
0
171
2
172
0
173
0
174
0
175
0
176
0
177
0
178
0
270
2
271
4
272
4
273
2
274
2
340
20E
275
0
280
0
281
0
282
0
283
1
284
0
285
0
286
0
287
3
288
0
0
ENDTAB
0
TABLE
2
BLOCK_RECORD
5
215
100
AcDbSymbolTable
70
0
0
BLOCK_RECORD
5
216
100
AcDbSymbolTableRecord
100
AcDbBlockTableRecord
2
*MODEL_SPACE
0
BLOCK_RECORD
5
217
100
AcDbSymbolTableRecord
100
AcDbBlockTableRecord
2
*PAPER_SPACE
0
ENDTAB
0
ENDSEC
0
SECTION
2
BLOCKS
0
BLOCK
5
218
100
AcDbEntity
8
0
100
AcDbBlockBegin
2
*MODEL_SPACE
70
0
10
0.0000000000
20
0.0000000000
3
*MODEL_SPACE
1

3
*MODEL_SPACE
1

0
ENDBLK
5
219
100
AcDbEntity
8
0
100
AcDbBlockEnd
0
BLOCK
5
21A
100
AcDbEntity
8
0
100
AcDbBlockBegin
2
*PAPER_SPACE
70
0
10
0.0000000000
20
0.0000000000
3
*PAPER_SPACE
1

3
*PAPER_SPACE
1

0
ENDBLK
5
21B
100
AcDbEntity
8
0
100
AcDbBlockEnd
0
ENDSEC
0
SECTION
2
ENTITIES
0
LINE
5
21C
100
AcDbEntity
8
0
100
AcDbLine
62
7
6
CONTINUOUS
10
0.0000000000
20
0.0000000000
11
210.0000000000
21
0.0000000000
0
LINE
5
21D
100
AcDbEntity
8
0
100
AcDbLine
62
7
6
CONTINUOUS
10
210.0000000000
20
0.0000000000
11
210.0000000000
21
297.0000000000
0
LINE
5
21E
100
AcDbEntity
8
0
100
AcDbLine
62
7
6
CONTINUOUS
10
0.0000000000
20
297.0000000000
11
210.0000000000
21
297.0000000000
0
LINE
5
21F
100
AcDbEntity
8
0
100
AcDbLine
62
7
6
CONTINUOUS
10
0.0000000000
20
0.0000000000
11
0.0000000000
21
297.0000000000
0
LINE
5
220
100
AcDbEntity
8
010
100
AcDbLine
62
7
6
CONTINUOUS
10
110.2403340000
20
254.3592520000
11
109.3763830000
21
254.3592520000
0
LINE
5
221
100
AcDbEntity
8
010
100
AcDbLine
62
7
6
CONTINUOUS
10
111.9202370000
20
254.3592520000
11
111.2482760000
21
254.3592520000
0
LINE
5
222
100
AcDbEntity
8
010
100
AcDbLine
62
7
6
CONTINUOUS
10
112.6881930000
20
254.3592520000
11
112.2562170000
21
254.3592520000
0
LINE
5
223
100
AcDbEntity
8
010
100
AcDbLine
62
7
6
CONTINUOUS
10
109.3283870000
20
251.9561540000
11
104.8354710000
21
251.9561540000
0
LINE
5
224
100
AcDbEntity
8
010
100
AcDbLine
62
7
6
CONTINUOUS
10
111.1813140000
20
251.9561540000
11
110.1998970000
21
251.9561540000
0
LINE
5
225
100
AcDbEntity
8
010
100
AcDbLine
62
7
6
CONTINUOUS
10
107.7174830000
20
250.1166450000
11
103.1367450000
21
250.1166450000
0
LINE
5
226
100
AcDbEntity
8
010
100
AcDbLine
62
7
6
CONTINUOUS
10
109.4598020000
20
250.1166450000
11
108.5361120000
21
250.1166450000
0
LINE
5
227
100
AcDbEntity
8
010
100
AcDbLine
62
7
6
CONTINUOUS
10
110.7390520000
20
250.1166450000
11
110.1998970000
21
250.1166450000
0
LINE
5
228
100
AcDbEntity
8
010
100
AcDbLine
62
7
6
CONTINUOUS
10
91.4687650000
20
109.4932690000
11
91.4687650000
21
130.8884750000
0
LINE
5
229
100
AcDbEntity
8
010
100
AcDbLine
62
7
6
CONTINUOUS
10
97.7097800000
20
124.1195160000
11
97.7097800000
21
130.8884750000
0
LINE
5
22A
100
AcDbEntity
8
010
100
AcDbLine
62
7
6
CONTINUOUS
10
95.5936090000
20
113.8185870000
11
95.5936090000
21
130.0057600000
0
LINE
5
22B
100
AcDbEntity
8
010
100
AcDbLine
62
7
6
CONTINUOUS
10
93.8179300000
20
114.5543670000
11
93.8179300000
21
130.2887530000
0
LINE
5
22C
100
AcDbEntity
8
010
100
AcDbLine
62
7
6
CONTINUOUS
10
100.1021450000
20
109.4932690000
11
100.1021450000
21
130.8884750000
0
LINE
5
22D
100
AcDbEntity
8
010
100
AcDbLine
62
7
6
CONTINUOUS
10
102.6980130000
20
109.4932690000
11
102.6980130000
21
130.8884750000
0
LINE
5
22E
100
AcDbEntity
8
010
100
AcDbLine
62
7
6
CONTINUOUS
10
108.1809750000
20
109.4932690000
11
108.1809750000
21
130.8884750000
0
LINE
5
22F
100
AcDbEntity
8
010
100
AcDbLine
62
7
6
CONTINUOUS
10
110.9014720000
20
109.4932690000
11
110.9014720000
21
130.8884750000
0
LINE
5
230
100
AcDbEntity
8
010
100
AcDbLine
62
7
6
CONTINUOUS
10
113.4973400000
20
109.4932690000
11
113.4973400000
21
130.8884750000
0
LINE
5
231
100
AcDbEntity
8
010
100
AcDbLine
62
7
6
CONTINUOUS
10
105.4185100000
20
113.0828060000
11
105.4185100000
21
130.8884750000
0
LINE
5
232
100
AcDbEntity
8
010
100
AcDbLine
62
7
6
CONTINUOUS
10
97.7097800000
20
109.4932690000
11
97.7097800000
21
119.0822490000
0
LINE
5
233
100
AcDbEntity
8
010
100
AcDbLine
62
7
6
CONTINUOUS
10
97.7097800000
20
121.3461880000
11
97.7097800000
21
123.1573410000
0
LINE
5
234
100
AcDbEntity
8
010
100
AcDbLine
62
7
6
CONTINUOUS
10
122.1307190000
20
109.4932690000
11
122.1307190000
21
130.8884750000
0
LINE
5
235
100
AcDbEntity
8
010
100
AcDbLine
62
7
6
CONTINUOUS
10
115.8897050000
20
109.4932690000
11
115.8897050000
21
130.8884750000
0
LINE
5
236
100
AcDbEntity
8
010
100
AcDbLine
62
7
6
CONTINUOUS
10
118.0058760000
20
109.4932690000
11
118.0058760000
21
130.8884750000
0
LINE
5
237
100
AcDbEntity
8
010
100
AcDbLine
62
7
6
CONTINUOUS
10
119.7815540000
20
109.4932690000
11
119.7815540000
21
130.8884750000
0
LINE
5
238
100
AcDbEntity
8
010
100
AcDbLine
62
7
6
CONTINUOUS
10
121.1627870000
20
110.8725540000
11
121.1627870000
21
130.8884750000
0
LINE
5
239
100
AcDbEntity
8
MITTE
100
AcDbLine
62
4
6
CENTER
10
106.7997420000
20
210.2519790000
11
106.7997420000
21
72.2789470000
0
LINE
5
23A
100
AcDbEntity
8
MITTE
100
AcDbLine
62
4
6
CENTER
10
106.7997420000
20
263.0247400000
11
106.7997420000
21
192.9520250000
0
LINE
5
23B
100
AcDbEntity
8
RAHMEN
100
AcDbLine
62
2
6
CONTINUOUS
10
205.0000000000
20
5.0000000000
11
205.0000000000
21
292.0000000000
0
LINE
5
23C
100
AcDbEntity
8
RAHMEN
100
AcDbLine
62
2
6
CONTINUOUS
10
205.0000000000
20
292.0000000000
11
5.0000000000
21
292.0000000000
0
LINE
5
23D
100
AcDbEntity
8
RAHMEN
100
AcDbLine
62
2
6
CONTINUOUS
10
5.0000000000
20
292.0000000000
11
5.0000000000
21
5.0000000000
0
LINE
5
23E
100
AcDbEntity
8
RAHMEN
100
AcDbLine
62
2
6
CONTINUOUS
10
5.0000000000
20
5.0000000000
11
205.0000000000
21
5.0000000000
0
LINE
5
23F
100
AcDbEntity
8
05
100
AcDbLine
62
2
6
CONTINUOUS
10
154.0000000000
20
5.0000000000
11
154.0000000000
21
51.0000000000
0
LINE
5
240
100
AcDbEntity
8
05
100
AcDbLine
62
2
6
CONTINUOUS
10
188.0000000000
20
14.0000000000
11
188.0000000000
21
51.0000000000
0
LINE
5
241
100
AcDbEntity
8
05
100
AcDbLine
62
2
6
CONTINUOUS
10
173.0000000000
20
31.0000000000
11
173.0000000000
21
51.0000000000
0
LINE
5
242
100
AcDbEntity
8
05
100
AcDbLine
62
2
6
CONTINUOUS
10
72.0000000000
20
46.0000000000
11
113.0000000000
21
46.0000000000
0
LINE
5
243
100
AcDbEntity
8
05
100
AcDbLine
62
2
6
CONTINUOUS
10
60.0000000000
20
5.0000000000
11
60.0000000000
21
51.0000000000
0
LINE
5
244
100
AcDbEntity
8
05
100
AcDbLine
62
2
6
CONTINUOUS
10
47.0000000000
20
5.0000000000
11
47.0000000000
21
51.0000000000
0
LINE
5
245
100
AcDbEntity
8
05
100
AcDbLine
62
2
6
CONTINUOUS
10
5.0000000000
20
11.0000000000
11
72.0000000000
21
11.0000000000
0
LINE
5
246
100
AcDbEntity
8
05
100
AcDbLine
62
2
6
CONTINUOUS
10
72.0000000000
20
38.0000000000
11
113.0000000000
21
38.0000000000
0
LINE
5
247
100
AcDbEntity
8
05
100
AcDbLine
62
2
6
CONTINUOUS
10
14.0000000000
20
5.0000000000
11
14.0000000000
21
51.0000000000
0
LINE
5
248
100
AcDbEntity
8
05
100
AcDbLine
62
2
6
CONTINUOUS
10
72.0000000000
20
5.0000000000
11
72.0000000000
21
51.0000000000
0
LINE
5
249
100
AcDbEntity
8
05
100
AcDbLine
62
2
6
CONTINUOUS
10
113.0000000000
20
31.0000000000
11
113.0000000000
21
51.0000000000
0
LINE
5
24A
100
AcDbEntity
8
05
100
AcDbLine
62
2
6
CONTINUOUS
10
136.0000000000
20
31.0000000000
11
136.0000000000
21
51.0000000000
0
LINE
5
24B
100
AcDbEntity
8
05
100
AcDbLine
62
2
6
CONTINUOUS
10
205.0000000000
20
5.0000000000
11
205.0000000000
21
51.0000000000
0
LINE
5
24C
100
AcDbEntity
8
05
100
AcDbLine
62
2
6
CONTINUOUS
10
5.0000000000
20
51.0000000000
11
5.0000000000
21
5.0000000000
0
LINE
5
24D
100
AcDbEntity
8
05
100
AcDbLine
62
2
6
CONTINUOUS
10
205.0000000000
20
14.0000000000
11
72.0000000000
21
14.0000000000
0
LINE
5
24E
100
AcDbEntity
8
05
100
AcDbLine
62
2
6
CONTINUOUS
10
205.0000000000
20
23.0000000000
11
154.0000000000
21
23.0000000000
0
LINE
5
24F
100
AcDbEntity
8
05
100
AcDbLine
62
2
6
CONTINUOUS
10
205.0000000000
20
31.0000000000
11
72.0000000000
21
31.0000000000
0
LINE
5
250
100
AcDbEntity
8
05
100
AcDbLine
62
2
6
CONTINUOUS
10
205.0000000000
20
36.0000000000
11
154.0000000000
21
36.0000000000
0
LINE
5
251
100
AcDbEntity
8
05
100
AcDbLine
62
2
6
CONTINUOUS
10
205.0000000000
20
41.0000000000
11
154.0000000000
21
41.0000000000
0
LINE
5
252
100
AcDbEntity
8
05
100
AcDbLine
62
2
6
CONTINUOUS
10
205.0000000000
20
46.0000000000
11
154.0000000000
21
46.0000000000
0
LINE
5
253
100
AcDbEntity
8
05
100
AcDbLine
62
2
6
CONTINUOUS
10
205.0000000000
20
51.0000000000
11
5.0000000000
21
51.0000000000
0
LINE
5
254
100
AcDbEntity
8
05
100
AcDbLine
62
2
6
CONTINUOUS
10
100.6051770000
20
243.6761360000
11
100.6051770000
21
232.8821640000
0
LINE
5
255
100
AcDbEntity
8
05
100
AcDbLine
62
2
6
CONTINUOUS
10
112.9943070000
20
243.6761360000
11
112.9943070000
21
232.8821640000
0
LINE
5
256
100
AcDbEntity
8
05
100
AcDbLine
62
2
6
CONTINUOUS
10
100.6443080000
20
243.7152670000
11
100.6051770000
21
243.6761360000
0
LINE
5
257
100
AcDbEntity
8
05
100
AcDbLine
62
2
6
CONTINUOUS
10
100.6443080000
20
245.6849220000
11
100.6051770000
21
245.7240520000
0
LINE
5
258
100
AcDbEntity
8
05
100
AcDbLine
62
2
6
CONTINUOUS
10
112.9943070000
20
243.6761360000
11
112.9551770000
21
243.7152670000
0
LINE
5
259
100
AcDbEntity
8
05
100
AcDbLine
62
2
6
CONTINUOUS
10
112.9748730000
20
245.6849220000
11
113.0140040000
21
245.7240520000
0
ARC
5
25A
100
AcDbEntity
8
05
100
AcDbCircle
62
2
6
CONTINUOUS
10
106.7997420000
20
259.8870800000
40
1.1739160000
100
AcDbArc
50
49.0157840000
51
130.9842160000
0
LINE
5
25B
100
AcDbEntity
8
05
100
AcDbLine
62
2
6
CONTINUOUS
10
112.9748730000
20
245.6849220000
11
100.6443080000
21
245.6849220000
0
LINE
5
25C
100
AcDbEntity
8
05
100
AcDbLine
62
2
6
CONTINUOUS
10
112.9551770000
20
243.7152670000
11
100.6443080000
21
243.7152670000
0
LINE
5
25D
100
AcDbEntity
8
05
100
AcDbLine
62
2
6
CONTINUOUS
10
100.7922950000
20
245.6849220000
11
100.7922950000
21
243.7152670000
0
LINE
5
25E
100
AcDbEntity
8
05
100
AcDbLine
62
2
6
CONTINUOUS
10
112.8071900000
20
245.6849220000
11
112.8071900000
21
243.7152670000
0
LINE
5
25F
100
AcDbEntity
8
05
100
AcDbLine
62
2
6
CONTINUOUS
10
100.6051770000
20
245.7240520000
11
100.6051770000
21
246.4637380000
0
LINE
5
260
100
AcDbEntity
8
05
100
AcDbLine
62
2
6
CONTINUOUS
10
113.0140040000
20
246.3826290000
11
113.0140040000
21
245.7240520000
0
LINE
5
261
100
AcDbEntity
8
05
100
AcDbLine
62
2
6
CONTINUOUS
10
106.0298280000
20
260.7732580000
11
101.5834490000
21
256.9102300000
0
ARC
5
262
100
AcDbEntity
8
05
100
AcDbCircle
62
2
6
CONTINUOUS
10
103.6354410000
20
254.5483690000
40
3.1287470000
100
AcDbArc
50
130.9842000000
51
235.9465330000
0
ARC
5
263
100
AcDbEntity
8
05
100
AcDbCircle
62
2
6
CONTINUOUS
10
100.6401850000
20
250.1166450000
40
2.2202470000
100
AcDbArc
50
304.0534670000
51
55.9465330000
0
ARC
5
264
100
AcDbEntity
8
05
100
AcDbCircle
62
2
6
CONTINUOUS
10
103.6354410000
20
245.6849210000
40
3.1287470000
100
AcDbArc
50
124.0534670000
51
165.5862060000
0
ARC
5
265
100
AcDbEntity
8
05
100
AcDbCircle
62
2
6
CONTINUOUS
10
112.9593000000
20
250.1166450000
40
2.2202470000
100
AcDbArc
50
124.0534670000
51
235.9465330000
0
ARC
5
266
100
AcDbEntity
8
05
100
AcDbCircle
62
2
6
CONTINUOUS
10
109.9640430000
20
245.6849210000
40
3.1287470000
100
AcDbArc
50
12.8852570000
51
55.9465330000
0
LINE
5
267
100
AcDbEntity
8
05
100
AcDbLine
62
2
6
CONTINUOUS
10
107.5696560000
20
260.7732580000
11
112.0160350000
21
256.9102300000
0
ARC
5
268
100
AcDbEntity
8
05
100
AcDbCircle
62
2
6
CONTINUOUS
10
109.9640430000
20
254.5483690000
40
3.1287470000
100
AcDbArc
50
304.0534670000
51
49.0158000000
0
LINE
5
269
100
AcDbEntity
8
05
100
AcDbLine
62
2
6
CONTINUOUS
10
94.1390140000
20
196.3566850000
11
90.9518760000
21
135.6018620000
0
LINE
5
26A
100
AcDbEntity
8
05
100
AcDbLine
62
2
6
CONTINUOUS
10
119.4604700000
20
196.3566850000
11
122.6476080000
21
135.6018620000
0
LINE
5
26B
100
AcDbEntity
8
05
100
AcDbLine
62
2
6
CONTINUOUS
10
112.9943070000
20
230.9125090000
11
112.9943070000
21
201.7616150000
0
LINE
5
26C
100
AcDbEntity
8
05
100
AcDbLine
62
2
6
CONTINUOUS
10
100.6051770000
20
230.9125090000
11
100.6051770000
21
201.7616150000
0
LINE
5
26D
100
AcDbEntity
8
05
100
AcDbLine
62
2
6
CONTINUOUS
10
112.9943070000
20
232.8821640000
11
100.6051770000
21
232.8821640000
0
LINE
5
26E
100
AcDbEntity
8
05
100
AcDbLine
62
2
6
CONTINUOUS
10
112.9943070000
20
230.9125090000
11
100.6051770000
21
230.9125090000
0
LINE
5
26F
100
AcDbEntity
8
05
100
AcDbLine
62
2
6
CONTINUOUS
10
112.8071900000
20
232.8821640000
11
112.8071900000
21
230.9125090000
0
LINE
5
270
100
AcDbEntity
8
05
100
AcDbLine
62
2
6
CONTINUOUS
10
100.7922950000
20
232.8821640000
11
100.7922950000
21
230.9125090000
0
LINE
5
271
100
AcDbEntity
8
05
100
AcDbLine
62
2
6
CONTINUOUS
10
97.4084140000
20
198.2107150000
11
96.0928530000
21
198.2107150000
0
LINE
5
272
100
AcDbEntity
8
05
100
AcDbLine
62
2
6
CONTINUOUS
10
116.1910700000
20
198.2107150000
11
97.4084140000
21
198.2107150000
0
ARC
5
273
100
AcDbEntity
8
05
100
AcDbCircle
62
2
6
CONTINUOUS
10
96.0928550000
20
196.2541890000
40
1.9565270000
100
AcDbArc
50
90.0000000000
51
176.9970720000
0
ARC
5
274
100
AcDbEntity
8
05
100
AcDbCircle
62
2
6
CONTINUOUS
10
117.5066300000
20
196.2541890000
40
1.9565270000
100
AcDbArc
50
3.0029280000
51
90.0000000000
0
LINE
5
275
100
AcDbEntity
8
05
100
AcDbLine
62
2
6
CONTINUOUS
10
117.5066300000
20
198.2107150000
11
116.1910700000
21
198.2107150000
0
LINE
5
276
100
AcDbEntity
8
05
100
AcDbLine
62
2
6
CONTINUOUS
10
115.6139480000
20
200.9737540000
11
115.6139480000
21
198.2107150000
0
LINE
5
277
100
AcDbEntity
8
05
100
AcDbLine
62
2
6
CONTINUOUS
10
115.6139480000
20
200.9737540000
11
115.2200170000
21
201.3676850000
0
LINE
5
278
100
AcDbEntity
8
05
100
AcDbLine
62
2
6
CONTINUOUS
10
115.2200170000
20
201.3676850000
11
100.2112460000
21
201.3676850000
0
ARC
5
279
100
AcDbEntity
8
05
100
AcDbCircle
62
2
6
CONTINUOUS
10
113.3882380000
20
201.7616160000
40
0.3939310000
100
AcDbArc
50
180.0000000000
51
270.0000000000
0
LINE
5
27A
100
AcDbEntity
8
05
100
AcDbLine
62
2
6
CONTINUOUS
10
98.3794670000
20
201.3676850000
11
100.2112480000
21
201.3676850000
0
LINE
5
27B
100
AcDbEntity
8
05
100
AcDbLine
62
2
6
CONTINUOUS
10
97.9855360000
20
200.9737540000
11
97.9855360000
21
198.2107150000
0
ARC
5
27C
100
AcDbEntity
8
05
100
AcDbCircle
62
2
6
CONTINUOUS
10
100.2112460000
20
201.7616160000
40
0.3939310000
100
AcDbArc
50
270.0000000000
51
360.0000000000
0
LINE
5
27D
100
AcDbEntity
8
05
100
AcDbLine
62
2
6
CONTINUOUS
10
97.9855360000
20
200.9737540000
11
98.3794670000
21
201.3676850000
0
LINE
5
27E
100
AcDbEntity
8
05
100
AcDbLine
62
2
6
CONTINUOUS
10
98.3794670000
20
201.3676850000
11
100.2112460000
21
201.3676850000
0
ARC
5
27F
100
AcDbEntity
8
05
100
AcDbCircle
62
2
6
CONTINUOUS
10
92.9084030000
20
135.6018620000
40
1.9565270000
100
AcDbArc
50
180.0000000000
51
270.0000000000
0
LINE
5
280
100
AcDbEntity
8
05
100
AcDbLine
62
2
6
CONTINUOUS
10
119.3215130000
20
133.6453350000
11
94.2779720000
21
133.6453350000
0
LINE
5
281
100
AcDbEntity
8
05
100
AcDbLine
62
2
6
CONTINUOUS
10
94.2779720000
20
133.6453350000
11
92.9084030000
21
133.6453350000
0
ARC
5
282
100
AcDbEntity
8
05
100
AcDbCircle
62
2
6
CONTINUOUS
10
120.6910820000
20
135.6018620000
40
1.9565270000
100
AcDbArc
50
270.0000000000
51
360.0000000000
0
LINE
5
283
100
AcDbEntity
8
05
100
AcDbLine
62
2
6
CONTINUOUS
10
94.2779720000
20
133.6453350000
11
94.2779720000
21
130.8884750000
0
LINE
5
284
100
AcDbEntity
8
05
100
AcDbLine
62
2
6
CONTINUOUS
10
119.3215130000
20
133.6453350000
11
119.3215130000
21
130.8884750000
0
LINE
5
285
100
AcDbEntity
8
05
100
AcDbLine
62
2
6
CONTINUOUS
10
120.6910820000
20
133.6453350000
11
119.3215130000
21
133.6453350000
0
LINE
5
286
100
AcDbEntity
8
05
100
AcDbLine
62
2
6
CONTINUOUS
10
119.4789310000
20
102.3633590000
11
117.7769280000
21
78.0235880000
0
ARC
5
287
100
AcDbEntity
8
05
100
AcDbCircle
62
2
6
CONTINUOUS
10
113.8734038966
20
78.2965523451
40
3.9130563451
100
AcDbArc
50
270.0000454412
51
355.9999510799
0
LINE
5
288
100
AcDbEntity
8
05
100
AcDbLine
62
2
6
CONTINUOUS
10
113.8734070000
20
74.3834960000
11
99.7260780000
21
74.3834960000
0
ARC
5
289
100
AcDbEntity
8
05
100
AcDbCircle
62
2
6
CONTINUOUS
10
99.7260806034
20
78.2965528813
40
3.9130568813
100
AcDbArc
50
184.0000562412
51
269.9999618799
0
LINE
5
28A
100
AcDbEntity
8
05
100
AcDbLine
62
2
6
CONTINUOUS
10
95.8225560000
20
78.0235880000
11
94.1205540000
21
102.3633590000
0
LINE
5
28B
100
AcDbEntity
8
05
100
AcDbLine
62
2
6
CONTINUOUS
10
90.6019230000
20
121.8896870000
11
91.7771840000
21
105.0826810000
0
ARC
5
28C
100
AcDbEntity
8
05
100
AcDbCircle
62
2
6
CONTINUOUS
10
94.7694756660
20
105.2919246963
40
2.9995986963
100
AcDbArc
50
184.0000434382
51
269.9999490768
0
LINE
5
28D
100
AcDbEntity
8
05
100
AcDbLine
62
2
6
CONTINUOUS
10
94.7694730000
20
102.2923260000
11
106.7997420000
21
102.2923260000
0
LINE
5
28E
100
AcDbEntity
8
05
100
AcDbLine
62
2
6
CONTINUOUS
10
106.7997420000
20
102.2923260000
11
118.8300120000
21
102.2923260000
0
ARC
5
28F
100
AcDbEntity
8
05
100
AcDbCircle
62
2
6
CONTINUOUS
10
118.8300093340
20
105.2919246963
40
2.9995986963
100
AcDbArc
50
270.0000509232
51
355.9999565618
0
LINE
5
290
100
AcDbEntity
8
05
100
AcDbLine
62
2
6
CONTINUOUS
10
121.8223010000
20
105.0826810000
11
122.9975610000
21
121.8896870000
0
LINE
5
291
100
AcDbEntity
8
05
100
AcDbLine
62
2
6
CONTINUOUS
10
122.9975610000
20
121.8896870000
11
122.9975610000
21
130.2885560000
0
ARC
5
292
100
AcDbEntity
8
05
100
AcDbCircle
62
2
6
CONTINUOUS
10
122.3976424482
20
130.2885564482
40
0.5999185518
100
AcDbArc
50
359.9999571957
51
90.0000428043
0
LINE
5
293
100
AcDbEntity
8
05
100
AcDbLine
62
2
6
CONTINUOUS
10
122.3976420000
20
130.8884750000
11
91.2018430000
21
130.8884750000
0
ARC
5
294
100
AcDbEntity
8
05
100
AcDbCircle
62
2
6
CONTINUOUS
10
91.2018420518
20
130.2885559482
40
0.5999190518
100
AcDbArc
50
89.9999094428
51
179.9999950514
0
LINE
5
295
100
AcDbEntity
8
05
100
AcDbLine
62
2
6
CONTINUOUS
10
90.6019230000
20
130.2885560000
11
90.6019230000
21
121.8896870000
0
LINE
5
296
100
AcDbEntity
8
05
100
AcDbLine
62
2
6
CONTINUOUS
10
106.7997423271
20
245.6849217620
11
106.7997423271
21
243.7152667836
0
LINE
5
297
100
AcDbEntity
8
05
100
AcDbLine
62
2
6
CONTINUOUS
10
106.7997423271
20
243.7152667836
11
112.8071900112
21
243.7152667836
0
LINE
5
298
100
AcDbEntity
8
05
100
AcDbLine
62
2
6
CONTINUOUS
10
112.8071900112
20
243.7152667836
11
112.8071900112
21
245.6849217620
0
LINE
5
299
100
AcDbEntity
8
05
100
AcDbLine
62
2
6
CONTINUOUS
10
112.8071900112
20
245.6849217620
11
106.7997423271
21
245.6849217620
0
LINE
5
29A
100
AcDbEntity
8
05
100
AcDbLine
62
2
6
CONTINUOUS
10
100.7922946430
20
245.6849217620
11
100.7922946430
21
243.7152667836
0
LINE
5
29B
100
AcDbEntity
8
05
100
AcDbLine
62
2
6
CONTINUOUS
10
100.7922946430
20
243.7152667836
11
106.7997423271
21
243.7152667836
0
LINE
5
29C
100
AcDbEntity
8
05
100
AcDbLine
62
2
6
CONTINUOUS
10
106.7997423271
20
243.7152667836
11
106.7997423271
21
245.6849217620
0
LINE
5
29D
100
AcDbEntity
8
05
100
AcDbLine
62
2
6
CONTINUOUS
10
106.7997423271
20
245.6849217620
11
100.7922946430
21
245.6849217620
0
LINE
5
29E
100
AcDbEntity
8
05
100
AcDbLine
62
2
6
CONTINUOUS
10
100.7922946430
20
232.8821644024
11
100.7922946430
21
230.9125094241
0
LINE
5
29F
100
AcDbEntity
8
05
100
AcDbLine
62
2
6
CONTINUOUS
10
100.7922946430
20
230.9125094241
11
106.7997423271
21
230.9125094241
0
LINE
5
2A0
100
AcDbEntity
8
05
100
AcDbLine
62
2
6
CONTINUOUS
10
106.7997423271
20
230.9125094241
11
106.7997423271
21
232.8821644024
0
LINE
5
2A1
100
AcDbEntity
8
05
100
AcDbLine
62
2
6
CONTINUOUS
10
106.7997423271
20
232.8821644024
11
100.7922946430
21
232.8821644024
0
LINE
5
2A2
100
AcDbEntity
8
05
100
AcDbLine
62
2
6
CONTINUOUS
10
106.7997423271
20
232.8821644024
11
106.7997423271
21
230.9125094241
0
LINE
5
2A3
100
AcDbEntity
8
05
100
AcDbLine
62
2
6
CONTINUOUS
10
106.7997423271
20
230.9125094241
11
112.8071900112
21
230.9125094241
0
LINE
5
2A4
100
AcDbEntity
8
05
100
AcDbLine
62
2
6
CONTINUOUS
10
112.8071900112
20
230.9125094241
11
112.8071900112
21
232.8821644024
0
LINE
5
2A5
100
AcDbEntity
8
05
100
AcDbLine
62
2
6
CONTINUOUS
10
112.8071900112
20
232.8821644024
11
106.7997423271
21
232.8821644024
0
SOLID
5
2A6
100
AcDbEntity
8
05
100
AcDbTrace
62
2
6
CONTINUOUS
10
106.7997423271
20
245.6849218560
11
100.7922946430
21
245.6849218560
12
100.7922946430
22
243.7152667840
13
100.7922946430
23
243.7152667840
0
SOLID
5
2A7
100
AcDbEntity
8
05
100
AcDbTrace
62
2
6
CONTINUOUS
10
112.8071900112
20
245.6849218560
11
106.7997423271
21
245.6849218560
12
106.7997423271
22
243.7152667840
13
106.7997423271
23
243.7152667840
0
SOLID
5
2A8
100
AcDbEntity
8
05
100
AcDbTrace
62
2
6
CONTINUOUS
10
100.7922946430
20
243.7152667840
11
106.7997423271
21
243.7152667840
12
106.7997423271
22
245.6849218560
13
106.7997423271
23
245.6849218560
0
SOLID
5
2A9
100
AcDbEntity
8
05
100
AcDbTrace
62
2
6
CONTINUOUS
10
106.7997423271
20
243.7152667840
11
112.8071900112
21
243.7152667840
12
112.8071900112
22
245.6849218560
13
112.8071900112
23
245.6849218560
0
SOLID
5
2AA
100
AcDbEntity
8
05
100
AcDbTrace
62
2
6
CONTINUOUS
10
106.7997423271
20
232.8821644160
11
100.7922946430
21
232.8821644160
12
100.7922946430
22
230.9125093440
13
100.7922946430
23
230.9125093440
0
SOLID
5
2AB
100
AcDbEntity
8
05
100
AcDbTrace
62
2
6
CONTINUOUS
10
100.7922946430
20
230.9125093440
11
106.7997423271
21
230.9125093440
12
106.7997423271
22
232.8821644160
13
106.7997423271
23
232.8821644160
0
SOLID
5
2AC
100
AcDbEntity
8
05
100
AcDbTrace
62
2
6
CONTINUOUS
10
112.8071900112
20
232.8821644160
11
106.7997423271
21
232.8821644160
12
106.7997423271
22
230.9125093440
13
106.7997423271
23
230.9125093440
0
SOLID
5
2AD
100
AcDbEntity
8
05
100
AcDbTrace
62
2
6
CONTINUOUS
10
106.7997423271
20
230.9125093440
11
112.8071900112
21
230.9125093440
12
112.8071900112
22
232.8821644160
13
112.8071900112
23
232.8821644160
0
LINE
5
2AE
100
AcDbEntity
8
RAHMEN
100
AcDbLine
62
7
6
CONTINUOUS
10
210.0000000000
20
0.0000000000
11
210.0000000000
21
297.0000000000
0
LINE
5
2AF
100
AcDbEntity
8
RAHMEN
100
AcDbLine
62
7
6
CONTINUOUS
10
210.0000000000
20
297.0000000000
11
0.0000000000
21
297.0000000000
0
LINE
5
2B0
100
AcDbEntity
8
RAHMEN
100
AcDbLine
62
7
6
CONTINUOUS
10
0.0000000000
20
297.0000000000
11
0.0000000000
21
0.0000000000
0
LINE
5
2B1
100
AcDbEntity
8
RAHMEN
100
AcDbLine
62
7
6
CONTINUOUS
10
0.0000000000
20
0.0000000000
11
210.0000000000
21
0.0000000000
0
LINE
5
2B2
100
AcDbEntity
8
05
100
AcDbLine
62
7
6
CONTINUOUS
10
97.5761270000
20
8.2089520000
11
97.8594800000
21
8.4923040000
0
LINE
5
2B3
100
AcDbEntity
8
05
100
AcDbLine
62
7
6
CONTINUOUS
10
99.6202690000
20
10.2530940000
11
100.0602470000
21
10.6930720000
0
LINE
5
2B4
100
AcDbEntity
8
05
100
AcDbLine
62
7
6
CONTINUOUS
10
98.5024150000
20
9.1352400000
11
98.7923930000
21
9.4252180000
0
LINE
5
2B5
100
AcDbEntity
8
05
100
AcDbLine
62
7
6
CONTINUOUS
10
97.2579290000
20
8.2089520000
11
97.9501160000
21
8.9011390000
0
LINE
5
2B6
100
AcDbEntity
8
05
100
AcDbLine
62
7
6
CONTINUOUS
10
99.3020710000
20
10.2530940000
11
99.7420490000
21
10.6930720000
0
LINE
5
2B7
100
AcDbEntity
8
05
100
AcDbLine
62
7
6
CONTINUOUS
10
98.1842170000
20
9.1352400000
11
98.4741950000
21
9.4252180000
0
LINE
5
2B8
100
AcDbEntity
8
05
100
AcDbLine
62
7
6
CONTINUOUS
10
96.9397310000
20
8.2089520000
11
98.1559970000
21
9.4252180000
0
LINE
5
2B9
100
AcDbEntity
8
05
100
AcDbLine
62
7
6
CONTINUOUS
10
98.9838730000
20
10.2530940000
11
99.4238510000
21
10.6930720000
0
LINE
5
2BA
100
AcDbEntity
8
05
100
AcDbLine
62
7
6
CONTINUOUS
10
96.6215330000
20
8.2089520000
11
98.1313890000
21
9.7188080000
0
LINE
5
2BB
100
AcDbEntity
8
05
100
AcDbLine
62
7
6
CONTINUOUS
10
98.6656750000
20
10.2530940000
11
99.1056530000
21
10.6930720000
0
LINE
5
2BC
100
AcDbEntity
8
05
100
AcDbLine
62
7
6
CONTINUOUS
10
96.3033350000
20
8.2089520000
11
98.2220250000
21
10.1276420000
0
LINE
5
2BD
100
AcDbEntity
8
05
100
AcDbLine
62
7
6
CONTINUOUS
10
98.3474770000
20
10.2530940000
11
98.7874550000
21
10.6930720000
0
LINE
5
2BE
100
AcDbEntity
8
05
100
AcDbLine
62
7
6
CONTINUOUS
10
96.1183660000
20
8.3421810000
11
98.4692570000
21
10.6930720000
0
LINE
5
2BF
100
AcDbEntity
8
05
100
AcDbLine
62
7
6
CONTINUOUS
10
96.2090020000
20
8.7510150000
11
98.1510590000
21
10.6930720000
0
LINE
5
2C0
100
AcDbEntity
8
05
100
AcDbLine
62
7
6
CONTINUOUS
10
96.2996390000
20
9.1598500000
11
97.8328610000
21
10.6930720000
0
LINE
5
2C1
100
AcDbEntity
8
05
100
AcDbLine
62
7
6
CONTINUOUS
10
96.3902750000
20
9.5686840000
11
97.5146630000
21
10.6930720000
0
LINE
5
2C2
100
AcDbEntity
8
05
100
AcDbLine
62
7
6
CONTINUOUS
10
96.4809110000
20
9.9775190000
11
97.1964650000
21
10.6930720000
0
LINE
5
2C3
100
AcDbEntity
8
05
100
AcDbLine
62
7
6
CONTINUOUS
10
96.5715480000
20
10.3863530000
11
96.8782670000
21
10.6930720000
0
LINE
5
2C4
100
AcDbEntity
8
05
100
AcDbLine
62
7
6
CONTINUOUS
10
95.9390390000
20
10.0720420000
11
95.9639990000
21
10.0970020000
0
LINE
5
2C5
100
AcDbEntity
8
05
100
AcDbLine
62
7
6
CONTINUOUS
10
93.7577510000
20
8.2089520000
11
93.9600800000
21
8.4112820000
0
LINE
5
2C6
100
AcDbEntity
8
05
100
AcDbLine
62
7
6
CONTINUOUS
10
95.6208410000
20
10.0720420000
11
96.0546360000
21
10.5058370000
0
LINE
5
2C7
100
AcDbEntity
8
05
100
AcDbLine
62
7
6
CONTINUOUS
10
93.4395530000
20
8.2089520000
11
94.0507170000
21
8.8201160000
0
LINE
5
2C8
100
AcDbEntity
8
05
100
AcDbLine
62
7
6
CONTINUOUS
10
95.3026430000
20
10.0720420000
11
95.9236730000
21
10.6930720000
0
LINE
5
2C9
100
AcDbEntity
8
05
100
AcDbLine
62
7
6
CONTINUOUS
10
93.1213550000
20
8.2089520000
11
94.1413530000
21
9.2289510000
0
LINE
5
2CA
100
AcDbEntity
8
05
100
AcDbLine
62
7
6
CONTINUOUS
10
94.9844450000
20
10.0720420000
11
95.6054740000
21
10.6930720000
0
LINE
5
2CB
100
AcDbEntity
8
05
100
AcDbLine
62
7
6
CONTINUOUS
10
92.8031570000
20
8.2089520000
11
94.2319900000
21
9.6377850000
0
LINE
5
2CC
100
AcDbEntity
8
05
100
AcDbLine
62
7
6
CONTINUOUS
10
94.6662460000
20
10.0720420000
11
95.2872760000
21
10.6930720000
0
LINE
5
2CD
100
AcDbEntity
8
05
100
AcDbLine
62
7
6
CONTINUOUS
10
92.4849590000
20
8.2089520000
11
94.3226260000
21
10.0466200000
0
LINE
5
2CE
100
AcDbEntity
8
05
100
AcDbLine
62
7
6
CONTINUOUS
10
94.3480480000
20
10.0720420000
11
94.9690780000
21
10.6930720000
0
LINE
5
2CF
100
AcDbEntity
8
05
100
AcDbLine
62
7
6
CONTINUOUS
10
92.2189660000
20
8.2611580000
11
94.6508800000
21
10.6930720000
0
LINE
5
2D0
100
AcDbEntity
8
05
100
AcDbLine
62
7
6
CONTINUOUS
10
92.3096030000
20
8.6699920000
11
94.3326820000
21
10.6930720000
0
LINE
5
2D1
100
AcDbEntity
8
05
100
AcDbLine
62
7
6
CONTINUOUS
10
92.4002390000
20
9.0788270000
11
94.0144840000
21
10.6930720000
0
LINE
5
2D2
100
AcDbEntity
8
05
100
AcDbLine
62
7
6
CONTINUOUS
10
92.4908760000
20
9.4876610000
11
93.6962860000
21
10.6930720000
0
LINE
5
2D3
100
AcDbEntity
8
05
100
AcDbLine
62
7
6
CONTINUOUS
10
92.5815120000
20
9.8964960000
11
93.3780880000
21
10.6930720000
0
LINE
5
2D4
100
AcDbEntity
8
05
100
AcDbLine
62
7
6
CONTINUOUS
10
92.4388600000
20
10.0720420000
11
93.0598900000
21
10.6930720000
0
LINE
5
2D5
100
AcDbEntity
8
05
100
AcDbLine
62
7
6
CONTINUOUS
10
92.1206620000
20
10.0720420000
11
92.7416920000
21
10.6930720000
0
LINE
5
2D6
100
AcDbEntity
8
05
100
AcDbLine
62
7
6
CONTINUOUS
10
91.8024640000
20
10.0720420000
11
92.4234940000
21
10.6930720000
0
LINE
5
2D7
100
AcDbEntity
8
05
100
AcDbLine
62
7
6
CONTINUOUS
10
89.8883760000
20
8.4761520000
11
90.3685390000
21
8.9563150000
0
LINE
5
2D8
100
AcDbEntity
8
05
100
AcDbLine
62
7
6
CONTINUOUS
10
91.4842660000
20
10.0720420000
11
92.1052960000
21
10.6930720000
0
LINE
5
2D9
100
AcDbEntity
8
05
100
AcDbLine
62
7
6
CONTINUOUS
10
89.4054660000
20
8.3114400000
11
90.4591750000
21
9.3651490000
0
LINE
5
2DA
100
AcDbEntity
8
05
100
AcDbLine
62
7
6
CONTINUOUS
10
91.1660680000
20
10.0720420000
11
91.7870980000
21
10.6930720000
0
LINE
5
2DB
100
AcDbEntity
8
05
100
AcDbLine
62
7
6
CONTINUOUS
10
89.0027690000
20
8.2269410000
11
90.5498110000
21
9.7739840000
0
LINE
5
2DC
100
AcDbEntity
8
05
100
AcDbLine
62
7
6
CONTINUOUS
10
91.1305160000
20
10.3546880000
11
91.4689000000
21
10.6930720000
0
LINE
5
2DD
100
AcDbEntity
8
05
100
AcDbLine
62
7
6
CONTINUOUS
10
88.6368590000
20
8.1792300000
11
90.6404480000
21
10.1828180000
0
LINE
5
2DE
100
AcDbEntity
8
05
100
AcDbLine
62
7
6
CONTINUOUS
10
88.2894110000
20
8.1499790000
11
90.7310840000
21
10.5916520000
0
LINE
5
2DF
100
AcDbEntity
8
05
100
AcDbLine
62
7
6
CONTINUOUS
10
87.9558910000
20
8.1346570000
11
90.5143060000
21
10.6930720000
0
LINE
5
2E0
100
AcDbEntity
8
05
100
AcDbLine
62
7
6
CONTINUOUS
10
87.6346880000
20
8.1316520000
11
88.3351190000
21
8.8320840000
0
LINE
5
2E1
100
AcDbEntity
8
05
100
AcDbLine
62
7
6
CONTINUOUS
10
88.7236060000
20
9.2205700000
11
90.1961080000
21
10.6930720000
0
LINE
5
2E2
100
AcDbEntity
8
05
100
AcDbLine
62
7
6
CONTINUOUS
10
87.3245180000
20
8.1396810000
11
87.9444690000
21
8.7596310000
0
LINE
5
2E3
100
AcDbEntity
8
05
100
AcDbLine
62
7
6
CONTINUOUS
10
88.8142420000
20
9.6294040000
11
89.8779100000
21
10.6930720000
0
LINE
5
2E4
100
AcDbEntity
8
05
100
AcDbLine
62
7
6
CONTINUOUS
10
87.0243430000
20
8.1577030000
11
87.6233120000
21
8.7566730000
0
LINE
5
2E5
100
AcDbEntity
8
05
100
AcDbLine
62
7
6
CONTINUOUS
10
88.9048780000
20
10.0382390000
11
89.5597110000
21
10.6930720000
0
LINE
5
2E6
100
AcDbEntity
8
05
100
AcDbLine
62
7
6
CONTINUOUS
10
86.7333060000
20
8.1848640000
11
87.3407990000
21
8.7923570000
0
LINE
5
2E7
100
AcDbEntity
8
05
100
AcDbLine
62
7
6
CONTINUOUS
10
88.9955150000
20
10.4470730000
11
89.2415130000
21
10.6930720000
0
LINE
5
2E8
100
AcDbEntity
8
05
100
AcDbLine
62
7
6
CONTINUOUS
10
86.4520070000
20
8.2217640000
11
87.0972290000
21
8.8669850000
0
LINE
5
2E9
100
AcDbEntity
8
05
100
AcDbLine
62
7
6
CONTINUOUS
10
86.1841710000
20
8.2721250000
11
86.9024090000
21
8.9903630000
0
LINE
5
2EA
100
AcDbEntity
8
05
100
AcDbLine
62
7
6
CONTINUOUS
10
85.9287580000
20
8.3349100000
11
86.8448360000
21
9.2509890000
0
LINE
5
2EB
100
AcDbEntity
8
05
100
AcDbLine
62
7
6
CONTINUOUS
10
85.6873210000
20
8.4116710000
11
86.9354730000
21
9.6598230000
0
LINE
5
2EC
100
AcDbEntity
8
05
100
AcDbLine
62
7
6
CONTINUOUS
10
85.4667180000
20
8.5092670000
11
87.0261090000
21
10.0686580000
0
LINE
5
2ED
100
AcDbEntity
8
05
100
AcDbLine
62
7
6
CONTINUOUS
10
85.2651030000
20
8.6258500000
11
87.1167450000
21
10.4774920000
0
LINE
5
2EE
100
AcDbEntity
8
05
100
AcDbLine
62
7
6
CONTINUOUS
10
85.1018940000
20
8.7808390000
11
87.0141270000
21
10.6930720000
0
LINE
5
2EF
100
AcDbEntity
8
05
100
AcDbLine
62
7
6
CONTINUOUS
10
85.1092480000
20
9.1063910000
11
86.6959290000
21
10.6930720000
0
LINE
5
2F0
100
AcDbEntity
8
05
100
AcDbLine
62
7
6
CONTINUOUS
10
83.8936110000
20
8.2089520000
11
84.2024780000
21
8.5178190000
0
LINE
5
2F1
100
AcDbEntity
8
05
100
AcDbLine
62
7
6
CONTINUOUS
10
85.1998850000
20
9.5152260000
11
86.3777310000
21
10.6930720000
0
LINE
5
2F2
100
AcDbEntity
8
05
100
AcDbLine
62
7
6
CONTINUOUS
10
83.5754130000
20
8.2089520000
11
84.0153920000
21
8.6489310000
0
LINE
5
2F3
100
AcDbEntity
8
05
100
AcDbLine
62
7
6
CONTINUOUS
10
85.2905210000
20
9.9240600000
11
86.0595330000
21
10.6930720000
0
LINE
5
2F4
100
AcDbEntity
8
05
100
AcDbLine
62
7
6
CONTINUOUS
10
83.2572150000
20
8.2089520000
11
83.6971940000
21
8.6489310000
0
LINE
5
2F5
100
AcDbEntity
8
05
100
AcDbLine
62
7
6
CONTINUOUS
10
85.3811580000
20
10.3328950000
11
85.7413350000
21
10.6930720000
0
LINE
5
2F6
100
AcDbEntity
8
05
100
AcDbLine
62
7
6
CONTINUOUS
10
82.9390170000
20
8.2089520000
11
83.3789960000
21
8.6489310000
0
LINE
5
2F7
100
AcDbEntity
8
05
100
AcDbLine
62
7
6
CONTINUOUS
10
84.0360880000
20
9.3060230000
11
84.1751650000
21
9.4451000000
0
LINE
5
2F8
100
AcDbEntity
8
05
100
AcDbLine
62
7
6
CONTINUOUS
10
82.6208190000
20
8.2089520000
11
83.0607970000
21
8.6489310000
0
LINE
5
2F9
100
AcDbEntity
8
05
100
AcDbLine
62
7
6
CONTINUOUS
10
83.7178900000
20
9.3060230000
11
84.0078680000
21
9.5960010000
0
LINE
5
2FA
100
AcDbEntity
8
05
100
AcDbLine
62
7
6
CONTINUOUS
10
82.3026210000
20
8.2089520000
11
82.7425990000
21
8.6489310000
0
LINE
5
2FB
100
AcDbEntity
8
05
100
AcDbLine
62
7
6
CONTINUOUS
10
84.3467620000
20
10.2530940000
11
84.6556600000
21
10.5619910000
0
LINE
5
2FC
100
AcDbEntity
8
05
100
AcDbLine
62
7
6
CONTINUOUS
10
83.3996920000
20
9.3060230000
11
83.6896700000
21
9.5960010000
0
LINE
5
2FD
100
AcDbEntity
8
05
100
AcDbLine
62
7
6
CONTINUOUS
10
81.9844230000
20
8.2089520000
11
82.4244010000
21
8.6489310000
0
LINE
5
2FE
100
AcDbEntity
8
05
100
AcDbLine
62
7
6
CONTINUOUS
10
84.0285640000
20
10.2530940000
11
84.4685430000
21
10.6930720000
0
LINE
5
2FF
100
AcDbEntity
8
05
100
AcDbLine
62
7
6
CONTINUOUS
10
83.0814940000
20
9.3060230000
11
83.3714720000
21
9.5960010000
0
LINE
5
300
100
AcDbEntity
8
05
100
AcDbLine
62
7
6
CONTINUOUS
10
81.6662250000
20
8.2089520000
11
82.1062030000
21
8.6489310000
0
LINE
5
301
100
AcDbEntity
8
05
100
AcDbLine
62
7
6
CONTINUOUS
10
83.7103660000
20
10.2530940000
11
84.1503450000
21
10.6930720000
0
LINE
5
302
100
AcDbEntity
8
05
100
AcDbLine
62
7
6
CONTINUOUS
10
82.7632960000
20
9.3060230000
11
83.0532740000
21
9.5960010000
0
LINE
5
303
100
AcDbEntity
8
05
100
AcDbLine
62
7
6
CONTINUOUS
10
81.3480270000
20
8.2089520000
11
81.7880050000
21
8.6489310000
0
LINE
5
304
100
AcDbEntity
8
05
100
AcDbLine
62
7
6
CONTINUOUS
10
83.3921680000
20
10.2530940000
11
83.8321470000
21
10.6930720000
0
LINE
5
305
100
AcDbEntity
8
05
100
AcDbLine
62
7
6
CONTINUOUS
10
82.4450970000
20
9.3060230000
11
82.7350760000
21
9.5960010000
0
LINE
5
306
100
AcDbEntity
8
05
100
AcDbLine
62
7
6
CONTINUOUS
10
81.0298290000
20
8.2089520000
11
81.4698070000
21
8.6489310000
0
LINE
5
307
100
AcDbEntity
8
05
100
AcDbLine
62
7
6
CONTINUOUS
10
83.0739700000
20
10.2530940000
11
83.5139480000
21
10.6930720000
0
LINE
5
308
100
AcDbEntity
8
05
100
AcDbLine
62
7
6
CONTINUOUS
10
82.1268990000
20
9.3060230000
11
82.4168780000
21
9.5960010000
0
LINE
5
309
100
AcDbEntity
8
05
100
AcDbLine
62
7
6
CONTINUOUS
10
80.7116310000
20
8.2089520000
11
81.3186940000
21
8.8160160000
0
LINE
5
30A
100
AcDbEntity
8
05
100
AcDbLine
62
7
6
CONTINUOUS
10
82.7557720000
20
10.2530940000
11
83.1957500000
21
10.6930720000
0
LINE
5
30B
100
AcDbEntity
8
05
100
AcDbLine
62
7
6
CONTINUOUS
10
81.8087010000
20
9.3060230000
11
82.0986800000
21
9.5960010000
0
LINE
5
30C
100
AcDbEntity
8
05
100
AcDbLine
62
7
6
CONTINUOUS
10
80.3934330000
20
8.2089520000
11
81.4093310000
21
9.2248500000
0
LINE
5
30D
100
AcDbEntity
8
05
100
AcDbLine
62
7
6
CONTINUOUS
10
82.4375740000
20
10.2530940000
11
82.8775520000
21
10.6930720000
0
LINE
5
30E
100
AcDbEntity
8
05
100
AcDbLine
62
7
6
CONTINUOUS
10
81.4905030000
20
9.3060230000
11
81.7804820000
21
9.5960010000
0
LINE
5
30F
100
AcDbEntity
8
05
100
AcDbLine
62
7
6
CONTINUOUS
10
80.0752350000
20
8.2089520000
11
81.4999670000
21
9.6336850000
0
LINE
5
310
100
AcDbEntity
8
05
100
AcDbLine
62
7
6
CONTINUOUS
10
82.1193760000
20
10.2530940000
11
82.5593540000
21
10.6930720000
0
LINE
5
311
100
AcDbEntity
8
05
100
AcDbLine
62
7
6
CONTINUOUS
10
79.7570370000
20
8.2089520000
11
81.5906030000
21
10.0425190000
0
LINE
5
312
100
AcDbEntity
8
05
100
AcDbLine
62
7
6
CONTINUOUS
10
81.8011780000
20
10.2530940000
11
82.2411560000
21
10.6930720000
0
LINE
5
313
100
AcDbEntity
8
05
100
AcDbLine
62
7
6
CONTINUOUS
10
79.4869440000
20
8.2570570000
11
81.9229580000
21
10.6930720000
0
LINE
5
314
100
AcDbEntity
8
05
100
AcDbLine
62
7
6
CONTINUOUS
10
79.5775800000
20
8.6658920000
11
81.6047600000
21
10.6930720000
0
LINE
5
315
100
AcDbEntity
8
05
100
AcDbLine
62
7
6
CONTINUOUS
10
79.6682170000
20
9.0747260000
11
81.2865620000
21
10.6930720000
0
LINE
5
316
100
AcDbEntity
8
05
100
AcDbLine
62
7
6
CONTINUOUS
10
78.4842440000
20
8.2089520000
11
78.6617050000
21
8.3864130000
0
LINE
5
317
100
AcDbEntity
8
05
100
AcDbLine
62
7
6
CONTINUOUS
10
79.7588530000
20
9.4835610000
11
80.9683640000
21
10.6930720000
0
LINE
5
318
100
AcDbEntity
8
05
100
AcDbLine
62
7
6
CONTINUOUS
10
78.1660460000
20
8.2089520000
11
78.7523410000
21
8.7952470000
0
LINE
5
319
100
AcDbEntity
8
05
100
AcDbLine
62
7
6
CONTINUOUS
10
79.8494890000
20
9.8923950000
11
80.6501660000
21
10.6930720000
0
LINE
5
31A
100
AcDbEntity
8
05
100
AcDbLine
62
7
6
CONTINUOUS
10
77.8478480000
20
8.2089520000
11
78.8429780000
21
9.2040820000
0
LINE
5
31B
100
AcDbEntity
8
05
100
AcDbLine
62
7
6
CONTINUOUS
10
79.9401260000
20
10.3012300000
11
80.3319680000
21
10.6930720000
0
LINE
5
31C
100
AcDbEntity
8
05
100
AcDbLine
62
7
6
CONTINUOUS
10
77.5296500000
20
8.2089520000
11
78.9336140000
21
9.6129160000
0
LINE
5
31D
100
AcDbEntity
8
05
100
AcDbLine
62
7
6
CONTINUOUS
10
77.2114520000
20
8.2089520000
11
79.0242510000
21
10.0217510000
0
LINE
5
31E
100
AcDbEntity
8
05
100
AcDbLine
62
7
6
CONTINUOUS
10
76.8932540000
20
8.2089520000
11
79.1148870000
21
10.4305850000
0
LINE
5
31F
100
AcDbEntity
8
05
100
AcDbLine
62
7
6
CONTINUOUS
10
76.6255330000
20
8.2594290000
11
79.0591760000
21
10.6930720000
0
LINE
5
320
100
AcDbEntity
8
05
100
AcDbLine
62
7
6
CONTINUOUS
10
76.4580220000
20
8.4101170000
11
78.7409780000
21
10.6930720000
0
LINE
5
321
100
AcDbEntity
8
05
100
AcDbLine
62
7
6
CONTINUOUS
10
76.2905120000
20
8.5608040000
11
78.4227800000
21
10.6930720000
0
LINE
5
322
100
AcDbEntity
8
05
100
AcDbLine
62
7
6
CONTINUOUS
10
76.1230020000
20
8.7114920000
11
77.1030810000
21
9.6915710000
0
LINE
5
323
100
AcDbEntity
8
05
100
AcDbLine
62
7
6
CONTINUOUS
10
77.2831370000
20
9.8716270000
11
78.1045820000
21
10.6930720000
0
LINE
5
324
100
AcDbEntity
8
05
100
AcDbLine
62
7
6
CONTINUOUS
10
75.9554910000
20
8.8621800000
11
76.9163070000
21
9.8229950000
0
LINE
5
325
100
AcDbEntity
8
05
100
AcDbLine
62
7
6
CONTINUOUS
10
77.3737730000
20
10.2804620000
11
77.7863840000
21
10.6930720000
0
LINE
5
326
100
AcDbEntity
8
05
100
AcDbLine
62
7
6
CONTINUOUS
10
75.7879810000
20
9.0128680000
11
76.7295320000
21
9.9544190000
0
LINE
5
327
100
AcDbEntity
8
05
100
AcDbLine
62
7
6
CONTINUOUS
10
77.4644100000
20
10.6892960000
11
77.4681860000
21
10.6930720000
0
LINE
5
328
100
AcDbEntity
8
05
100
AcDbLine
62
7
6
CONTINUOUS
10
74.6658680000
20
8.2089520000
11
74.8620460000
21
8.4051310000
0
LINE
5
329
100
AcDbEntity
8
05
100
AcDbLine
62
7
6
CONTINUOUS
10
75.6204710000
20
9.1635550000
11
76.5427580000
21
10.0858420000
0
LINE
5
32A
100
AcDbEntity
8
05
100
AcDbLine
62
7
6
CONTINUOUS
10
74.3476700000
20
8.2089520000
11
74.9526830000
21
8.8139650000
0
LINE
5
32B
100
AcDbEntity
8
05
100
AcDbLine
62
7
6
CONTINUOUS
10
75.4529600000
20
9.3142430000
11
76.3559830000
21
10.2172660000
0
LINE
5
32C
100
AcDbEntity
8
05
100
AcDbLine
62
7
6
CONTINUOUS
10
74.0294720000
20
8.2089520000
11
75.0433190000
21
9.2228000000
0
LINE
5
32D
100
AcDbEntity
8
05
100
AcDbLine
62
7
6
CONTINUOUS
10
75.2854500000
20
9.4649310000
11
76.1692090000
21
10.3486900000
0
LINE
5
32E
100
AcDbEntity
8
05
100
AcDbLine
62
7
6
CONTINUOUS
10
73.7112740000
20
8.2089520000
11
75.9824350000
21
10.4801130000
0
LINE
5
32F
100
AcDbEntity
8
05
100
AcDbLine
62
7
6
CONTINUOUS
10
73.3930760000
20
8.2089520000
11
75.7956600000
21
10.6115370000
0
LINE
5
330
100
AcDbEntity
8
05
100
AcDbLine
62
7
6
CONTINUOUS
10
73.1209320000
20
8.2550070000
11
75.5589970000
21
10.6930720000
0
LINE
5
331
100
AcDbEntity
8
05
100
AcDbLine
62
7
6
CONTINUOUS
10
73.2115690000
20
8.6638420000
11
75.2407990000
21
10.6930720000
0
LINE
5
332
100
AcDbEntity
8
05
100
AcDbLine
62
7
6
CONTINUOUS
10
73.3022050000
20
9.0726760000
11
74.9226010000
21
10.6930720000
0
LINE
5
333
100
AcDbEntity
8
05
100
AcDbLine
62
7
6
CONTINUOUS
10
73.3928420000
20
9.4815110000
11
74.6044030000
21
10.6930720000
0
LINE
5
334
100
AcDbEntity
8
05
100
AcDbLine
62
7
6
CONTINUOUS
10
73.4834780000
20
9.8903450000
11
74.2862050000
21
10.6930720000
0
LINE
5
335
100
AcDbEntity
8
05
100
AcDbLine
62
7
6
CONTINUOUS
10
73.5741150000
20
10.2991800000
11
73.9680070000
21
10.6930720000
0
LINE
5
336
100
AcDbEntity
8
05
100
AcDbLine
62
7
6
CONTINUOUS
10
98.8206130000
20
9.1352400000
11
99.1105910000
21
9.4252180000
0
LINE
5
337
100
AcDbEntity
8
05
100
AcDbLine
62
7
6
CONTINUOUS
10
99.8666600000
20
10.1812870000
11
100.3784450000
21
10.6930720000
0
LINE
5
338
100
AcDbEntity
8
05
100
AcDbLine
62
7
6
CONTINUOUS
10
99.1388110000
20
9.1352400000
11
99.4292410000
21
9.4256700000
0
LINE
5
339
100
AcDbEntity
8
05
100
AcDbLine
62
7
6
CONTINUOUS
10
99.9467390000
20
9.9431670000
11
100.6966430000
21
10.6930720000
0
LINE
5
33A
100
AcDbEntity
8
05
100
AcDbLine
62
7
6
CONTINUOUS
10
99.4562560000
20
9.1344860000
11
101.0146710000
21
10.6929020000
0
LINE
5
33B
100
AcDbEntity
8
05
100
AcDbLine
62
7
6
CONTINUOUS
10
99.6305160000
20
8.9905480000
11
101.2989430000
21
10.6589760000
0
LINE
5
33C
100
AcDbEntity
8
05
100
AcDbLine
62
7
6
CONTINUOUS
10
99.6130000000
20
8.6548350000
11
101.5351130000
21
10.5769480000
0
LINE
5
33D
100
AcDbEntity
8
05
100
AcDbLine
62
7
6
CONTINUOUS
10
99.6052610000
20
8.3288970000
11
101.7250750000
21
10.4487110000
0
LINE
5
33E
100
AcDbEntity
8
05
100
AcDbLine
62
7
6
CONTINUOUS
10
99.8035140000
20
8.2089520000
11
101.8509000000
21
10.2563380000
0
LINE
5
33F
100
AcDbEntity
8
05
100
AcDbLine
62
7
6
CONTINUOUS
10
100.1217120000
20
8.2089520000
11
101.2212130000
21
9.3084530000
0
LINE
5
340
100
AcDbEntity
8
05
100
AcDbLine
62
7
6
CONTINUOUS
10
101.2660830000
20
9.3533230000
11
101.8342290000
21
9.9214690000
0
LINE
5
341
100
AcDbEntity
8
05
100
AcDbLine
62
7
6
CONTINUOUS
10
100.4399100000
20
8.2089520000
11
101.3457580000
21
9.1148000000
0
LINE
5
342
100
AcDbEntity
8
05
100
AcDbLine
62
7
6
CONTINUOUS
10
102.6292330000
20
10.3982750000
11
102.9240300000
21
10.6930720000
0
LINE
5
343
100
AcDbEntity
8
05
100
AcDbLine
62
7
6
CONTINUOUS
10
100.7581080000
20
8.2089520000
11
101.3299420000
21
8.7807860000
0
LINE
5
344
100
AcDbEntity
8
05
100
AcDbLine
62
7
6
CONTINUOUS
10
102.5385960000
20
9.9894400000
11
103.2422280000
21
10.6930720000
0
LINE
5
345
100
AcDbEntity
8
05
100
AcDbLine
62
7
6
CONTINUOUS
10
101.0763060000
20
8.2089520000
11
101.3071930000
21
8.4398390000
0
LINE
5
346
100
AcDbEntity
8
05
100
AcDbLine
62
7
6
CONTINUOUS
10
102.4479600000
20
9.5806060000
11
103.5604260000
21
10.6930720000
0
LINE
5
347
100
AcDbEntity
8
05
100
AcDbLine
62
7
6
CONTINUOUS
10
102.3573230000
20
9.1717720000
11
103.8786240000
21
10.6930720000
0
LINE
5
348
100
AcDbEntity
8
05
100
AcDbLine
62
7
6
CONTINUOUS
10
102.2666870000
20
8.7629370000
11
104.1968220000
21
10.6930720000
0
LINE
5
349
100
AcDbEntity
8
05
100
AcDbLine
62
7
6
CONTINUOUS
10
102.1760510000
20
8.3541030000
11
104.3703470000
21
10.5483990000
0
LINE
5
34A
100
AcDbEntity
8
05
100
AcDbLine
62
7
6
CONTINUOUS
10
102.3490980000
20
8.2089520000
11
104.2797100000
21
10.1395640000
0
LINE
5
34B
100
AcDbEntity
8
05
100
AcDbLine
62
7
6
CONTINUOUS
10
102.6672960000
20
8.2089520000
11
104.1890740000
21
9.7307300000
0
LINE
5
34C
100
AcDbEntity
8
05
100
AcDbLine
62
7
6
CONTINUOUS
10
102.9854940000
20
8.2089520000
11
104.0984370000
21
9.3218950000
0
LINE
5
34D
100
AcDbEntity
8
05
100
AcDbLine
62
7
6
CONTINUOUS
10
105.3950670000
20
10.6185250000
11
105.4696140000
21
10.6930720000
0
LINE
5
34E
100
AcDbEntity
8
05
100
AcDbLine
62
7
6
CONTINUOUS
10
103.3036920000
20
8.2089520000
11
104.0078010000
21
8.9130610000
0
LINE
5
34F
100
AcDbEntity
8
05
100
AcDbLine
62
7
6
CONTINUOUS
10
105.3044300000
20
10.2096900000
11
105.7878120000
21
10.6930720000
0
LINE
5
350
100
AcDbEntity
8
05
100
AcDbLine
62
7
6
CONTINUOUS
10
103.6218900000
20
8.2089520000
11
103.9171640000
21
8.5042260000
0
LINE
5
351
100
AcDbEntity
8
05
100
AcDbLine
62
7
6
CONTINUOUS
10
105.2137940000
20
9.8008560000
11
106.1060100000
21
10.6930720000
0
LINE
5
352
100
AcDbEntity
8
05
100
AcDbLine
62
7
6
CONTINUOUS
10
105.1231580000
20
9.3920210000
11
106.4242080000
21
10.6930720000
0
LINE
5
353
100
AcDbEntity
8
05
100
AcDbLine
62
7
6
CONTINUOUS
10
105.0325210000
20
8.9831870000
11
106.7424060000
21
10.6930720000
0
LINE
5
354
100
AcDbEntity
8
05
100
AcDbLine
62
7
6
CONTINUOUS
10
104.9418850000
20
8.5743520000
11
107.0364400000
21
10.6689080000
0
LINE
5
355
100
AcDbEntity
8
05
100
AcDbLine
62
7
6
CONTINUOUS
10
104.8946830000
20
8.2089520000
11
106.9458040000
21
10.2600730000
0
LINE
5
356
100
AcDbEntity
8
05
100
AcDbLine
62
7
6
CONTINUOUS
10
105.2128810000
20
8.2089520000
11
106.8577180000
21
9.8537890000
0
LINE
5
357
100
AcDbEntity
8
05
100
AcDbLine
62
7
6
CONTINUOUS
10
105.5310790000
20
8.2089520000
11
107.4121960000
21
10.0900700000
0
LINE
5
358
100
AcDbEntity
8
05
100
AcDbLine
62
7
6
CONTINUOUS
10
105.8492770000
20
8.2089520000
11
107.9666750000
21
10.3263510000
0
LINE
5
359
100
AcDbEntity
8
05
100
AcDbLine
62
7
6
CONTINUOUS
10
106.1674750000
20
8.2089520000
11
106.5832580000
21
8.6247350000
0
LINE
5
35A
100
AcDbEntity
8
05
100
AcDbLine
62
7
6
CONTINUOUS
10
106.9071250000
20
8.9486020000
11
108.5211540000
21
10.5626310000
0
LINE
5
35B
100
AcDbEntity
8
05
100
AcDbLine
62
7
6
CONTINUOUS
10
106.4856730000
20
8.2089520000
11
106.4926210000
21
8.2159010000
0
LINE
5
35C
100
AcDbEntity
8
05
100
AcDbLine
62
7
6
CONTINUOUS
10
107.3871300000
20
9.1104090000
11
108.9697930000
21
10.6930720000
0
LINE
5
35D
100
AcDbEntity
8
05
100
AcDbLine
62
7
6
CONTINUOUS
10
107.5451590000
20
8.9502400000
11
109.2879910000
21
10.6930720000
0
LINE
5
35E
100
AcDbEntity
8
05
100
AcDbLine
62
7
6
CONTINUOUS
10
107.7031880000
20
8.7900710000
11
109.6061890000
21
10.6930720000
0
LINE
5
35F
100
AcDbEntity
8
05
100
AcDbLine
62
7
6
CONTINUOUS
10
107.8612170000
20
8.6299020000
11
109.0334790000
21
9.8021650000
0
LINE
5
360
100
AcDbEntity
8
05
100
AcDbLine
62
7
6
CONTINUOUS
10
109.1250400000
20
9.8937250000
11
109.9243870000
21
10.6930720000
0
LINE
5
361
100
AcDbEntity
8
05
100
AcDbLine
62
7
6
CONTINUOUS
10
108.0192460000
20
8.4697330000
11
109.1915080000
21
9.6419950000
0
LINE
5
362
100
AcDbEntity
8
05
100
AcDbLine
62
7
6
CONTINUOUS
10
109.6795190000
20
10.1300060000
11
110.2425850000
21
10.6930720000
0
LINE
5
363
100
AcDbEntity
8
05
100
AcDbLine
62
7
6
CONTINUOUS
10
108.1772750000
20
8.3095640000
11
109.3495370000
21
9.4818260000
0
LINE
5
364
100
AcDbEntity
8
05
100
AcDbLine
62
7
6
CONTINUOUS
10
110.2339980000
20
10.3662870000
11
110.5607830000
21
10.6930720000
0
LINE
5
365
100
AcDbEntity
8
05
100
AcDbLine
62
7
6
CONTINUOUS
10
108.3948610000
20
8.2089520000
11
109.5075660000
21
9.3216570000
0
LINE
5
366
100
AcDbEntity
8
05
100
AcDbLine
62
7
6
CONTINUOUS
10
110.7884760000
20
10.6025670000
11
110.8789810000
21
10.6930720000
0
LINE
5
367
100
AcDbEntity
8
05
100
AcDbLine
62
7
6
CONTINUOUS
10
108.7130590000
20
8.2089520000
11
109.6655950000
21
9.1614880000
0
LINE
5
368
100
AcDbEntity
8
05
100
AcDbLine
62
7
6
CONTINUOUS
10
109.0312570000
20
8.2089520000
11
109.8236240000
21
9.0013190000
0
LINE
5
369
100
AcDbEntity
8
05
100
AcDbLine
62
7
6
CONTINUOUS
10
109.3494550000
20
8.2089520000
11
109.9816530000
21
8.8411500000
0
LINE
5
36A
100
AcDbEntity
8
05
100
AcDbLine
62
7
6
CONTINUOUS
10
109.6676530000
20
8.2089520000
11
110.1396820000
21
8.6809810000
0
LINE
5
36B
100
AcDbEntity
8
05
100
AcDbLine
62
7
6
CONTINUOUS
10
109.9858510000
20
8.2089520000
11
110.2977110000
21
8.5208120000
0
LINE
5
36C
100
AcDbEntity
8
05
100
AcDbLine
62
7
6
CONTINUOUS
10
110.3040500000
20
8.2089520000
11
110.4557400000
21
8.3606430000
0
LINE
5
36D
100
AcDbEntity
8
05
100
AcDbLine
62
7
6
CONTINUOUS
10
115.3077010000
20
10.6670200000
11
115.3344820000
21
10.6938010000
0
LINE
5
36E
100
AcDbEntity
8
05
100
AcDbLine
62
7
6
CONTINUOUS
10
114.3531070000
20
9.3942270000
11
115.6526800000
21
10.6938010000
0
LINE
5
36F
100
AcDbEntity
8
05
100
AcDbLine
62
7
6
CONTINUOUS
10
113.4860300000
20
8.2089520000
11
115.9708790000
21
10.6938010000
0
LINE
5
370
100
AcDbEntity
8
05
100
AcDbLine
62
7
6
CONTINUOUS
10
113.8042280000
20
8.2089520000
11
116.2890770000
21
10.6938010000
0
LINE
5
371
100
AcDbEntity
8
05
100
AcDbLine
62
7
6
CONTINUOUS
10
114.1224260000
20
8.2089520000
11
116.6072750000
21
10.6938010000
0
LINE
5
372
100
AcDbEntity
8
05
100
AcDbLine
62
7
6
CONTINUOUS
10
114.4406240000
20
8.2089520000
11
116.9254730000
21
10.6938010000
0
LINE
5
373
100
AcDbEntity
8
05
100
AcDbLine
62
7
6
CONTINUOUS
10
114.7588220000
20
8.2089520000
11
116.2846820000
21
9.7348120000
0
LINE
5
374
100
AcDbEntity
8
05
100
AcDbLine
62
7
6
CONTINUOUS
10
116.8285960000
20
10.2787260000
11
117.2436710000
21
10.6938010000
0
LINE
5
375
100
AcDbEntity
8
05
100
AcDbLine
62
7
6
CONTINUOUS
10
115.0770200000
20
8.2089520000
11
115.3300880000
21
8.4620200000
0
LINE
5
376
100
AcDbEntity
8
05
100
AcDbLine
62
7
6
CONTINUOUS
10
116.8922360000
20
10.0241680000
11
117.5618690000
21
10.6938010000
0
LINE
5
377
100
AcDbEntity
8
05
100
AcDbLine
62
7
6
CONTINUOUS
10
115.5570520000
20
8.6889840000
11
115.9302400000
21
9.0621710000
0
LINE
5
378
100
AcDbEntity
8
05
100
AcDbLine
62
7
6
CONTINUOUS
10
115.8752500000
20
8.6889840000
11
116.2484380000
21
9.0621710000
0
LINE
5
379
100
AcDbEntity
8
05
100
AcDbLine
62
7
6
CONTINUOUS
10
116.9558760000
20
9.7696100000
11
117.8800670000
21
10.6938010000
0
LINE
5
37A
100
AcDbEntity
8
05
100
AcDbLine
62
7
6
CONTINUOUS
10
116.1934480000
20
8.6889840000
11
116.5666360000
21
9.0621710000
0
LINE
5
37B
100
AcDbEntity
8
05
100
AcDbLine
62
7
6
CONTINUOUS
10
117.0195150000
20
9.5150510000
11
118.1982650000
21
10.6938010000
0
LINE
5
37C
100
AcDbEntity
8
05
100
AcDbLine
62
7
6
CONTINUOUS
10
116.5116460000
20
8.6889840000
11
116.8848340000
21
9.0621710000
0
LINE
5
37D
100
AcDbEntity
8
05
100
AcDbLine
62
7
6
CONTINUOUS
10
117.0831550000
20
9.2604930000
11
118.3292860000
21
10.5066230000
0
LINE
5
37E
100
AcDbEntity
8
05
100
AcDbLine
62
7
6
CONTINUOUS
10
116.8298440000
20
8.6889840000
11
118.3929250000
21
10.2520650000
0
LINE
5
37F
100
AcDbEntity
8
05
100
AcDbLine
62
7
6
CONTINUOUS
10
117.1480420000
20
8.6889840000
11
118.4565650000
21
9.9975060000
0
LINE
5
380
100
AcDbEntity
8
05
100
AcDbLine
62
7
6
CONTINUOUS
10
117.2740740000
20
8.4968170000
11
118.5202040000
21
9.7429480000
0
LINE
5
381
100
AcDbEntity
8
05
100
AcDbLine
62
7
6
CONTINUOUS
10
117.3377130000
20
8.2422590000
11
118.5838440000
21
9.4883900000
0
LINE
5
382
100
AcDbEntity
8
05
100
AcDbLine
62
7
6
CONTINUOUS
10
117.6226050000
20
8.2089520000
11
118.6474840000
21
9.2338310000
0
LINE
5
383
100
AcDbEntity
8
05
100
AcDbLine
62
7
6
CONTINUOUS
10
117.9408030000
20
8.2089520000
11
118.7111230000
21
8.9792730000
0
LINE
5
384
100
AcDbEntity
8
05
100
AcDbLine
62
7
6
CONTINUOUS
10
119.8640330000
20
10.1321820000
11
120.2440540000
21
10.5122030000
0
LINE
5
385
100
AcDbEntity
8
05
100
AcDbLine
62
7
6
CONTINUOUS
10
118.2590010000
20
8.2089520000
11
118.7747630000
21
8.7247140000
0
LINE
5
386
100
AcDbEntity
8
05
100
AcDbLine
62
7
6
CONTINUOUS
10
119.7959150000
20
9.7458660000
11
120.6185860000
21
10.5685370000
0
LINE
5
387
100
AcDbEntity
8
05
100
AcDbLine
62
7
6
CONTINUOUS
10
118.5771990000
20
8.2089520000
11
118.8384020000
21
8.4701560000
0
LINE
5
388
100
AcDbEntity
8
05
100
AcDbLine
62
7
6
CONTINUOUS
10
119.7277970000
20
9.3595500000
11
120.9813030000
21
10.6130560000
0
LINE
5
389
100
AcDbEntity
8
05
100
AcDbLine
62
7
6
CONTINUOUS
10
118.8953970000
20
8.2089520000
11
118.9020420000
21
8.2155970000
0
LINE
5
38A
100
AcDbEntity
8
05
100
AcDbLine
62
7
6
CONTINUOUS
10
119.6596790000
20
8.9732340000
11
121.3333580000
21
10.6469130000
0
LINE
5
38B
100
AcDbEntity
8
05
100
AcDbLine
62
7
6
CONTINUOUS
10
119.6152770000
20
8.6106340000
11
121.6757100000
21
10.6710670000
0
LINE
5
38C
100
AcDbEntity
8
05
100
AcDbLine
62
7
6
CONTINUOUS
10
119.7378940000
20
8.4150530000
11
122.0091650000
21
10.6863240000
0
LINE
5
38D
100
AcDbEntity
8
05
100
AcDbLine
62
7
6
CONTINUOUS
10
119.9839510000
20
8.3429130000
11
121.3408190000
21
9.6997800000
0
LINE
5
38E
100
AcDbEntity
8
05
100
AcDbLine
62
7
6
CONTINUOUS
10
121.8827100000
20
10.2416710000
11
122.3344090000
21
10.6933700000
0
LINE
5
38F
100
AcDbEntity
8
05
100
AcDbLine
62
7
6
CONTINUOUS
10
120.2652030000
20
8.3059660000
11
121.2727010000
21
9.3134640000
0
LINE
5
390
100
AcDbEntity
8
05
100
AcDbLine
62
7
6
CONTINUOUS
10
122.2192190000
20
10.2599820000
11
122.6520320000
21
10.6927950000
0
LINE
5
391
100
AcDbEntity
8
05
100
AcDbLine
62
7
6
CONTINUOUS
10
120.5518220000
20
8.2743870000
11
121.2250940000
21
8.9476590000
0
LINE
5
392
100
AcDbEntity
8
05
100
AcDbLine
62
7
6
CONTINUOUS
10
122.5263210000
20
10.2488860000
11
122.9625450000
21
10.6851100000
0
LINE
5
393
100
AcDbEntity
8
05
100
AcDbLine
62
7
6
CONTINUOUS
10
120.8440880000
20
8.2484550000
11
121.3438720000
21
8.7482390000
0
LINE
5
394
100
AcDbEntity
8
05
100
AcDbLine
62
7
6
CONTINUOUS
10
122.8104210000
20
10.2147880000
11
123.2663950000
21
10.6707620000
0
LINE
5
395
100
AcDbEntity
8
05
100
AcDbLine
62
7
6
CONTINUOUS
10
121.1423120000
20
8.2284810000
11
121.5883040000
21
8.6744730000
0
LINE
5
396
100
AcDbEntity
8
05
100
AcDbLine
62
7
6
CONTINUOUS
10
123.0259950000
20
10.1121640000
11
123.5639730000
21
10.6501420000
0
LINE
5
397
100
AcDbEntity
8
05
100
AcDbLine
62
7
6
CONTINUOUS
10
121.4468470000
20
8.2148180000
11
121.8836220000
21
8.6515930000
0
LINE
5
398
100
AcDbEntity
8
05
100
AcDbLine
62
7
6
CONTINUOUS
10
123.1960220000
20
9.9639930000
11
123.8556280000
21
10.6235990000
0
LINE
5
399
100
AcDbEntity
8
05
100
AcDbLine
62
7
6
CONTINUOUS
10
122.3537820000
20
9.1217520000
11
122.5334060000
21
9.3013760000
0
LINE
5
39A
100
AcDbEntity
8
05
100
AcDbLine
62
7
6
CONTINUOUS
10
121.7580900000
20
8.2078620000
11
122.2048330000
21
8.6546050000
0
LINE
5
39B
100
AcDbEntity
8
05
100
AcDbLine
62
7
6
CONTINUOUS
10
123.5142200000
20
9.9639930000
11
124.1416670000
21
10.5914400000
0
LINE
5
39C
100
AcDbEntity
8
05
100
AcDbLine
62
7
6
CONTINUOUS
10
122.6288760000
20
9.0786490000
11
122.8516040000
21
9.3013760000
0
LINE
5
39D
100
AcDbEntity
8
05
100
AcDbLine
62
7
6
CONTINUOUS
10
122.0764930000
20
8.2080680000
11
122.5603930000
21
8.6919670000
0
LINE
5
39E
100
AcDbEntity
8
05
100
AcDbLine
62
7
6
CONTINUOUS
10
123.8324180000
20
9.9639930000
11
124.4223670000
21
10.5539410000
0
LINE
5
39F
100
AcDbEntity
8
05
100
AcDbLine
62
7
6
CONTINUOUS
10
122.9470740000
20
9.0786490000
11
123.1698020000
21
9.3013760000
0
LINE
5
3A0
100
AcDbEntity
8
05
100
AcDbLine
62
7
6
CONTINUOUS
10
122.4025750000
20
8.2159520000
11
123.4880000000
21
9.3013760000
0
LINE
5
3A1
100
AcDbEntity
8
05
100
AcDbLine
62
7
6
CONTINUOUS
10
124.1506160000
20
9.9639930000
11
124.6387420000
21
10.4521180000
0
LINE
5
3A2
100
AcDbEntity
8
05
100
AcDbLine
62
7
6
CONTINUOUS
10
122.7369360000
20
8.2321150000
11
123.8061980000
21
9.3013760000
0
LINE
5
3A3
100
AcDbEntity
8
05
100
AcDbLine
62
7
6
CONTINUOUS
10
124.4688140000
20
9.9639930000
11
124.7195490000
21
10.2147280000
0
LINE
5
3A4
100
AcDbEntity
8
05
100
AcDbLine
62
7
6
CONTINUOUS
10
123.0319720000
20
8.2089520000
11
124.1243960000
21
9.3013760000
0
LINE
5
3A5
100
AcDbEntity
8
05
100
AcDbLine
62
7
6
CONTINUOUS
10
123.3501700000
20
8.2089520000
11
124.4425940000
21
9.3013760000
0
LINE
5
3A6
100
AcDbEntity
8
05
100
AcDbLine
62
7
6
CONTINUOUS
10
123.6683680000
20
8.2089520000
11
124.5166470000
21
9.0572320000
0
LINE
5
3A7
100
AcDbEntity
8
05
100
AcDbLine
62
7
6
CONTINUOUS
10
123.9865660000
20
8.2089520000
11
124.4485290000
21
8.6709160000
0
LINE
5
3A8
100
AcDbEntity
8
05
100
AcDbLine
62
7
6
CONTINUOUS
10
124.3047640000
20
8.2089520000
11
124.3804110000
21
8.2846000000
0
LINE
5
3A9
100
AcDbEntity
8
05
100
AcDbLine
62
7
6
CONTINUOUS
10
99.8961450000
20
8.2089520000
11
99.6025370000
21
8.5025600000
0
LINE
5
3AA
100
AcDbEntity
8
05
100
AcDbLine
62
7
6
CONTINUOUS
10
98.1776440000
20
9.9274530000
11
97.4120250000
21
10.6930720000
0
LINE
5
3AB
100
AcDbEntity
8
05
100
AcDbLine
62
7
6
CONTINUOUS
10
98.9698570000
20
9.1352400000
11
98.6798790000
21
9.4252180000
0
LINE
5
3AC
100
AcDbEntity
8
05
100
AcDbLine
62
7
6
CONTINUOUS
10
98.6516590000
20
9.1352400000
11
98.3616810000
21
9.4252180000
0
LINE
5
3AD
100
AcDbEntity
8
05
100
AcDbLine
62
7
6
CONTINUOUS
10
98.1199030000
20
9.6669960000
11
97.0938270000
21
10.6930720000
0
LINE
5
3AE
100
AcDbEntity
8
05
100
AcDbLine
62
7
6
CONTINUOUS
10
98.3334610000
20
9.1352400000
11
96.7756290000
21
10.6930720000
0
LINE
5
3AF
100
AcDbEntity
8
05
100
AcDbLine
62
7
6
CONTINUOUS
10
98.0152630000
20
9.1352400000
11
96.6064980000
21
10.5440050000
0
LINE
5
3B0
100
AcDbEntity
8
05
100
AcDbLine
62
7
6
CONTINUOUS
10
97.9466770000
20
8.8856280000
11
96.5487570000
21
10.2835480000
0
LINE
5
3B1
100
AcDbEntity
8
05
100
AcDbLine
62
7
6
CONTINUOUS
10
97.8889360000
20
8.6251710000
11
96.4910150000
21
10.0230920000
0
LINE
5
3B2
100
AcDbEntity
8
05
100
AcDbLine
62
7
6
CONTINUOUS
10
96.0462220000
20
10.4678850000
11
95.8210350000
21
10.6930720000
0
LINE
5
3B3
100
AcDbEntity
8
05
100
AcDbLine
62
7
6
CONTINUOUS
10
97.8311940000
20
8.3647150000
11
96.4332730000
21
9.7626360000
0
LINE
5
3B4
100
AcDbEntity
8
05
100
AcDbLine
62
7
6
CONTINUOUS
10
95.9884800000
20
10.2074290000
11
95.5028370000
21
10.6930720000
0
LINE
5
3B5
100
AcDbEntity
8
05
100
AcDbLine
62
7
6
CONTINUOUS
10
97.6687580000
20
8.2089520000
11
96.3755310000
21
9.5021790000
0
LINE
5
3B6
100
AcDbEntity
8
05
100
AcDbLine
62
7
6
CONTINUOUS
10
95.8056690000
20
10.0720420000
11
95.1846390000
21
10.6930720000
0
LINE
5
3B7
100
AcDbEntity
8
05
100
AcDbLine
62
7
6
CONTINUOUS
10
97.3505600000
20
8.2089520000
11
96.3177890000
21
9.2417230000
0
LINE
5
3B8
100
AcDbEntity
8
05
100
AcDbLine
62
7
6
CONTINUOUS
10
95.4874710000
20
10.0720420000
11
94.8664410000
21
10.6930720000
0
LINE
5
3B9
100
AcDbEntity
8
05
100
AcDbLine
62
7
6
CONTINUOUS
10
97.0323620000
20
8.2089520000
11
96.2600480000
21
8.9812670000
0
LINE
5
3BA
100
AcDbEntity
8
05
100
AcDbLine
62
7
6
CONTINUOUS
10
95.1692730000
20
10.0720420000
11
94.5482430000
21
10.6930720000
0
LINE
5
3BB
100
AcDbEntity
8
05
100
AcDbLine
62
7
6
CONTINUOUS
10
96.7141640000
20
8.2089520000
11
96.2023060000
21
8.7208110000
0
LINE
5
3BC
100
AcDbEntity
8
05
100
AcDbLine
62
7
6
CONTINUOUS
10
94.8510750000
20
10.0720420000
11
94.2300450000
21
10.6930720000
0
LINE
5
3BD
100
AcDbEntity
8
05
100
AcDbLine
62
7
6
CONTINUOUS
10
96.3959660000
20
8.2089520000
11
96.1445640000
21
8.4603540000
0
LINE
5
3BE
100
AcDbEntity
8
05
100
AcDbLine
62
7
6
CONTINUOUS
10
94.5328760000
20
10.0720420000
11
93.9118470000
21
10.6930720000
0
LINE
5
3BF
100
AcDbEntity
8
05
100
AcDbLine
62
7
6
CONTINUOUS
10
94.3076510000
20
9.9790700000
11
93.5936480000
21
10.6930720000
0
LINE
5
3C0
100
AcDbEntity
8
05
100
AcDbLine
62
7
6
CONTINUOUS
10
94.2499090000
20
9.7186140000
11
93.2754500000
21
10.6930720000
0
LINE
5
3C1
100
AcDbEntity
8
05
100
AcDbLine
62
7
6
CONTINUOUS
10
94.1921670000
20
9.4581570000
11
92.9572520000
21
10.6930720000
0
LINE
5
3C2
100
AcDbEntity
8
05
100
AcDbLine
62
7
6
CONTINUOUS
10
94.1344250000
20
9.1977010000
11
92.6390540000
21
10.6930720000
0
LINE
5
3C3
100
AcDbEntity
8
05
100
AcDbLine
62
7
6
CONTINUOUS
10
94.0766830000
20
8.9372450000
11
92.3208560000
21
10.6930720000
0
LINE
5
3C4
100
AcDbEntity
8
05
100
AcDbLine
62
7
6
CONTINUOUS
10
94.0189420000
20
8.6767880000
11
92.0026580000
21
10.6930720000
0
LINE
5
3C5
100
AcDbEntity
8
05
100
AcDbLine
62
7
6
CONTINUOUS
10
93.9612000000
20
8.4163320000
11
92.5632790000
21
9.8142530000
0
LINE
5
3C6
100
AcDbEntity
8
05
100
AcDbLine
62
7
6
CONTINUOUS
10
92.3054900000
20
10.0720420000
11
91.6844600000
21
10.6930720000
0
LINE
5
3C7
100
AcDbEntity
8
05
100
AcDbLine
62
7
6
CONTINUOUS
10
93.8503820000
20
8.2089520000
11
92.5055370000
21
9.5537970000
0
LINE
5
3C8
100
AcDbEntity
8
05
100
AcDbLine
62
7
6
CONTINUOUS
10
91.9872920000
20
10.0720420000
11
91.3662620000
21
10.6930720000
0
LINE
5
3C9
100
AcDbEntity
8
05
100
AcDbLine
62
7
6
CONTINUOUS
10
93.5321840000
20
8.2089520000
11
92.4477960000
21
9.2933400000
0
LINE
5
3CA
100
AcDbEntity
8
05
100
AcDbLine
62
7
6
CONTINUOUS
10
91.6690940000
20
10.0720420000
11
91.1769590000
21
10.5641770000
0
LINE
5
3CB
100
AcDbEntity
8
05
100
AcDbLine
62
7
6
CONTINUOUS
10
93.2139860000
20
8.2089520000
11
92.3900540000
21
9.0328840000
0
LINE
5
3CC
100
AcDbEntity
8
05
100
AcDbLine
62
7
6
CONTINUOUS
10
90.7492670000
20
10.6736710000
11
90.7298660000
21
10.6930720000
0
LINE
5
3CD
100
AcDbEntity
8
05
100
AcDbLine
62
7
6
CONTINUOUS
10
91.3508960000
20
10.0720420000
11
91.1192170000
21
10.3037210000
0
LINE
5
3CE
100
AcDbEntity
8
05
100
AcDbLine
62
7
6
CONTINUOUS
10
92.8957880000
20
8.2089520000
11
92.3323120000
21
8.7724280000
0
LINE
5
3CF
100
AcDbEntity
8
05
100
AcDbLine
62
7
6
CONTINUOUS
10
90.6915250000
20
10.4132140000
11
90.4116680000
21
10.6930720000
0
LINE
5
3D0
100
AcDbEntity
8
05
100
AcDbLine
62
7
6
CONTINUOUS
10
92.5775900000
20
8.2089520000
11
92.2745700000
21
8.5119710000
0
LINE
5
3D1
100
AcDbEntity
8
05
100
AcDbLine
62
7
6
CONTINUOUS
10
90.6337840000
20
10.1527580000
11
90.0934700000
21
10.6930720000
0
LINE
5
3D2
100
AcDbEntity
8
05
100
AcDbLine
62
7
6
CONTINUOUS
10
92.2593920000
20
8.2089520000
11
92.2168290000
21
8.2515150000
0
LINE
5
3D3
100
AcDbEntity
8
05
100
AcDbLine
62
7
6
CONTINUOUS
10
90.5760420000
20
9.8923020000
11
89.7752720000
21
10.6930720000
0
LINE
5
3D4
100
AcDbEntity
8
05
100
AcDbLine
62
7
6
CONTINUOUS
10
90.5183000000
20
9.6318460000
11
89.4570740000
21
10.6930720000
0
LINE
5
3D5
100
AcDbEntity
8
05
100
AcDbLine
62
7
6
CONTINUOUS
10
90.4605580000
20
9.3713890000
11
89.1388760000
21
10.6930720000
0
LINE
5
3D6
100
AcDbEntity
8
05
100
AcDbLine
62
7
6
CONTINUOUS
10
90.4028170000
20
9.1109330000
11
89.0084280000
21
10.5053220000
0
LINE
5
3D7
100
AcDbEntity
8
05
100
AcDbLine
62
7
6
CONTINUOUS
10
90.3450750000
20
8.8504770000
11
88.9506860000
21
10.2448650000
0
LINE
5
3D8
100
AcDbEntity
8
05
100
AcDbLine
62
7
6
CONTINUOUS
10
90.2138080000
20
8.6635450000
11
88.8929450000
21
9.9844090000
0
LINE
5
3D9
100
AcDbEntity
8
05
100
AcDbLine
62
7
6
CONTINUOUS
10
90.0174480000
20
8.5417070000
11
88.8352030000
21
9.7239530000
0
LINE
5
3DA
100
AcDbEntity
8
05
100
AcDbLine
62
7
6
CONTINUOUS
10
89.8026520000
20
8.4383050000
11
88.7774610000
21
9.4634960000
0
LINE
5
3DB
100
AcDbEntity
8
05
100
AcDbLine
62
7
6
CONTINUOUS
10
89.5671730000
20
8.3555860000
11
88.7197190000
21
9.2030400000
0
LINE
5
3DC
100
AcDbEntity
8
05
100
AcDbLine
62
7
6
CONTINUOUS
10
89.3151830000
20
8.2893790000
11
88.6187120000
21
8.9858500000
0
LINE
5
3DD
100
AcDbEntity
8
05
100
AcDbLine
62
7
6
CONTINUOUS
10
87.1186190000
20
10.4859430000
11
86.9114890000
21
10.6930720000
0
LINE
5
3DE
100
AcDbEntity
8
05
100
AcDbLine
62
7
6
CONTINUOUS
10
89.0511440000
20
8.2352190000
11
88.4221760000
21
8.8641880000
0
LINE
5
3DF
100
AcDbEntity
8
05
100
AcDbLine
62
7
6
CONTINUOUS
10
87.0608770000
20
10.2254860000
11
86.5932910000
21
10.6930720000
0
LINE
5
3E0
100
AcDbEntity
8
05
100
AcDbLine
62
7
6
CONTINUOUS
10
88.7736700000
20
8.1944950000
11
88.1774040000
21
8.7907610000
0
LINE
5
3E1
100
AcDbEntity
8
05
100
AcDbLine
62
7
6
CONTINUOUS
10
87.0031350000
20
9.9650300000
11
86.2750930000
21
10.6930720000
0
LINE
5
3E2
100
AcDbEntity
8
05
100
AcDbLine
62
7
6
CONTINUOUS
10
88.4851820000
20
8.1647850000
11
87.8938350000
21
8.7561320000
0
LINE
5
3E3
100
AcDbEntity
8
05
100
AcDbLine
62
7
6
CONTINUOUS
10
86.9453930000
20
9.7045740000
11
85.9568950000
21
10.6930720000
0
LINE
5
3E4
100
AcDbEntity
8
05
100
AcDbLine
62
7
6
CONTINUOUS
10
88.1877790000
20
8.1439900000
11
87.5712750000
21
8.7604950000
0
LINE
5
3E5
100
AcDbEntity
8
05
100
AcDbLine
62
7
6
CONTINUOUS
10
86.8876520000
20
9.4441170000
11
85.6386970000
21
10.6930720000
0
LINE
5
3E6
100
AcDbEntity
8
05
100
AcDbLine
62
7
6
CONTINUOUS
10
87.8806500000
20
8.1329210000
11
87.1766500000
21
8.8369210000
0
LINE
5
3E7
100
AcDbEntity
8
05
100
AcDbLine
62
7
6
CONTINUOUS
10
86.8299100000
20
9.1836610000
11
85.4355100000
21
10.5780610000
0
LINE
5
3E8
100
AcDbEntity
8
05
100
AcDbLine
62
7
6
CONTINUOUS
10
87.5628170000
20
8.1325560000
11
85.3777680000
21
10.3176050000
0
LINE
5
3E9
100
AcDbEntity
8
05
100
AcDbLine
62
7
6
CONTINUOUS
10
87.2330740000
20
8.1441010000
11
85.3200260000
21
10.0571490000
0
LINE
5
3EA
100
AcDbEntity
8
05
100
AcDbLine
62
7
6
CONTINUOUS
10
84.6846080000
20
10.6925670000
11
84.6841030000
21
10.6930720000
0
LINE
5
3EB
100
AcDbEntity
8
05
100
AcDbLine
62
7
6
CONTINUOUS
10
86.8899190000
20
8.1690580000
11
85.2622840000
21
9.7966920000
0
LINE
5
3EC
100
AcDbEntity
8
05
100
AcDbLine
62
7
6
CONTINUOUS
10
84.6268660000
20
10.4321110000
11
84.3659050000
21
10.6930720000
0
LINE
5
3ED
100
AcDbEntity
8
05
100
AcDbLine
62
7
6
CONTINUOUS
10
86.5309040000
20
8.2098750000
11
85.2045430000
21
9.5362360000
0
LINE
5
3EE
100
AcDbEntity
8
05
100
AcDbLine
62
7
6
CONTINUOUS
10
84.4876850000
20
10.2530940000
11
84.0477070000
21
10.6930720000
0
LINE
5
3EF
100
AcDbEntity
8
05
100
AcDbLine
62
7
6
CONTINUOUS
10
86.1408320000
20
8.2817490000
11
85.1468010000
21
9.2757800000
0
LINE
5
3F0
100
AcDbEntity
8
05
100
AcDbLine
62
7
6
CONTINUOUS
10
84.1694870000
20
10.2530940000
11
83.7295090000
21
10.6930720000
0
LINE
5
3F1
100
AcDbEntity
8
05
100
AcDbLine
62
7
6
CONTINUOUS
10
85.6959590000
20
8.4084240000
11
85.0890590000
21
9.0153240000
0
LINE
5
3F2
100
AcDbEntity
8
05
100
AcDbLine
62
7
6
CONTINUOUS
10
83.8512890000
20
10.2530940000
11
83.4113110000
21
10.6930720000
0
LINE
5
3F3
100
AcDbEntity
8
05
100
AcDbLine
62
7
6
CONTINUOUS
10
84.2052730000
20
9.5809110000
11
84.1901830000
21
9.5960010000
0
LINE
5
3F4
100
AcDbEntity
8
05
100
AcDbLine
62
7
6
CONTINUOUS
10
83.5330910000
20
10.2530940000
11
83.0931130000
21
10.6930720000
0
LINE
5
3F5
100
AcDbEntity
8
05
100
AcDbLine
62
7
6
CONTINUOUS
10
84.1475320000
20
9.3204550000
11
83.8719850000
21
9.5960010000
0
LINE
5
3F6
100
AcDbEntity
8
05
100
AcDbLine
62
7
6
CONTINUOUS
10
83.2148930000
20
10.2530940000
11
82.7749150000
21
10.6930720000
0
LINE
5
3F7
100
AcDbEntity
8
05
100
AcDbLine
62
7
6
CONTINUOUS
10
83.8437660000
20
9.3060230000
11
83.5537870000
21
9.5960010000
0
LINE
5
3F8
100
AcDbEntity
8
05
100
AcDbLine
62
7
6
CONTINUOUS
10
82.8966950000
20
10.2530940000
11
82.4567170000
21
10.6930720000
0
LINE
5
3F9
100
AcDbEntity
8
05
100
AcDbLine
62
7
6
CONTINUOUS
10
84.2226740000
20
8.6089170000
11
84.1826600000
21
8.6489310000
0
LINE
5
3FA
100
AcDbEntity
8
05
100
AcDbLine
62
7
6
CONTINUOUS
10
82.5784970000
20
10.2530940000
11
82.1385190000
21
10.6930720000
0
LINE
5
3FB
100
AcDbEntity
8
05
100
AcDbLine
62
7
6
CONTINUOUS
10
83.5255680000
20
9.3060230000
11
83.2355890000
21
9.5960010000
0
LINE
5
3FC
100
AcDbEntity
8
05
100
AcDbLine
62
7
6
CONTINUOUS
10
84.1649320000
20
8.3484610000
11
83.8644620000
21
8.6489310000
0
LINE
5
3FD
100
AcDbEntity
8
05
100
AcDbLine
62
7
6
CONTINUOUS
10
82.2602990000
20
10.2530940000
11
81.8203210000
21
10.6930720000
0
LINE
5
3FE
100
AcDbEntity
8
05
100
AcDbLine
62
7
6
CONTINUOUS
10
83.2073700000
20
9.3060230000
11
82.9173910000
21
9.5960010000
0
LINE
5
3FF
100
AcDbEntity
8
05
100
AcDbLine
62
7
6
CONTINUOUS
10
83.9862420000
20
8.2089520000
11
83.5462640000
21
8.6489310000
0
LINE
5
400
100
AcDbEntity
8
05
100
AcDbLine
62
7
6
CONTINUOUS
10
81.9421010000
20
10.2530940000
11
81.5021230000
21
10.6930720000
0
LINE
5
401
100
AcDbEntity
8
05
100
AcDbLine
62
7
6
CONTINUOUS
10
82.8891720000
20
9.3060230000
11
82.5991930000
21
9.5960010000
0
LINE
5
402
100
AcDbEntity
8
05
100
AcDbLine
62
7
6
CONTINUOUS
10
83.6680440000
20
8.2089520000
11
83.2280660000
21
8.6489310000
0
LINE
5
403
100
AcDbEntity
8
05
100
AcDbLine
62
7
6
CONTINUOUS
10
81.6348580000
20
10.2421380000
11
81.1839240000
21
10.6930720000
0
LINE
5
404
100
AcDbEntity
8
05
100
AcDbLine
62
7
6
CONTINUOUS
10
82.5709740000
20
9.3060230000
11
82.2809950000
21
9.5960010000
0
LINE
5
405
100
AcDbEntity
8
05
100
AcDbLine
62
7
6
CONTINUOUS
10
83.3498460000
20
8.2089520000
11
82.9098680000
21
8.6489310000
0
LINE
5
406
100
AcDbEntity
8
05
100
AcDbLine
62
7
6
CONTINUOUS
10
81.5771160000
20
9.9816820000
11
80.8657260000
21
10.6930720000
0
LINE
5
407
100
AcDbEntity
8
05
100
AcDbLine
62
7
6
CONTINUOUS
10
82.2527750000
20
9.3060230000
11
81.9627970000
21
9.5960010000
0
LINE
5
408
100
AcDbEntity
8
05
100
AcDbLine
62
7
6
CONTINUOUS
10
83.0316480000
20
8.2089520000
11
82.5916700000
21
8.6489310000
0
LINE
5
409
100
AcDbEntity
8
05
100
AcDbLine
62
7
6
CONTINUOUS
10
81.5193740000
20
9.7212260000
11
80.5475280000
21
10.6930720000
0
LINE
5
40A
100
AcDbEntity
8
05
100
AcDbLine
62
7
6
CONTINUOUS
10
81.9345770000
20
9.3060230000
11
81.6445990000
21
9.5960010000
0
LINE
5
40B
100
AcDbEntity
8
05
100
AcDbLine
62
7
6
CONTINUOUS
10
82.7134500000
20
8.2089520000
11
82.2734720000
21
8.6489310000
0
LINE
5
40C
100
AcDbEntity
8
05
100
AcDbLine
62
7
6
CONTINUOUS
10
81.6163790000
20
9.3060230000
11
80.2293300000
21
10.6930720000
0
LINE
5
40D
100
AcDbEntity
8
05
100
AcDbLine
62
7
6
CONTINUOUS
10
82.3952520000
20
8.2089520000
11
81.9552740000
21
8.6489310000
0
LINE
5
40E
100
AcDbEntity
8
05
100
AcDbLine
62
7
6
CONTINUOUS
10
81.4038910000
20
9.2003130000
11
80.0059700000
21
10.5982340000
0
LINE
5
40F
100
AcDbEntity
8
05
100
AcDbLine
62
7
6
CONTINUOUS
10
82.0770540000
20
8.2089520000
11
81.6370750000
21
8.6489310000
0
LINE
5
410
100
AcDbEntity
8
05
100
AcDbLine
62
7
6
CONTINUOUS
10
81.3461490000
20
8.9398570000
11
79.9482280000
21
10.3377780000
0
LINE
5
411
100
AcDbEntity
8
05
100
AcDbLine
62
7
6
CONTINUOUS
10
81.7588560000
20
8.2089520000
11
81.3188770000
21
8.6489310000
0
LINE
5
412
100
AcDbEntity
8
05
100
AcDbLine
62
7
6
CONTINUOUS
10
81.2884070000
20
8.6794010000
11
79.8904870000
21
10.0773220000
0
LINE
5
413
100
AcDbEntity
8
05
100
AcDbLine
62
7
6
CONTINUOUS
10
81.4406580000
20
8.2089520000
11
79.8327450000
21
9.8168650000
0
LINE
5
414
100
AcDbEntity
8
05
100
AcDbLine
62
7
6
CONTINUOUS
10
79.1337840000
20
10.5158260000
11
78.9565380000
21
10.6930720000
0
LINE
5
415
100
AcDbEntity
8
05
100
AcDbLine
62
7
6
CONTINUOUS
10
81.1224600000
20
8.2089520000
11
79.7750030000
21
9.5564090000
0
LINE
5
416
100
AcDbEntity
8
05
100
AcDbLine
62
7
6
CONTINUOUS
10
79.0760430000
20
10.2553690000
11
78.6383400000
21
10.6930720000
0
LINE
5
417
100
AcDbEntity
8
05
100
AcDbLine
62
7
6
CONTINUOUS
10
80.8042620000
20
8.2089520000
11
79.7172610000
21
9.2959530000
0
LINE
5
418
100
AcDbEntity
8
05
100
AcDbLine
62
7
6
CONTINUOUS
10
79.0183010000
20
9.9949130000
11
78.3201420000
21
10.6930720000
0
LINE
5
419
100
AcDbEntity
8
05
100
AcDbLine
62
7
6
CONTINUOUS
10
80.4860640000
20
8.2089520000
11
79.6595200000
21
9.0354960000
0
LINE
5
41A
100
AcDbEntity
8
05
100
AcDbLine
62
7
6
CONTINUOUS
10
78.9605590000
20
9.7344570000
11
78.0019440000
21
10.6930720000
0
LINE
5
41B
100
AcDbEntity
8
05
100
AcDbLine
62
7
6
CONTINUOUS
10
80.1678660000
20
8.2089520000
11
79.6017780000
21
8.7750400000
0
LINE
5
41C
100
AcDbEntity
8
05
100
AcDbLine
62
7
6
CONTINUOUS
10
78.9028170000
20
9.4740000000
11
77.6837460000
21
10.6930720000
0
LINE
5
41D
100
AcDbEntity
8
05
100
AcDbLine
62
7
6
CONTINUOUS
10
79.8496680000
20
8.2089520000
11
79.5440360000
21
8.5145840000
0
LINE
5
41E
100
AcDbEntity
8
05
100
AcDbLine
62
7
6
CONTINUOUS
10
78.8450760000
20
9.2135440000
11
77.4471550000
21
10.6114650000
0
LINE
5
41F
100
AcDbEntity
8
05
100
AcDbLine
62
7
6
CONTINUOUS
10
79.5314700000
20
8.2089520000
11
79.4862940000
21
8.2541280000
0
LINE
5
420
100
AcDbEntity
8
05
100
AcDbLine
62
7
6
CONTINUOUS
10
78.7873340000
20
8.9530880000
11
77.3894130000
21
10.3510090000
0
LINE
5
421
100
AcDbEntity
8
05
100
AcDbLine
62
7
6
CONTINUOUS
10
78.7295920000
20
8.6926320000
11
77.3316710000
21
10.0905520000
0
LINE
5
422
100
AcDbEntity
8
05
100
AcDbLine
62
7
6
CONTINUOUS
10
78.6718500000
20
8.4321750000
11
77.2739300000
21
9.8300960000
0
LINE
5
423
100
AcDbEntity
8
05
100
AcDbLine
62
7
6
CONTINUOUS
10
78.5768750000
20
8.2089520000
11
77.0733040000
21
9.7125240000
0
LINE
5
424
100
AcDbEntity
8
05
100
AcDbLine
62
7
6
CONTINUOUS
10
78.2586770000
20
8.2089520000
11
75.9995820000
21
10.4680470000
0
LINE
5
425
100
AcDbEntity
8
05
100
AcDbLine
62
7
6
CONTINUOUS
10
77.9404790000
20
8.2089520000
11
75.4563600000
21
10.6930720000
0
LINE
5
426
100
AcDbEntity
8
05
100
AcDbLine
62
7
6
CONTINUOUS
10
77.6222810000
20
8.2089520000
11
75.1381610000
21
10.6930720000
0
LINE
5
427
100
AcDbEntity
8
05
100
AcDbLine
62
7
6
CONTINUOUS
10
77.3040830000
20
8.2089520000
11
74.8199630000
21
10.6930720000
0
LINE
5
428
100
AcDbEntity
8
05
100
AcDbLine
62
7
6
CONTINUOUS
10
76.9858850000
20
8.2089520000
11
74.5017650000
21
10.6930720000
0
LINE
5
429
100
AcDbEntity
8
05
100
AcDbLine
62
7
6
CONTINUOUS
10
76.5426650000
20
8.3339750000
11
74.1835670000
21
10.6930720000
0
LINE
5
42A
100
AcDbEntity
8
05
100
AcDbLine
62
7
6
CONTINUOUS
10
75.0963650000
20
9.4620760000
11
73.8653690000
21
10.6930720000
0
LINE
5
42B
100
AcDbEntity
8
05
100
AcDbLine
62
7
6
CONTINUOUS
10
75.0386240000
20
9.2016200000
11
73.6407030000
21
10.5995400000
0
LINE
5
42C
100
AcDbEntity
8
05
100
AcDbLine
62
7
6
CONTINUOUS
10
74.9808820000
20
8.9411630000
11
73.5829610000
21
10.3390840000
0
LINE
5
42D
100
AcDbEntity
8
05
100
AcDbLine
62
7
6
CONTINUOUS
10
74.9231400000
20
8.6807070000
11
73.5252190000
21
10.0786280000
0
LINE
5
42E
100
AcDbEntity
8
05
100
AcDbLine
62
7
6
CONTINUOUS
10
74.8653980000
20
8.4202510000
11
73.4674780000
21
9.8181710000
0
LINE
5
42F
100
AcDbEntity
8
05
100
AcDbLine
62
7
6
CONTINUOUS
10
74.7584990000
20
8.2089520000
11
73.4097360000
21
9.5577150000
0
LINE
5
430
100
AcDbEntity
8
05
100
AcDbLine
62
7
6
CONTINUOUS
10
74.4403010000
20
8.2089520000
11
73.3519940000
21
9.2972590000
0
LINE
5
431
100
AcDbEntity
8
05
100
AcDbLine
62
7
6
CONTINUOUS
10
74.1221030000
20
8.2089520000
11
73.2942520000
21
9.0368030000
0
LINE
5
432
100
AcDbEntity
8
05
100
AcDbLine
62
7
6
CONTINUOUS
10
73.8039050000
20
8.2089520000
11
73.2365110000
21
8.7763460000
0
LINE
5
433
100
AcDbEntity
8
05
100
AcDbLine
62
7
6
CONTINUOUS
10
73.4857070000
20
8.2089520000
11
73.1787690000
21
8.5158900000
0
LINE
5
434
100
AcDbEntity
8
05
100
AcDbLine
62
7
6
CONTINUOUS
10
73.1675080000
20
8.2089520000
11
73.1210270000
21
8.2554340000
0
LINE
5
435
100
AcDbEntity
8
05
100
AcDbLine
62
7
6
CONTINUOUS
10
100.2143430000
20
8.2089520000
11
99.6229950000
21
8.8003000000
0
LINE
5
436
100
AcDbEntity
8
05
100
AcDbLine
62
7
6
CONTINUOUS
10
98.2353860000
20
10.1879090000
11
97.7302230000
21
10.6930720000
0
LINE
5
437
100
AcDbEntity
8
05
100
AcDbLine
62
7
6
CONTINUOUS
10
99.2880550000
20
9.1352400000
11
98.9980770000
21
9.4252180000
0
LINE
5
438
100
AcDbEntity
8
05
100
AcDbLine
62
7
6
CONTINUOUS
10
100.5325410000
20
8.2089520000
11
99.3162750000
21
9.4252180000
0
LINE
5
439
100
AcDbEntity
8
05
100
AcDbLine
62
7
6
CONTINUOUS
10
98.4884000000
20
10.2530940000
11
98.0484210000
21
10.6930720000
0
LINE
5
43A
100
AcDbEntity
8
05
100
AcDbLine
62
7
6
CONTINUOUS
10
100.8507390000
20
8.2089520000
11
99.5865410000
21
9.4731500000
0
LINE
5
43B
100
AcDbEntity
8
05
100
AcDbLine
62
7
6
CONTINUOUS
10
98.8065980000
20
10.2530940000
11
98.3666190000
21
10.6930720000
0
LINE
5
43C
100
AcDbEntity
8
05
100
AcDbLine
62
7
6
CONTINUOUS
10
101.1689370000
20
8.2089520000
11
99.7895650000
21
9.5883250000
0
LINE
5
43D
100
AcDbEntity
8
05
100
AcDbLine
62
7
6
CONTINUOUS
10
99.1247960000
20
10.2530940000
11
98.6848170000
21
10.6930720000
0
LINE
5
43E
100
AcDbEntity
8
05
100
AcDbLine
62
7
6
CONTINUOUS
10
101.3114220000
20
8.3846650000
11
99.9276840000
21
9.7684040000
0
LINE
5
43F
100
AcDbEntity
8
05
100
AcDbLine
62
7
6
CONTINUOUS
10
99.4429940000
20
10.2530940000
11
99.0030150000
21
10.6930720000
0
LINE
5
440
100
AcDbEntity
8
05
100
AcDbLine
62
7
6
CONTINUOUS
10
101.3236390000
20
8.6906470000
11
99.9146710000
21
10.0996140000
0
LINE
5
441
100
AcDbEntity
8
05
100
AcDbLine
62
7
6
CONTINUOUS
10
99.7916150000
20
10.2226700000
11
99.3212130000
21
10.6930720000
0
LINE
5
442
100
AcDbEntity
8
05
100
AcDbLine
62
7
6
CONTINUOUS
10
101.3444350000
20
8.9880480000
11
99.6394110000
21
10.6930720000
0
LINE
5
443
100
AcDbEntity
8
05
100
AcDbLine
62
7
6
CONTINUOUS
10
102.4417290000
20
8.2089520000
11
102.1979220000
21
8.4527590000
0
LINE
5
444
100
AcDbEntity
8
05
100
AcDbLine
62
7
6
CONTINUOUS
10
101.2866150000
20
9.3640660000
11
99.9576100000
21
10.6930720000
0
LINE
5
445
100
AcDbEntity
8
05
100
AcDbLine
62
7
6
CONTINUOUS
10
102.7599270000
20
8.2089520000
11
102.2556640000
21
8.7132160000
0
LINE
5
446
100
AcDbEntity
8
05
100
AcDbLine
62
7
6
CONTINUOUS
10
101.4817000000
20
9.4871790000
11
100.2758080000
21
10.6930720000
0
LINE
5
447
100
AcDbEntity
8
05
100
AcDbLine
62
7
6
CONTINUOUS
10
103.0781250000
20
8.2089520000
11
102.3134060000
21
8.9736720000
0
LINE
5
448
100
AcDbEntity
8
05
100
AcDbLine
62
7
6
CONTINUOUS
10
101.6502860000
20
9.6367910000
11
100.5940060000
21
10.6930720000
0
LINE
5
449
100
AcDbEntity
8
05
100
AcDbLine
62
7
6
CONTINUOUS
10
103.3963230000
20
8.2089520000
11
102.3711480000
21
9.2341280000
0
LINE
5
44A
100
AcDbEntity
8
05
100
AcDbLine
62
7
6
CONTINUOUS
10
101.7853460000
20
9.8199300000
11
100.9122040000
21
10.6930720000
0
LINE
5
44B
100
AcDbEntity
8
05
100
AcDbLine
62
7
6
CONTINUOUS
10
103.7145210000
20
8.2089520000
11
102.4288890000
21
9.4945840000
0
LINE
5
44C
100
AcDbEntity
8
05
100
AcDbLine
62
7
6
CONTINUOUS
10
101.8709020000
20
10.0525710000
11
101.2554280000
21
10.6680460000
0
LINE
5
44D
100
AcDbEntity
8
05
100
AcDbLine
62
7
6
CONTINUOUS
10
103.8845520000
20
8.3571200000
11
102.4866310000
21
9.7550410000
0
LINE
5
44E
100
AcDbEntity
8
05
100
AcDbLine
62
7
6
CONTINUOUS
10
103.9422940000
20
8.6175760000
11
102.5443730000
21
10.0154970000
0
LINE
5
44F
100
AcDbEntity
8
05
100
AcDbLine
62
7
6
CONTINUOUS
10
104.0000350000
20
8.8780330000
11
102.6021150000
21
10.2759530000
0
LINE
5
450
100
AcDbEntity
8
05
100
AcDbLine
62
7
6
CONTINUOUS
10
104.9873140000
20
8.2089520000
11
104.8838210000
21
8.3124450000
0
LINE
5
451
100
AcDbEntity
8
05
100
AcDbLine
62
7
6
CONTINUOUS
10
104.0577770000
20
9.1384890000
11
102.6598560000
21
10.5364100000
0
LINE
5
452
100
AcDbEntity
8
05
100
AcDbLine
62
7
6
CONTINUOUS
10
105.3055120000
20
8.2089520000
11
104.9415630000
21
8.5729010000
0
LINE
5
453
100
AcDbEntity
8
05
100
AcDbLine
62
7
6
CONTINUOUS
10
104.1155190000
20
9.3989450000
11
102.8213920000
21
10.6930720000
0
LINE
5
454
100
AcDbEntity
8
05
100
AcDbLine
62
7
6
CONTINUOUS
10
105.6237100000
20
8.2089520000
11
104.9993050000
21
8.8333570000
0
LINE
5
455
100
AcDbEntity
8
05
100
AcDbLine
62
7
6
CONTINUOUS
10
104.1732610000
20
9.6594010000
11
103.1395900000
21
10.6930720000
0
LINE
5
456
100
AcDbEntity
8
05
100
AcDbLine
62
7
6
CONTINUOUS
10
105.9419080000
20
8.2089520000
11
105.0570460000
21
9.0938140000
0
LINE
5
457
100
AcDbEntity
8
05
100
AcDbLine
62
7
6
CONTINUOUS
10
104.2310020000
20
9.9198580000
11
103.4577880000
21
10.6930720000
0
LINE
5
458
100
AcDbEntity
8
05
100
AcDbLine
62
7
6
CONTINUOUS
10
106.2601060000
20
8.2089520000
11
105.1147880000
21
9.3542700000
0
LINE
5
459
100
AcDbEntity
8
05
100
AcDbLine
62
7
6
CONTINUOUS
10
104.2887440000
20
10.1803140000
11
103.7759860000
21
10.6930720000
0
LINE
5
45A
100
AcDbEntity
8
05
100
AcDbLine
62
7
6
CONTINUOUS
10
106.5069090000
20
8.2803470000
11
105.1725300000
21
9.6147260000
0
LINE
5
45B
100
AcDbEntity
8
05
100
AcDbLine
62
7
6
CONTINUOUS
10
104.3464860000
20
10.4407700000
11
104.0941840000
21
10.6930720000
0
LINE
5
45C
100
AcDbEntity
8
05
100
AcDbLine
62
7
6
CONTINUOUS
10
106.5646510000
20
8.5408040000
11
105.2302720000
21
9.8751820000
0
LINE
5
45D
100
AcDbEntity
8
05
100
AcDbLine
62
7
6
CONTINUOUS
10
106.6223920000
20
8.8012600000
11
105.2880140000
21
10.1356390000
0
LINE
5
45E
100
AcDbEntity
8
05
100
AcDbLine
62
7
6
CONTINUOUS
10
106.8272750000
20
8.9145760000
11
105.3457550000
21
10.3960950000
0
LINE
5
45F
100
AcDbEntity
8
05
100
AcDbLine
62
7
6
CONTINUOUS
10
107.0503950000
20
9.0096540000
11
105.4034970000
21
10.6565510000
0
LINE
5
460
100
AcDbEntity
8
05
100
AcDbLine
62
7
6
CONTINUOUS
10
107.2735140000
20
9.1047320000
11
105.6851740000
21
10.6930720000
0
LINE
5
461
100
AcDbEntity
8
05
100
AcDbLine
62
7
6
CONTINUOUS
10
108.4874920000
20
8.2089520000
11
106.0033720000
21
10.6930720000
0
LINE
5
462
100
AcDbEntity
8
05
100
AcDbLine
62
7
6
CONTINUOUS
10
108.8056900000
20
8.2089520000
11
107.0702760000
21
9.9443670000
0
LINE
5
463
100
AcDbEntity
8
05
100
AcDbLine
62
7
6
CONTINUOUS
10
106.9111010000
20
10.1035410000
11
106.3215710000
21
10.6930720000
0
LINE
5
464
100
AcDbEntity
8
05
100
AcDbLine
62
7
6
CONTINUOUS
10
109.1238880000
20
8.2089520000
11
107.2933950000
21
10.0394450000
0
LINE
5
465
100
AcDbEntity
8
05
100
AcDbLine
62
7
6
CONTINUOUS
10
106.9688430000
20
10.3639980000
11
106.6397690000
21
10.6930720000
0
LINE
5
466
100
AcDbEntity
8
05
100
AcDbLine
62
7
6
CONTINUOUS
10
109.4420860000
20
8.2089520000
11
107.5165150000
21
10.1345230000
0
LINE
5
467
100
AcDbEntity
8
05
100
AcDbLine
62
7
6
CONTINUOUS
10
107.0265850000
20
10.6244540000
11
106.9579670000
21
10.6930720000
0
LINE
5
468
100
AcDbEntity
8
05
100
AcDbLine
62
7
6
CONTINUOUS
10
109.7602840000
20
8.2089520000
11
107.7396350000
21
10.2296020000
0
LINE
5
469
100
AcDbEntity
8
05
100
AcDbLine
62
7
6
CONTINUOUS
10
110.0784820000
20
8.2089520000
11
107.9627550000
21
10.3246800000
0
LINE
5
46A
100
AcDbEntity
8
05
100
AcDbLine
62
7
6
CONTINUOUS
10
110.3966810000
20
8.2089520000
11
108.1858740000
21
10.4197580000
0
LINE
5
46B
100
AcDbEntity
8
05
100
AcDbLine
62
7
6
CONTINUOUS
10
109.0584720000
20
9.8653590000
11
108.4089940000
21
10.5148370000
0
LINE
5
46C
100
AcDbEntity
8
05
100
AcDbLine
62
7
6
CONTINUOUS
10
109.2815920000
20
9.9604370000
11
108.6321140000
21
10.6099150000
0
LINE
5
46D
100
AcDbEntity
8
05
100
AcDbLine
62
7
6
CONTINUOUS
10
109.5047120000
20
10.0555150000
11
108.8671550000
21
10.6930720000
0
LINE
5
46E
100
AcDbEntity
8
05
100
AcDbLine
62
7
6
CONTINUOUS
10
109.7278310000
20
10.1505930000
11
109.1853530000
21
10.6930720000
0
LINE
5
46F
100
AcDbEntity
8
05
100
AcDbLine
62
7
6
CONTINUOUS
10
109.9509510000
20
10.2456720000
11
109.5035510000
21
10.6930720000
0
LINE
5
470
100
AcDbEntity
8
05
100
AcDbLine
62
7
6
CONTINUOUS
10
110.1740710000
20
10.3407500000
11
109.8217490000
21
10.6930720000
0
LINE
5
471
100
AcDbEntity
8
05
100
AcDbLine
62
7
6
CONTINUOUS
10
110.3971910000
20
10.4358280000
11
110.1399470000
21
10.6930720000
0
LINE
5
472
100
AcDbEntity
8
05
100
AcDbLine
62
7
6
CONTINUOUS
10
110.6203100000
20
10.5309070000
11
110.4581450000
21
10.6930720000
0
LINE
5
473
100
AcDbEntity
8
05
100
AcDbLine
62
7
6
CONTINUOUS
10
110.8434300000
20
10.6259850000
11
110.7763430000
21
10.6930720000
0
LINE
5
474
100
AcDbEntity
8
05
100
AcDbLine
62
7
6
CONTINUOUS
10
113.5786610000
20
8.2089520000
11
113.5132270000
21
8.2743870000
0
LINE
5
475
100
AcDbEntity
8
05
100
AcDbLine
62
7
6
CONTINUOUS
10
113.8968590000
20
8.2089520000
11
113.6495970000
21
8.4562140000
0
LINE
5
476
100
AcDbEntity
8
05
100
AcDbLine
62
7
6
CONTINUOUS
10
114.2150570000
20
8.2089520000
11
113.7859680000
21
8.6380420000
0
LINE
5
477
100
AcDbEntity
8
05
100
AcDbLine
62
7
6
CONTINUOUS
10
114.5332550000
20
8.2089520000
11
113.9223380000
21
8.8198690000
0
LINE
5
478
100
AcDbEntity
8
05
100
AcDbLine
62
7
6
CONTINUOUS
10
114.8514530000
20
8.2089520000
11
114.0587090000
21
9.0016960000
0
LINE
5
479
100
AcDbEntity
8
05
100
AcDbLine
62
7
6
CONTINUOUS
10
115.1528720000
20
8.2257320000
11
114.1950800000
21
9.1835240000
0
LINE
5
47A
100
AcDbEntity
8
05
100
AcDbLine
62
7
6
CONTINUOUS
10
115.2892420000
20
8.4075590000
11
114.3314500000
21
9.3653510000
0
LINE
5
47B
100
AcDbEntity
8
05
100
AcDbLine
62
7
6
CONTINUOUS
10
115.4256130000
20
8.5893870000
11
114.4678210000
21
9.5471790000
0
LINE
5
47C
100
AcDbEntity
8
05
100
AcDbLine
62
7
6
CONTINUOUS
10
115.6442140000
20
8.6889840000
11
114.6041910000
21
9.7290060000
0
LINE
5
47D
100
AcDbEntity
8
05
100
AcDbLine
62
7
6
CONTINUOUS
10
115.9624120000
20
8.6889840000
11
114.7405620000
21
9.9108340000
0
LINE
5
47E
100
AcDbEntity
8
05
100
AcDbLine
62
7
6
CONTINUOUS
10
116.2806100000
20
8.6889840000
11
115.9074220000
21
9.0621710000
0
LINE
5
47F
100
AcDbEntity
8
05
100
AcDbLine
62
7
6
CONTINUOUS
10
115.8347250000
20
9.1348690000
11
114.8769330000
21
10.0926610000
0
LINE
5
480
100
AcDbEntity
8
05
100
AcDbLine
62
7
6
CONTINUOUS
10
116.5988080000
20
8.6889840000
11
116.2256200000
21
9.0621710000
0
LINE
5
481
100
AcDbEntity
8
05
100
AcDbLine
62
7
6
CONTINUOUS
10
115.9710950000
20
9.3166960000
11
115.0133030000
21
10.2744890000
0
LINE
5
482
100
AcDbEntity
8
05
100
AcDbLine
62
7
6
CONTINUOUS
10
117.3970380000
20
8.2089520000
11
117.3290410000
21
8.2769490000
0
LINE
5
483
100
AcDbEntity
8
05
100
AcDbLine
62
7
6
CONTINUOUS
10
116.1074660000
20
9.4985240000
11
115.1496740000
21
10.4563160000
0
LINE
5
484
100
AcDbEntity
8
05
100
AcDbLine
62
7
6
CONTINUOUS
10
116.9170060000
20
8.6889840000
11
116.5438180000
21
9.0621710000
0
LINE
5
485
100
AcDbEntity
8
05
100
AcDbLine
62
7
6
CONTINUOUS
10
117.7152360000
20
8.2089520000
11
116.8620160000
21
9.0621710000
0
LINE
5
486
100
AcDbEntity
8
05
100
AcDbLine
62
7
6
CONTINUOUS
10
116.2438370000
20
9.6803510000
11
115.2860440000
21
10.6381440000
0
LINE
5
487
100
AcDbEntity
8
05
100
AcDbLine
62
7
6
CONTINUOUS
10
118.0334340000
20
8.2089520000
11
117.1169090000
21
9.1254770000
0
LINE
5
488
100
AcDbEntity
8
05
100
AcDbLine
62
7
6
CONTINUOUS
10
116.3802070000
20
9.8621790000
11
115.5485850000
21
10.6938010000
0
LINE
5
489
100
AcDbEntity
8
05
100
AcDbLine
62
7
6
CONTINUOUS
10
118.3516320000
20
8.2089520000
11
117.0108430000
21
9.5497410000
0
LINE
5
48A
100
AcDbEntity
8
05
100
AcDbLine
62
7
6
CONTINUOUS
10
116.5165780000
20
10.0440060000
11
115.8667830000
21
10.6938010000
0
LINE
5
48B
100
AcDbEntity
8
05
100
AcDbLine
62
7
6
CONTINUOUS
10
118.6698300000
20
8.2089520000
11
116.9047770000
21
9.9740050000
0
LINE
5
48C
100
AcDbEntity
8
05
100
AcDbLine
62
7
6
CONTINUOUS
10
116.6529480000
20
10.2258340000
11
116.1849810000
21
10.6938010000
0
LINE
5
48D
100
AcDbEntity
8
05
100
AcDbLine
62
7
6
CONTINUOUS
10
118.8755950000
20
8.3213850000
11
116.7987110000
21
10.3982690000
0
LINE
5
48E
100
AcDbEntity
8
05
100
AcDbLine
62
7
6
CONTINUOUS
10
116.7893190000
20
10.4076610000
11
116.5031790000
21
10.6938010000
0
LINE
5
48F
100
AcDbEntity
8
05
100
AcDbLine
62
7
6
CONTINUOUS
10
118.7695290000
20
8.7456490000
11
116.8213770000
21
10.6938010000
0
LINE
5
490
100
AcDbEntity
8
05
100
AcDbLine
62
7
6
CONTINUOUS
10
118.6634630000
20
9.1699130000
11
117.1395760000
21
10.6938010000
0
LINE
5
491
100
AcDbEntity
8
05
100
AcDbLine
62
7
6
CONTINUOUS
10
119.7324920000
20
8.4190820000
11
119.6739720000
21
8.4776020000
0
LINE
5
492
100
AcDbEntity
8
05
100
AcDbLine
62
7
6
CONTINUOUS
10
118.5573970000
20
9.5941770000
11
117.4577740000
21
10.6938010000
0
LINE
5
493
100
AcDbEntity
8
05
100
AcDbLine
62
7
6
CONTINUOUS
10
120.1492980000
20
8.3204740000
11
119.6352250000
21
8.8345480000
0
LINE
5
494
100
AcDbEntity
8
05
100
AcDbLine
62
7
6
CONTINUOUS
10
118.4513310000
20
10.0184410000
11
117.7759720000
21
10.6938010000
0
LINE
5
495
100
AcDbEntity
8
05
100
AcDbLine
62
7
6
CONTINUOUS
10
120.5092820000
20
8.2786890000
11
119.6829220000
21
9.1050490000
0
LINE
5
496
100
AcDbEntity
8
05
100
AcDbLine
62
7
6
CONTINUOUS
10
118.3452650000
20
10.4427050000
11
118.0941700000
21
10.6938010000
0
LINE
5
497
100
AcDbEntity
8
05
100
AcDbLine
62
7
6
CONTINUOUS
10
120.8588570000
20
8.2473120000
11
119.7306180000
21
9.3755500000
0
LINE
5
498
100
AcDbEntity
8
05
100
AcDbLine
62
7
6
CONTINUOUS
10
121.1989400000
20
8.2254260000
11
119.7783150000
21
9.6460520000
0
LINE
5
499
100
AcDbEntity
8
05
100
AcDbLine
62
7
6
CONTINUOUS
10
121.5303060000
20
8.2122580000
11
119.8260120000
21
9.9165530000
0
LINE
5
49A
100
AcDbEntity
8
05
100
AcDbLine
62
7
6
CONTINUOUS
10
121.8536160000
20
8.2071470000
11
119.8737080000
21
10.1870540000
0
LINE
5
49B
100
AcDbEntity
8
05
100
AcDbLine
62
7
6
CONTINUOUS
10
122.1694370000
20
8.2095230000
11
121.7175430000
21
8.6614180000
0
LINE
5
49C
100
AcDbEntity
8
05
100
AcDbLine
62
7
6
CONTINUOUS
10
121.2416420000
20
9.1373190000
11
119.9704990000
21
10.4084620000
0
LINE
5
49D
100
AcDbEntity
8
05
100
AcDbLine
62
7
6
CONTINUOUS
10
122.4782650000
20
8.2188940000
11
122.0476490000
21
8.6495100000
0
LINE
5
49E
100
AcDbEntity
8
05
100
AcDbLine
62
7
6
CONTINUOUS
10
121.2893390000
20
9.4078200000
11
120.1933910000
21
10.5037670000
0
LINE
5
49F
100
AcDbEntity
8
05
100
AcDbLine
62
7
6
CONTINUOUS
10
122.7805300000
20
8.2348260000
11
122.3498670000
21
8.6654900000
0
LINE
5
4A0
100
AcDbEntity
8
05
100
AcDbLine
62
7
6
CONTINUOUS
10
121.3370350000
20
9.6783210000
11
120.4681720000
21
10.5471850000
0
LINE
5
4A1
100
AcDbEntity
8
05
100
AcDbLine
62
7
6
CONTINUOUS
10
123.1246030000
20
8.2089520000
11
122.6300090000
21
8.7035460000
0
LINE
5
4A2
100
AcDbEntity
8
05
100
AcDbLine
62
7
6
CONTINUOUS
10
121.3847320000
20
9.9488230000
11
120.7480050000
21
10.5855500000
0
LINE
5
4A3
100
AcDbEntity
8
05
100
AcDbLine
62
7
6
CONTINUOUS
10
123.4428010000
20
8.2089520000
11
122.8555260000
21
8.7962270000
0
LINE
5
4A4
100
AcDbEntity
8
05
100
AcDbLine
62
7
6
CONTINUOUS
10
121.5029990000
20
10.1487530000
11
121.0331350000
21
10.6186170000
0
LINE
5
4A5
100
AcDbEntity
8
05
100
AcDbLine
62
7
6
CONTINUOUS
10
122.5731040000
20
9.0786490000
11
122.3801960000
21
9.2715570000
0
LINE
5
4A6
100
AcDbEntity
8
05
100
AcDbLine
62
7
6
CONTINUOUS
10
123.7609990000
20
8.2089520000
11
122.9559880000
21
9.0139630000
0
LINE
5
4A7
100
AcDbEntity
8
05
100
AcDbLine
62
7
6
CONTINUOUS
10
121.7450410000
20
10.2249100000
11
121.3238330000
21
10.6461180000
0
LINE
5
4A8
100
AcDbEntity
8
05
100
AcDbLine
62
7
6
CONTINUOUS
10
122.8913020000
20
9.0786490000
11
122.6685740000
21
9.3013760000
0
LINE
5
4A9
100
AcDbEntity
8
05
100
AcDbLine
62
7
6
CONTINUOUS
10
124.0791970000
20
8.2089520000
11
122.9867720000
21
9.3013760000
0
LINE
5
4AA
100
AcDbEntity
8
05
100
AcDbLine
62
7
6
CONTINUOUS
10
122.0342750000
20
10.2538740000
11
121.6204010000
21
10.6677480000
0
LINE
5
4AB
100
AcDbEntity
8
05
100
AcDbLine
62
7
6
CONTINUOUS
10
124.3716180000
20
8.2347290000
11
123.3049710000
21
9.3013760000
0
LINE
5
4AC
100
AcDbEntity
8
05
100
AcDbLine
62
7
6
CONTINUOUS
10
122.3477810000
20
10.2585660000
11
121.9231780000
21
10.6831690000
0
LINE
5
4AD
100
AcDbEntity
8
05
100
AcDbLine
62
7
6
CONTINUOUS
10
124.4193150000
20
8.5052300000
11
123.6231690000
21
9.3013760000
0
LINE
5
4AE
100
AcDbEntity
8
05
100
AcDbLine
62
7
6
CONTINUOUS
10
122.6928320000
20
10.2317130000
11
122.2325510000
21
10.6919940000
0
LINE
5
4AF
100
AcDbEntity
8
05
100
AcDbLine
62
7
6
CONTINUOUS
10
124.4670110000
20
8.7757320000
11
123.9413670000
21
9.3013760000
0
LINE
5
4B0
100
AcDbEntity
8
05
100
AcDbLine
62
7
6
CONTINUOUS
10
123.2787500000
20
9.9639930000
11
122.5489540000
21
10.6937890000
0
LINE
5
4B1
100
AcDbEntity
8
05
100
AcDbLine
62
7
6
CONTINUOUS
10
124.5147080000
20
9.0462330000
11
124.2595650000
21
9.3013760000
0
LINE
5
4B2
100
AcDbEntity
8
05
100
AcDbLine
62
7
6
CONTINUOUS
10
123.5969480000
20
9.9639930000
11
122.8728890000
21
10.6880520000
0
LINE
5
4B3
100
AcDbEntity
8
05
100
AcDbLine
62
7
6
CONTINUOUS
10
123.9151460000
20
9.9639930000
11
123.2049290000
21
10.6742100000
0
LINE
5
4B4
100
AcDbEntity
8
05
100
AcDbLine
62
7
6
CONTINUOUS
10
124.2333440000
20
9.9639930000
11
123.5457450000
21
10.6515930000
0
LINE
5
4B5
100
AcDbEntity
8
05
100
AcDbLine
62
7
6
CONTINUOUS
10
124.5515420000
20
9.9639930000
11
123.8961190000
21
10.6194160000
0
LINE
5
4B6
100
AcDbEntity
8
05
100
AcDbLine
62
7
6
CONTINUOUS
10
124.7054950000
20
10.1282390000
11
124.2569840000
21
10.5767500000
0
LINE
5
4B7
100
AcDbEntity
8
035
100
AcDbLine
62
3
6
CONTINUOUS
10
73.1107220000
20
8.2089520000
11
74.8185550000
21
8.2089520000
0
LINE
5
4B8
100
AcDbEntity
8
035
100
AcDbLine
62
3
6
CONTINUOUS
10
73.6614380000
20
10.6930720000
11
75.6797860000
21
10.6930720000
0
LINE
5
4B9
100
AcDbEntity
8
035
100
AcDbLine
62
3
6
CONTINUOUS
10
73.1107220000
20
8.2089520000
11
73.6614380000
21
10.6930720000
0
LINE
5
4BA
100
AcDbEntity
8
035
100
AcDbLine
62
3
6
CONTINUOUS
10
74.8185550000
20
8.2089520000
11
75.1283320000
21
9.6062700000
0
LINE
5
4BB
100
AcDbEntity
8
035
100
AcDbLine
62
3
6
CONTINUOUS
10
78.6223630000
20
8.2089520000
11
79.1730790000
21
10.6930720000
0
LINE
5
4BC
100
AcDbEntity
8
035
100
AcDbLine
62
3
6
CONTINUOUS
10
77.2243080000
20
9.6062700000
11
77.4652470000
21
10.6930720000
0
LINE
5
4BD
100
AcDbEntity
8
035
100
AcDbLine
62
3
6
CONTINUOUS
10
75.1283320000
20
9.6062700000
11
76.6816440000
21
8.2089520000
0
LINE
5
4BE
100
AcDbEntity
8
035
100
AcDbLine
62
3
6
CONTINUOUS
10
75.6797860000
20
10.6930720000
11
77.2243080000
21
9.6062700000
0
LINE
5
4BF
100
AcDbEntity
8
035
100
AcDbLine
62
3
6
CONTINUOUS
10
77.4652470000
20
10.6930720000
11
79.1730790000
21
10.6930720000
0
LINE
5
4C0
100
AcDbEntity
8
035
100
AcDbLine
62
3
6
CONTINUOUS
10
76.6816440000
20
8.2089520000
11
78.6223630000
21
8.2089520000
0
LINE
5
4C1
100
AcDbEntity
8
035
100
AcDbLine
62
3
6
CONTINUOUS
10
79.4762790000
20
8.2089520000
11
80.0269950000
21
10.6930720000
0
LINE
5
4C2
100
AcDbEntity
8
035
100
AcDbLine
62
3
6
CONTINUOUS
10
81.2816520000
20
8.6489310000
11
81.4273260000
21
9.3060230000
0
LINE
5
4C3
100
AcDbEntity
8
035
100
AcDbLine
62
3
6
CONTINUOUS
10
84.1443320000
20
9.3060230000
11
84.2086190000
21
9.5960010000
0
LINE
5
4C4
100
AcDbEntity
8
035
100
AcDbLine
62
3
6
CONTINUOUS
10
84.1340040000
20
8.2089520000
11
84.2315440000
21
8.6489310000
0
LINE
5
4C5
100
AcDbEntity
8
035
100
AcDbLine
62
3
6
CONTINUOUS
10
79.4762790000
20
8.2089520000
11
84.1340040000
21
8.2089520000
0
LINE
5
4C6
100
AcDbEntity
8
035
100
AcDbLine
62
3
6
CONTINUOUS
10
80.0269950000
20
10.6930720000
11
84.6847200000
21
10.6930720000
0
LINE
5
4C7
100
AcDbEntity
8
035
100
AcDbLine
62
3
6
CONTINUOUS
10
81.4916130000
20
9.5960010000
11
81.6372870000
21
10.2530940000
0
LINE
5
4C8
100
AcDbEntity
8
035
100
AcDbLine
62
3
6
CONTINUOUS
10
84.5871790000
20
10.2530940000
11
84.6847200000
21
10.6930720000
0
LINE
5
4C9
100
AcDbEntity
8
035
100
AcDbLine
62
3
6
CONTINUOUS
10
85.0785120000
20
8.9677470000
11
85.4610070000
21
10.6930720000
0
LINE
5
4CA
100
AcDbEntity
8
035
100
AcDbLine
62
3
6
CONTINUOUS
10
86.8294160000
20
9.1814320000
11
87.1645380000
21
10.6930720000
0
LINE
5
4CB
100
AcDbEntity
8
035
100
AcDbLine
62
3
6
CONTINUOUS
10
88.6970730000
20
9.1008870000
11
89.0500510000
21
10.6930720000
0
LINE
5
4CC
100
AcDbEntity
8
035
100
AcDbLine
62
3
6
CONTINUOUS
10
90.3443260000
20
8.8470990000
11
90.7535680000
21
10.6930720000
0
LINE
5
4CD
100
AcDbEntity
8
035
100
AcDbLine
62
3
6
CONTINUOUS
10
85.4610070000
20
10.6930720000
11
87.1645380000
21
10.6930720000
0
ARC
5
4CE
100
AcDbEntity
8
035
100
AcDbCircle
62
3
6
CONTINUOUS
10
85.3565382511
20
8.9076074747
40
0.2844562511
100
AcDbArc
50
167.7944635173
51
179.9992899294
0
ARC
5
4CF
100
AcDbEntity
8
035
100
AcDbCircle
62
3
6
CONTINUOUS
10
85.3565385413
20
8.9076113390
40
0.2844565413
100
AcDbArc
50
180.0000682898
51
234.6229224813
0
ARC
5
4D0
100
AcDbEntity
8
035
100
AcDbCircle
62
3
6
CONTINUOUS
10
86.4662366591
20
10.4704306902
40
2.2011814138
100
AcDbArc
50
234.6229020698
51
253.6104761870
0
ARC
5
4D1
100
AcDbEntity
8
035
100
AcDbCircle
62
3
6
CONTINUOUS
10
87.2145988754
20
13.0148393689
40
4.8533619377
100
AcDbArc
50
253.6103910211
51
263.0540333551
0
ARC
5
4D2
100
AcDbEntity
8
035
100
AcDbCircle
62
3
6
CONTINUOUS
10
87.7114581813
20
17.0931766141
40
8.9618536141
100
AcDbArc
50
263.0539945915
51
270.0000116273
0
ARC
5
4D3
100
AcDbEntity
8
035
100
AcDbCircle
62
3
6
CONTINUOUS
10
87.7114613187
20
17.0931683755
40
8.9618453755
100
AcDbArc
50
269.9999915694
51
276.9460086052
0
ARC
5
4D4
100
AcDbEntity
8
035
100
AcDbCircle
62
3
6
CONTINUOUS
10
88.2083201246
20
13.0148393689
40
4.8533619377
100
AcDbArc
50
276.9459666449
51
286.3896089789
0
ARC
5
4D5
100
AcDbEntity
8
035
100
AcDbCircle
62
3
6
CONTINUOUS
10
88.9566823409
20
10.4704306902
40
2.2011814138
100
AcDbArc
50
286.3895238130
51
305.3770979302
0
ARC
5
4D6
100
AcDbEntity
8
035
100
AcDbCircle
62
3
6
CONTINUOUS
10
90.0663810713
20
8.9076107687
40
0.2844557216
100
AcDbArc
50
305.3770434265
51
347.7177170673
0
ARC
5
4D7
100
AcDbEntity
8
035
100
AcDbCircle
62
3
6
CONTINUOUS
10
87.0025297663
20
9.1404964568
40
0.1778877663
100
AcDbArc
50
179.9998250514
51
225.0422913416
0
ARC
5
4D8
100
AcDbEntity
8
035
100
AcDbCircle
62
3
6
CONTINUOUS
10
87.3618635061
20
9.5003622419
40
0.6864387665
100
AcDbArc
50
225.0423614170
51
247.5300128082
0
ARC
5
4D9
100
AcDbEntity
8
035
100
AcDbCircle
62
3
6
CONTINUOUS
10
87.6034918176
20
10.0845620937
40
1.3186362892
100
AcDbArc
50
247.5298821870
51
260.2785491795
0
ARC
5
4DA
100
AcDbEntity
8
035
100
AcDbCircle
62
3
6
CONTINUOUS
10
87.7630903846
20
11.0161117087
40
2.2637587087
100
AcDbArc
50
260.2783770082
51
269.9999902662
0
ARC
5
4DB
100
AcDbEntity
8
035
100
AcDbCircle
62
3
6
CONTINUOUS
10
87.7630896154
20
11.0161117087
40
2.2637587087
100
AcDbArc
50
270.0000097338
51
279.7216229918
0
ARC
5
4DC
100
AcDbEntity
8
035
100
AcDbCircle
62
3
6
CONTINUOUS
10
87.9226881824
20
10.0845620937
40
1.3186362892
100
AcDbArc
50
279.7214508205
51
292.4701178130
0
ARC
5
4DD
100
AcDbEntity
8
035
100
AcDbCircle
62
3
6
CONTINUOUS
10
88.1643164939
20
9.5003622419
40
0.6864387665
100
AcDbArc
50
292.4699871918
51
314.9576385830
0
ARC
5
4DE
100
AcDbEntity
8
035
100
AcDbCircle
62
3
6
CONTINUOUS
10
88.5236507293
20
9.1404979651
40
0.1778884834
100
AcDbArc
50
314.9572524508
51
347.1339192357
0
ARC
5
4DF
100
AcDbEntity
8
035
100
AcDbCircle
62
3
6
CONTINUOUS
10
87.0025290776
20
9.1404969937
40
0.1778870776
100
AcDbArc
50
166.6959850486
51
179.9999979692
0
LINE
5
4E0
100
AcDbEntity
8
035
100
AcDbLine
62
3
6
CONTINUOUS
10
89.0500510000
20
10.6930720000
11
90.7535680000
21
10.6930720000
0
LINE
5
4E1
100
AcDbEntity
8
035
100
AcDbLine
62
3
6
CONTINUOUS
10
91.0678550000
20
10.0720420000
11
91.2055340000
21
10.6930720000
0
LINE
5
4E2
100
AcDbEntity
8
035
100
AcDbLine
62
3
6
CONTINUOUS
10
92.2073930000
20
8.2089520000
11
92.6204300000
21
10.0720420000
0
LINE
5
4E3
100
AcDbEntity
8
035
100
AcDbLine
62
3
6
CONTINUOUS
10
93.9152250000
20
8.2089520000
11
94.3282620000
21
10.0720420000
0
LINE
5
4E4
100
AcDbEntity
8
035
100
AcDbLine
62
3
6
CONTINUOUS
10
95.9584660000
20
10.0720420000
11
96.0961450000
21
10.6930720000
0
LINE
5
4E5
100
AcDbEntity
8
035
100
AcDbLine
62
3
6
CONTINUOUS
10
91.0678550000
20
10.0720420000
11
92.6204300000
21
10.0720420000
0
LINE
5
4E6
100
AcDbEntity
8
035
100
AcDbLine
62
3
6
CONTINUOUS
10
92.2073930000
20
8.2089520000
11
93.9152250000
21
8.2089520000
0
LINE
5
4E7
100
AcDbEntity
8
035
100
AcDbLine
62
3
6
CONTINUOUS
10
91.2055340000
20
10.6930720000
11
96.0961450000
21
10.6930720000
0
LINE
5
4E8
100
AcDbEntity
8
035
100
AcDbLine
62
3
6
CONTINUOUS
10
94.3282620000
20
10.0720420000
11
95.9584660000
21
10.0720420000
0
LINE
5
4E9
100
AcDbEntity
8
035
100
AcDbLine
62
3
6
CONTINUOUS
10
96.0888300000
20
8.2089520000
11
96.6395460000
21
10.6930720000
0
LINE
5
4EA
100
AcDbEntity
8
035
100
AcDbLine
62
3
6
CONTINUOUS
10
97.7966620000
20
8.2089520000
11
98.0020150000
21
9.1352400000
0
LINE
5
4EB
100
AcDbEntity
8
035
100
AcDbLine
62
3
6
CONTINUOUS
10
96.0888300000
20
8.2089520000
11
97.7966620000
21
8.2089520000
0
LINE
5
4EC
100
AcDbEntity
8
035
100
AcDbLine
62
3
6
CONTINUOUS
10
96.6395460000
20
10.6930720000
11
100.9979220000
21
10.6930720000
0
LINE
5
4ED
100
AcDbEntity
8
035
100
AcDbLine
62
3
6
CONTINUOUS
10
101.3081340000
20
8.4689140000
11
101.3485860000
21
9.0474050000
0
LINE
5
4EE
100
AcDbEntity
8
035
100
AcDbLine
62
3
6
CONTINUOUS
10
99.5959630000
20
8.4068680000
11
99.6272290000
21
8.8619210000
0
LINE
5
4EF
100
AcDbEntity
8
035
100
AcDbLine
62
3
6
CONTINUOUS
10
98.0663020000
20
9.4252180000
11
98.2498370000
21
10.2530940000
0
ARC
5
4F0
100
AcDbEntity
8
035
100
AcDbCircle
62
3
6
CONTINUOUS
10
101.6953320000
20
8.4418380000
40
0.3881440000
100
AcDbArc
50
176.0000000000
51
216.8698980000
0
ARC
5
4F1
100
AcDbEntity
8
035
100
AcDbCircle
62
3
6
CONTINUOUS
10
99.9697530000
20
8.4119050000
40
0.3738240000
100
AcDbArc
50
180.7720050000
51
212.8818750000
0
LINE
5
4F2
100
AcDbEntity
8
035
100
AcDbLine
62
3
6
CONTINUOUS
10
99.6558180000
20
8.2089520000
11
101.3848170000
21
8.2089520000
0
ARC
5
4F3
100
AcDbEntity
8
035
100
AcDbCircle
62
3
6
CONTINUOUS
10
101.0645091256
20
9.0692414046
40
0.2849148980
100
AcDbArc
50
355.6044351018
51
14.9998321139
0
ARC
5
4F4
100
AcDbEntity
8
035
100
AcDbCircle
62
3
6
CONTINUOUS
10
101.0645115927
20
9.0692393407
40
0.2849130492
100
AcDbArc
50
15.0003614107
51
49.8062951149
0
ARC
5
4F5
100
AcDbEntity
8
035
100
AcDbCircle
62
3
6
CONTINUOUS
10
100.8802286242
20
8.8511285638
40
0.5704520544
100
AcDbArc
50
49.8058236467
51
55.6063554031
0
ARC
5
4F6
100
AcDbEntity
8
035
100
AcDbCircle
62
3
6
CONTINUOUS
10
100.3132482994
20
11.1994672129
40
2.0775325922
100
AcDbArc
50
295.3416402972
51
298.8636783469
0
ARC
5
4F7
100
AcDbEntity
8
035
100
AcDbCircle
62
3
6
CONTINUOUS
10
100.6415395293
20
10.6038639832
40
1.3974455839
100
AcDbArc
50
298.8639281557
51
315.7882926038
0
ARC
5
4F8
100
AcDbEntity
8
035
100
AcDbCircle
62
3
6
CONTINUOUS
10
100.9889757242
20
10.2658585190
40
0.9127192659
100
AcDbArc
50
315.7883093494
51
340.1939355680
0
ARC
5
4F9
100
AcDbEntity
8
035
100
AcDbCircle
62
3
6
CONTINUOUS
10
101.4188091494
20
10.1110581593
40
0.4558605079
100
AcDbArc
50
340.1938658204
51
14.9997995246
0
ARC
5
4FA
100
AcDbEntity
8
035
100
AcDbCircle
62
3
6
CONTINUOUS
10
101.4188087341
20
10.1110565785
40
0.4558613183
100
AcDbArc
50
14.9999779363
51
49.8059116405
0
ARC
5
4FB
100
AcDbEntity
8
035
100
AcDbCircle
62
3
6
CONTINUOUS
10
101.1239631890
20
9.7620752320
40
0.9127222113
100
AcDbArc
50
49.8061438314
51
74.2117700500
0
ARC
5
4FC
100
AcDbEntity
8
035
100
AcDbCircle
62
3
6
CONTINUOUS
10
100.9920781414
20
9.2956381767
40
1.3974460423
100
AcDbArc
50
74.2117641360
51
89.7603990413
0
LINE
5
4FD
100
AcDbEntity
8
035
100
AcDbLine
62
3
6
CONTINUOUS
10
102.1438710000
20
8.2089520000
11
102.6945880000
21
10.6930720000
0
LINE
5
4FE
100
AcDbEntity
8
035
100
AcDbLine
62
3
6
CONTINUOUS
10
103.8517040000
20
8.2089520000
11
104.4024200000
21
10.6930720000
0
LINE
5
4FF
100
AcDbEntity
8
035
100
AcDbLine
62
3
6
CONTINUOUS
10
102.1438710000
20
8.2089520000
11
103.8517040000
21
8.2089520000
0
LINE
5
500
100
AcDbEntity
8
035
100
AcDbLine
62
3
6
CONTINUOUS
10
102.6945880000
20
10.6930720000
11
104.4024200000
21
10.6930720000
0
LINE
5
501
100
AcDbEntity
8
035
100
AcDbLine
62
3
6
CONTINUOUS
10
104.8608770000
20
8.2089520000
11
105.4115940000
21
10.6930720000
0
LINE
5
502
100
AcDbEntity
8
035
100
AcDbLine
62
3
6
CONTINUOUS
10
106.4910810000
20
8.2089520000
11
106.6287600000
21
8.8299820000
0
LINE
5
503
100
AcDbEntity
8
035
100
AcDbLine
62
3
6
CONTINUOUS
10
105.4115940000
20
10.6930720000
11
107.0417970000
21
10.6930720000
0
LINE
5
504
100
AcDbEntity
8
035
100
AcDbLine
62
3
6
CONTINUOUS
10
104.8608770000
20
8.2089520000
11
106.4910810000
21
8.2089520000
0
LINE
5
505
100
AcDbEntity
8
035
100
AcDbLine
62
3
6
CONTINUOUS
10
106.6287600000
20
8.8299820000
11
107.3574440000
21
9.1404970000
0
LINE
5
506
100
AcDbEntity
8
035
100
AcDbLine
62
3
6
CONTINUOUS
10
106.8555250000
20
9.8528550000
11
108.8272580000
21
10.6930720000
0
LINE
5
507
100
AcDbEntity
8
035
100
AcDbLine
62
3
6
CONTINUOUS
10
108.8272580000
20
10.6930720000
11
111.0008630000
21
10.6930720000
0
LINE
5
508
100
AcDbEntity
8
035
100
AcDbLine
62
3
6
CONTINUOUS
10
107.3574440000
20
9.1404970000
11
108.2765420000
21
8.2089520000
0
LINE
5
509
100
AcDbEntity
8
035
100
AcDbLine
62
3
6
CONTINUOUS
10
108.9969820000
20
9.8391560000
11
110.6054040000
21
8.2089520000
0
LINE
5
50A
100
AcDbEntity
8
035
100
AcDbLine
62
3
6
CONTINUOUS
10
108.9969820000
20
9.8391560000
11
111.0008630000
21
10.6930720000
0
LINE
5
50B
100
AcDbEntity
8
035
100
AcDbLine
62
3
6
CONTINUOUS
10
106.8555250000
20
9.8528550000
11
107.0417970000
21
10.6930720000
0
LINE
5
50C
100
AcDbEntity
8
035
100
AcDbLine
62
3
6
CONTINUOUS
10
108.2765420000
20
8.2089520000
11
110.6054040000
21
8.2089520000
0
LINE
5
50D
100
AcDbEntity
8
035
100
AcDbLine
62
3
6
CONTINUOUS
10
113.4641510000
20
8.2089520000
11
115.1402870000
21
8.2089520000
0
LINE
5
50E
100
AcDbEntity
8
035
100
AcDbLine
62
3
6
CONTINUOUS
10
115.3277870000
20
10.6938010000
11
118.2824910000
21
10.6938010000
0
LINE
5
50F
100
AcDbEntity
8
035
100
AcDbLine
62
3
6
CONTINUOUS
10
113.4641510000
20
8.2089520000
11
115.3277870000
21
10.6938010000
0
LINE
5
510
100
AcDbEntity
8
035
100
AcDbLine
62
3
6
CONTINUOUS
10
118.2824910000
20
10.6938010000
11
118.9037030000
21
8.2089520000
0
LINE
5
511
100
AcDbEntity
8
035
100
AcDbLine
62
3
6
CONTINUOUS
10
115.5003110000
20
8.6889840000
11
117.2260320000
21
8.6889840000
0
LINE
5
512
100
AcDbEntity
8
035
100
AcDbLine
62
3
6
CONTINUOUS
10
115.7802020000
20
9.0621710000
11
117.1327350000
21
9.0621710000
0
LINE
5
513
100
AcDbEntity
8
035
100
AcDbLine
62
3
6
CONTINUOUS
10
119.6150190000
20
8.7199520000
11
119.8833800000
21
10.2419070000
0
LINE
5
514
100
AcDbEntity
8
035
100
AcDbLine
62
3
6
CONTINUOUS
10
124.3670730000
20
8.2089520000
11
124.5596970000
21
9.3013760000
0
LINE
5
515
100
AcDbEntity
8
035
100
AcDbLine
62
3
6
CONTINUOUS
10
121.2261250000
20
9.0493180000
11
121.3860210000
21
9.9561340000
0
LINE
5
516
100
AcDbEntity
8
035
100
AcDbLine
62
3
6
CONTINUOUS
10
122.8140420000
20
8.2089520000
11
122.8190480000
21
8.2373380000
0
LINE
5
517
100
AcDbEntity
8
035
100
AcDbLine
62
3
6
CONTINUOUS
10
122.3461810000
20
9.0786490000
11
122.3854540000
21
9.3013760000
0
LINE
5
518
100
AcDbEntity
8
035
100
AcDbLine
62
3
6
CONTINUOUS
10
122.3461810000
20
9.0786490000
11
122.9673930000
21
9.0786490000
0
ARC
5
519
100
AcDbEntity
8
035
100
AcDbCircle
62
3
6
CONTINUOUS
10
122.4684270000
20
-3.0031280000
40
13.6971530000
100
AcDbArc
50
81.6598950000
51
99.8027900000
0
ARC
5
51A
100
AcDbEntity
8
035
100
AcDbCircle
62
3
6
CONTINUOUS
10
121.9084660000
20
21.9041900000
40
13.6971530000
100
AcDbArc
50
261.4614730000
51
273.8118150000
0
ARC
5
51B
100
AcDbEntity
8
035
100
AcDbCircle
62
3
6
CONTINUOUS
10
120.1892670000
20
10.1879710000
40
0.3106060000
100
AcDbArc
50
99.8027900000
51
170.0000000000
0
ARC
5
51C
100
AcDbEntity
8
035
100
AcDbCircle
62
3
6
CONTINUOUS
10
119.9209060000
20
8.6660160000
40
0.3106060000
100
AcDbArc
50
170.0000000000
51
261.4614730000
0
ARC
5
51D
100
AcDbEntity
8
035
100
AcDbCircle
62
3
6
CONTINUOUS
10
124.4101300000
20
10.2418500000
40
0.3106060000
100
AcDbArc
50
350.0000000000
51
81.6598950000
0
LINE
5
51E
100
AcDbEntity
8
035
100
AcDbLine
62
3
6
CONTINUOUS
10
123.1015710000
20
9.9639930000
11
124.6765340000
21
9.9639930000
0
LINE
5
51F
100
AcDbEntity
8
035
100
AcDbLine
62
3
6
CONTINUOUS
10
124.6765340000
20
9.9639930000
11
124.7160170000
21
10.1879140000
0
LINE
5
520
100
AcDbEntity
8
035
100
AcDbLine
62
3
6
CONTINUOUS
10
122.9478530000
20
8.9678320000
11
122.9673930000
21
9.0786490000
0
ARC
5
521
100
AcDbEntity
8
035
100
AcDbCircle
62
3
6
CONTINUOUS
10
122.2442760000
20
6.6982740000
40
3.5617970000
100
AcDbArc
50
80.2083390000
51
99.7818250000
0
ARC
5
522
100
AcDbEntity
8
035
100
AcDbCircle
62
3
6
CONTINUOUS
10
122.0108590000
20
12.2111170000
40
3.5617970000
100
AcDbArc
50
261.5304680000
51
281.1930680000
0
ARC
5
523
100
AcDbEntity
8
035
100
AcDbCircle
62
3
6
CONTINUOUS
10
121.6919080000
20
9.9021980000
40
0.3106060000
100
AcDbArc
50
99.7818250000
51
170.0000000000
0
ARC
5
524
100
AcDbEntity
8
035
100
AcDbCircle
62
3
6
CONTINUOUS
10
122.7971930000
20
9.9021030000
40
0.3106060000
100
AcDbArc
50
11.4934250000
51
80.2083390000
0
ARC
5
525
100
AcDbEntity
8
035
100
AcDbCircle
62
3
6
CONTINUOUS
10
121.5320120000
20
8.9953820000
40
0.3106060000
100
AcDbArc
50
170.0000000000
51
261.5304680000
0
ARC
5
526
100
AcDbEntity
8
035
100
AcDbCircle
62
3
6
CONTINUOUS
10
122.6419660000
20
9.0217680000
40
0.3106060000
100
AcDbArc
50
281.1930680000
51
350.0000000000
0
LINE
5
527
100
AcDbEntity
8
035
100
AcDbLine
62
3
6
CONTINUOUS
10
122.8140420000
20
8.2089520000
11
124.3670730000
21
8.2089520000
0
LINE
5
528
100
AcDbEntity
8
035
100
AcDbLine
62
3
6
CONTINUOUS
10
117.3460400000
20
8.2089520000
11
118.9037030000
21
8.2089520000
0
LINE
5
529
100
AcDbEntity
8
035
100
AcDbLine
62
3
6
CONTINUOUS
10
81.6372870000
20
10.2530940000
11
84.5871790000
21
10.2530940000
0
LINE
5
52A
100
AcDbEntity
8
035
100
AcDbLine
62
3
6
CONTINUOUS
10
81.4916130000
20
9.5960010000
11
84.2086190000
21
9.5960010000
0
LINE
5
52B
100
AcDbEntity
8
035
100
AcDbLine
62
3
6
CONTINUOUS
10
81.4273260000
20
9.3060230000
11
84.1443320000
21
9.3060230000
0
LINE
5
52C
100
AcDbEntity
8
035
100
AcDbLine
62
3
6
CONTINUOUS
10
81.2816520000
20
8.6489310000
11
84.2315440000
21
8.6489310000
0
LINE
5
52D
100
AcDbEntity
8
035
100
AcDbLine
62
3
6
CONTINUOUS
10
98.2498370000
20
10.2530940000
11
99.6563970000
21
10.2530940000
0
LINE
5
52E
100
AcDbEntity
8
035
100
AcDbLine
62
3
6
CONTINUOUS
10
98.0663020000
20
9.4252180000
11
99.4266270000
21
9.4252180000
0
LINE
5
52F
100
AcDbEntity
8
035
100
AcDbLine
62
3
6
CONTINUOUS
10
98.0020150000
20
9.1352400000
11
99.4509000000
21
9.1352400000
0
LINE
5
530
100
AcDbEntity
8
035
100
AcDbLine
62
3
6
CONTINUOUS
10
99.6563970000
20
10.2530940000
11
99.7674140000
21
10.2349300000
0
LINE
5
531
100
AcDbEntity
8
035
100
AcDbLine
62
3
6
CONTINUOUS
10
99.7674140000
20
10.2349300000
11
99.8636110000
21
10.1861990000
0
LINE
5
532
100
AcDbEntity
8
035
100
AcDbLine
62
3
6
CONTINUOUS
10
99.8636110000
20
10.1861990000
11
99.9097870000
21
10.1118220000
0
LINE
5
533
100
AcDbEntity
8
035
100
AcDbLine
62
3
6
CONTINUOUS
10
99.9097870000
20
10.1118220000
11
99.9456990000
21
10.0220570000
0
LINE
5
534
100
AcDbEntity
8
035
100
AcDbLine
62
3
6
CONTINUOUS
10
99.9456990000
20
10.0220570000
11
99.9469830000
21
9.9246000000
0
LINE
5
535
100
AcDbEntity
8
035
100
AcDbLine
62
3
6
CONTINUOUS
10
99.9469830000
20
9.9246000000
11
99.9367220000
21
9.7835390000
0
LINE
5
536
100
AcDbEntity
8
035
100
AcDbLine
62
3
6
CONTINUOUS
10
99.9367220000
20
9.7835390000
11
99.8854140000
21
9.6976240000
0
LINE
5
537
100
AcDbEntity
8
035
100
AcDbLine
62
3
6
CONTINUOUS
10
99.8854140000
20
9.6976240000
11
99.7943500000
21
9.5911860000
0
LINE
5
538
100
AcDbEntity
8
035
100
AcDbLine
62
3
6
CONTINUOUS
10
99.7943500000
20
9.5911860000
11
99.6571060000
21
9.5091160000
0
LINE
5
539
100
AcDbEntity
8
035
100
AcDbLine
62
3
6
CONTINUOUS
10
99.6571060000
20
9.5091160000
11
99.5262760000
21
9.4424340000
0
LINE
5
53A
100
AcDbEntity
8
035
100
AcDbLine
62
3
6
CONTINUOUS
10
99.5262760000
20
9.4424340000
11
99.4266270000
21
9.4252180000
0
LINE
5
53B
100
AcDbEntity
8
035
100
AcDbLine
62
3
6
CONTINUOUS
10
99.4509000000
20
9.1352400000
11
99.5337810000
21
9.1235790000
0
LINE
5
53C
100
AcDbEntity
8
035
100
AcDbLine
62
3
6
CONTINUOUS
10
99.5337810000
20
9.1235790000
11
99.5869810000
21
9.0899330000
0
LINE
5
53D
100
AcDbEntity
8
035
100
AcDbLine
62
3
6
CONTINUOUS
10
99.5869810000
20
9.0899330000
11
99.6195510000
21
9.0367450000
0
LINE
5
53E
100
AcDbEntity
8
035
100
AcDbLine
62
3
6
CONTINUOUS
10
99.6195510000
20
9.0367450000
11
99.6347510000
21
8.9727040000
0
LINE
5
53F
100
AcDbEntity
8
035
100
AcDbLine
62
3
6
CONTINUOUS
10
99.6347510000
20
8.9727040000
11
99.6272290000
21
8.8619210000
0
LINE
5
540
100
AcDbEntity
8
035
100
AcDbLine
62
3
6
CONTINUOUS
10
116.7946020000
20
10.4147050000
11
117.1327350000
21
9.0621710000
0
LINE
5
541
100
AcDbEntity
8
035
100
AcDbLine
62
3
6
CONTINUOUS
10
115.7802020000
20
9.0621710000
11
116.7946020000
21
10.4147050000
0
LINE
5
542
100
AcDbEntity
8
035
100
AcDbLine
62
3
6
CONTINUOUS
10
117.2260320000
20
8.6889840000
11
117.3460400000
21
8.2089520000
0
LINE
5
543
100
AcDbEntity
8
035
100
AcDbLine
62
3
6
CONTINUOUS
10
115.1402870000
20
8.2089520000
11
115.5003110000
21
8.6889840000
0
LINE
5
544
100
AcDbEntity
8
035
100
AcDbLine
62
3
6
CONTINUOUS
10
122.3854540000
20
9.3013760000
11
124.5596970000
21
9.3013760000
0
LINE
5
545
100
AcDbEntity
8
035
100
AcDbLine
62
3
6
CONTINUOUS
10
114.7995590000
20
153.2106020000
11
91.8756130000
21
153.2106020000
0
LINE
5
546
100
AcDbEntity
8
035
100
AcDbLine
62
3
6
CONTINUOUS
10
117.8713830000
20
148.3192850000
11
91.6190200000
21
148.3192850000
0
LINE
5
547
100
AcDbEntity
8
035
100
AcDbLine
62
3
6
CONTINUOUS
10
117.0870880000
20
143.4279680000
11
91.3624260000
21
143.4279680000
0
LINE
5
548
100
AcDbEntity
8
035
100
AcDbLine
62
3
6
CONTINUOUS
10
116.3681500000
20
138.5366520000
11
91.1058320000
21
138.5366520000
0
LINE
5
549
100
AcDbEntity
8
035
100
AcDbLine
62
3
6
CONTINUOUS
10
116.8910150000
20
158.1019180000
11
92.1322070000
21
158.1019180000
0
LINE
5
54A
100
AcDbEntity
8
035
100
AcDbLine
62
3
6
CONTINUOUS
10
118.1981720000
20
153.2106020000
11
116.2374350000
21
153.2106020000
0
ARC
5
54B
100
AcDbEntity
8
035
100
AcDbCircle
62
3
6
CONTINUOUS
10
138.5501240000
20
151.0096590000
40
0.9058830000
100
AcDbArc
50
311.3659420000
51
83.7470250000
0
ARC
5
54C
100
AcDbEntity
8
035
100
AcDbCircle
62
3
6
CONTINUOUS
10
139.7474590000
20
149.6499210000
40
0.9058830000
100
AcDbArc
50
131.3659420000
51
263.7470250000
0
LINE
5
54D
100
AcDbEntity
8
05
100
AcDbLine
62
4
6
CONTINUOUS
10
5.0000000000
20
16.0000000000
11
72.0000000000
21
16.0000000000
0
LINE
5
54E
100
AcDbEntity
8
05
100
AcDbLine
62
4
6
CONTINUOUS
10
5.0000000000
20
21.0000000000
11
72.0000000000
21
21.0000000000
0
LINE
5
54F
100
AcDbEntity
8
05
100
AcDbLine
62
4
6
CONTINUOUS
10
5.0000000000
20
26.0000000000
11
72.0000000000
21
26.0000000000
0
LINE
5
550
100
AcDbEntity
8
05
100
AcDbLine
62
4
6
CONTINUOUS
10
5.0000000000
20
31.0000000000
11
72.0000000000
21
31.0000000000
0
LINE
5
551
100
AcDbEntity
8
05
100
AcDbLine
62
4
6
CONTINUOUS
10
5.0000000000
20
36.0000000000
11
72.0000000000
21
36.0000000000
0
LINE
5
552
100
AcDbEntity
8
05
100
AcDbLine
62
4
6
CONTINUOUS
10
5.0000000000
20
41.0000000000
11
72.0000000000
21
41.0000000000
0
LINE
5
553
100
AcDbEntity
8
05
100
AcDbLine
62
4
6
CONTINUOUS
10
5.0000000000
20
46.0000000000
11
72.0000000000
21
46.0000000000
0
LINE
5
554
100
AcDbEntity
8
05
100
AcDbLine
62
4
6
CONTINUOUS
10
110.9116940000
20
10.6550740000
11
110.9496920000
21
10.6930720000
0
LINE
5
555
100
AcDbEntity
8
05
100
AcDbLine
62
4
6
CONTINUOUS
10
110.5868920000
20
8.2089520000
11
110.5962100000
21
8.2182700000
0
ARC
5
556
100
AcDbEntity
8
035
100
AcDbCircle
62
4
6
CONTINUOUS
39
1755644792
10
106.7997409975
20
172.7758651953
40
2.8532674730
100
AcDbArc
50
330.0001582036
51
35.0000695714
0
CIRCLE
5
557
100
AcDbEntity
8
035
100
AcDbCircle
62
4
6
CONTINUOUS
10
109.1370037850
20
174.4124350225
40
0.4076129692
0
SOLID
5
558
100
AcDbEntity
8
035
100
AcDbTrace
62
4
6
CONTINUOUS
10
109.1781769404
20
174.8179632015
11
109.1169405659
21
174.8195539239
12
109.0561573149
22
174.8119499545
13
109.0561573149
23
174.8119499545
0
SOLID
5
559
100
AcDbEntity
8
035
100
AcDbTrace
62
4
6
CONTINUOUS
10
109.0561573149
20
174.8119499545
11
109.2384834281
21
174.8072137133
12
109.1781769404
22
174.8179632015
13
109.1781769404
23
174.8179632015
0
SOLID
5
55A
100
AcDbEntity
8
035
100
AcDbTrace
62
4
6
CONTINUOUS
10
109.2384834281
20
174.8072137133
11
109.0561573149
21
174.8119499545
12
108.9971999638
22
174.7953230273
13
108.9971999638
23
174.7953230273
0
SOLID
5
55B
100
AcDbEntity
8
035
100
AcDbTrace
62
4
6
CONTINUOUS
10
108.9971999638
20
174.7953230273
11
109.2964980201
21
174.7875482342
12
109.2384834281
22
174.8072137133
13
109.2384834281
23
174.8072137133
0
SOLID
5
55C
100
AcDbEntity
8
035
100
AcDbTrace
62
4
6
CONTINUOUS
10
109.2964980201
20
174.7875482342
11
108.9971999638
21
174.7953230273
12
108.9414000516
22
174.7700486577
13
108.9414000516
23
174.7700486577
0
SOLID
5
55D
100
AcDbEntity
8
035
100
AcDbTrace
62
4
6
CONTINUOUS
10
108.9414000516
20
174.7700486577
11
109.3509104695
21
174.7594109049
12
109.2964980201
22
174.7875482342
13
109.2964980201
23
174.7875482342
0
SOLID
5
55E
100
AcDbEntity
8
035
100
AcDbTrace
62
4
6
CONTINUOUS
10
109.3509104695
20
174.7594109049
11
108.9414000516
21
174.7700486577
12
108.8900178072
22
174.7366976620
13
108.8900178072
23
174.7366976620
0
SOLID
5
55F
100
AcDbEntity
8
035
100
AcDbTrace
62
4
6
CONTINUOUS
10
108.8900178072
20
174.7366976620
11
109.4004918830
21
174.7234372007
12
109.3509104695
22
174.7594109049
13
109.3509104695
23
174.7594109049
0
SOLID
5
560
100
AcDbEntity
8
035
100
AcDbTrace
62
4
6
CONTINUOUS
10
109.4004918830
20
174.7234372007
11
108.8900178072
21
174.7366976620
12
108.8442136874
22
174.6960232651
13
108.8442136874
23
174.6960232651
0
SOLID
5
561
100
AcDbEntity
8
035
100
AcDbTrace
62
4
6
CONTINUOUS
10
108.8442136874
20
174.6960232651
11
109.4441224751
21
174.6804395800
12
109.4004918830
22
174.7234372007
13
109.4004918830
23
174.7234372007
0
SOLID
5
562
100
AcDbEntity
8
035
100
AcDbTrace
62
4
6
CONTINUOUS
10
109.4441224751
20
174.6804395800
11
108.8442136874
21
174.6960232651
12
108.8050221682
22
174.6489440894
13
108.8050221682
23
174.6489440894
0
SOLID
5
563
100
AcDbEntity
8
035
100
AcDbTrace
62
4
6
CONTINUOUS
10
108.8050221682
20
174.6489440894
11
109.4808168584
21
174.6313891346
12
109.4441224751
22
174.6804395800
13
109.4441224751
23
174.6804395800
0
SOLID
5
564
100
AcDbEntity
8
035
100
AcDbTrace
62
4
6
CONTINUOUS
10
109.4808168584
20
174.6313891346
11
108.8050221682
21
174.6489440894
12
108.7733283817
22
174.5965234079
13
108.7733283817
23
174.5965234079
0
SOLID
5
565
100
AcDbEntity
8
035
100
AcDbTrace
62
4
6
CONTINUOUS
10
108.7733283817
20
174.5965234079
11
109.5097462982
21
174.5773936583
12
109.4808168584
22
174.6313891346
13
109.4808168584
23
174.6313891346
0
SOLID
5
566
100
AcDbEntity
8
035
100
AcDbTrace
62
4
6
CONTINUOUS
10
109.5097462982
20
174.5773936583
11
108.7733283817
21
174.5965234079
12
108.7498481250
22
174.5399451302
13
108.7498481250
23
174.5399451302
0
SOLID
5
567
100
AcDbEntity
8
035
100
AcDbTrace
62
4
6
CONTINUOUS
10
108.7498481250
20
174.5399451302
11
109.5302574295
21
174.5196726270
12
109.5097462982
22
174.5773936583
13
109.5097462982
23
174.5773936583
0
SOLID
5
568
100
AcDbEntity
8
035
100
AcDbTrace
62
4
6
CONTINUOUS
10
109.5302574295
20
174.5196726270
11
108.7498481250
21
174.5399451302
12
108.7351116947
22
174.4804870645
13
108.7351116947
23
174.4804870645
0
SOLID
5
569
100
AcDbEntity
8
035
100
AcDbTrace
62
4
6
CONTINUOUS
10
108.7351116947
20
174.4804870645
11
109.5418870127
21
174.4595296577
12
109.5302574295
22
174.5196726270
13
109.5302574295
23
174.5196726270
0
SOLID
5
56A
100
AcDbEntity
8
035
100
AcDbTrace
62
4
6
CONTINUOUS
10
109.5418870127
20
174.4595296577
11
108.7351116947
21
174.4804870645
12
108.7294519099
22
174.4194920582
13
108.7294519099
23
174.4194920582
0
SOLID
5
56B
100
AcDbEntity
8
035
100
AcDbTrace
62
4
6
CONTINUOUS
10
108.7294519099
20
174.4194920582
11
109.5446167543
21
174.4124350225
12
109.5418870127
22
174.4595296577
13
109.5418870127
23
174.4595296577
0
SOLID
5
56C
100
AcDbEntity
8
035
100
AcDbTrace
62
4
6
CONTINUOUS
10
109.5446167543
20
174.4124350225
11
108.7294519099
21
174.4194920582
12
108.7329965956
22
174.3583376703
13
108.7329965956
23
174.3583376703
0
SOLID
5
56D
100
AcDbEntity
8
035
100
AcDbTrace
62
4
6
CONTINUOUS
10
108.7329965956
20
174.3583376703
11
109.5400138291
21
174.3513511700
12
109.5446167543
22
174.4124350225
13
109.5446167543
23
174.4124350225
0
SOLID
5
56E
100
AcDbEntity
8
035
100
AcDbTrace
62
4
6
CONTINUOUS
10
109.5400138291
20
174.3513511700
11
108.7329965956
21
174.3583376703
12
108.7456656957
22
174.2984050594
13
108.7456656957
23
174.2984050594
0
SOLID
5
56F
100
AcDbEntity
8
035
100
AcDbTrace
62
4
6
CONTINUOUS
10
108.7456656957
20
174.2984050594
11
109.5263090098
21
174.2916468830
12
109.5400138291
22
174.3513511700
13
109.5400138291
23
174.3513511700
0
SOLID
5
570
100
AcDbEntity
8
035
100
AcDbTrace
62
4
6
CONTINUOUS
10
109.5263090098
20
174.2916468830
11
108.7456656957
21
174.2984050594
12
108.7671730814
22
174.2410477903
13
108.7671730814
23
174.2410477903
0
SOLID
5
571
100
AcDbEntity
8
035
100
AcDbTrace
62
4
6
CONTINUOUS
10
108.7671730814
20
174.2410477903
11
109.5038118167
21
174.2346705699
12
109.5263090098
22
174.2916468830
13
109.5263090098
23
174.2916468830
0
SOLID
5
572
100
AcDbEntity
8
035
100
AcDbTrace
62
4
6
CONTINUOUS
10
109.5038118167
20
174.2346705699
11
108.7671730814
21
174.2410477903
12
108.7970330132
22
174.1875612646
13
108.7970330132
23
174.1875612646
0
SOLID
5
573
100
AcDbEntity
8
035
100
AcDbTrace
62
4
6
CONTINUOUS
10
108.7970330132
20
174.1875612646
11
109.4730303439
21
174.1817090283
12
109.5038118167
22
174.2346705699
13
109.5038118167
23
174.2346705699
0
SOLID
5
574
100
AcDbEntity
8
035
100
AcDbTrace
62
4
6
CONTINUOUS
10
109.4730303439
20
174.1817090283
11
108.7970330132
21
174.1875612646
12
108.8345711109
22
174.1391534638
13
108.8345711109
23
174.1391534638
0
SOLID
5
575
100
AcDbEntity
8
035
100
AcDbTrace
62
4
6
CONTINUOUS
10
108.8345711109
20
174.1391534638
11
109.4346597844
21
174.1339583830
12
109.4730303439
22
174.1817090283
13
109.4730303439
23
174.1817090283
0
SOLID
5
576
100
AcDbEntity
8
035
100
AcDbTrace
62
4
6
CONTINUOUS
10
109.4346597844
20
174.1339583830
11
108.8345711109
21
174.1391534638
12
108.8789395848
22
174.0969176676
13
108.8789395848
23
174.0969176676
0
SOLID
5
577
100
AcDbEntity
8
035
100
AcDbTrace
62
4
6
CONTINUOUS
10
108.8789395848
20
174.0969176676
11
109.3895667289
21
174.0924970721
12
109.4346597844
22
174.1339583830
13
109.4346597844
23
174.1339583830
0
SOLID
5
578
100
AcDbEntity
8
035
100
AcDbTrace
62
4
6
CONTINUOUS
10
109.3895667289
20
174.0924970721
11
108.8789395848
21
174.0969176676
12
108.9291363825
22
174.0618077622
13
108.9291363825
23
174.0618077622
0
SOLID
5
579
100
AcDbEntity
8
035
100
AcDbTrace
62
4
6
CONTINUOUS
10
108.9291363825
20
174.0618077622
11
109.3387695942
21
174.0582614903
12
109.3895667289
22
174.0924970721
13
109.3895667289
23
174.0924970721
0
SOLID
5
57A
100
AcDbEntity
8
035
100
AcDbTrace
62
4
6
CONTINUOUS
10
109.3387695942
20
174.0582614903
11
108.9291363825
21
174.0618077622
12
108.9840278203
22
174.0346166972
13
108.9840278203
23
174.0346166972
0
SOLID
5
57B
100
AcDbEntity
8
035
100
AcDbTrace
62
4
6
CONTINUOUS
10
108.9840278203
20
174.0346166972
11
109.2834156227
21
174.0320248406
12
109.3387695942
22
174.0582614903
13
109.3387695942
23
174.0582614903
0
SOLID
5
57C
100
AcDbEntity
8
035
100
AcDbTrace
62
4
6
CONTINUOUS
10
109.2834156227
20
174.0320248406
11
108.9840278203
21
174.0346166972
12
109.0423741869
22
174.0159585770
13
109.0423741869
23
174.0159585770
0
SOLID
5
57D
100
AcDbEntity
8
035
100
AcDbTrace
62
4
6
CONTINUOUS
10
109.0423741869
20
174.0159585770
11
109.2247549716
21
174.0143796721
12
109.2834156227
22
174.0320248406
13
109.2834156227
23
174.0320248406
0
SOLID
5
57E
100
AcDbEntity
8
035
100
AcDbTrace
62
4
6
CONTINUOUS
10
109.2247549716
20
174.0143796721
11
109.0423741869
21
174.0159585770
12
109.1028577425
22
174.0062547910
13
109.1028577425
23
174.0062547910
0
SOLID
5
57F
100
AcDbEntity
8
035
100
AcDbTrace
62
4
6
CONTINUOUS
10
109.1028577425
20
174.0062547910
11
109.1641124790
21
174.0057244972
12
109.2247549716
22
174.0143796721
13
109.2247549716
23
174.0143796721
0
LINE
5
580
100
AcDbEntity
8
035
100
AcDbLine
62
4
6
CONTINUOUS
39
1755644792
10
109.2707470521
20
171.3492382817
11
108.0352396347
21
172.0625487495
0
CIRCLE
5
581
100
AcDbEntity
8
035
100
AcDbCircle
62
4
6
CONTINUOUS
10
108.0352445261
20
172.0625487495
40
0.4076129692
0
SOLID
5
582
100
AcDbEntity
8
035
100
AcDbTrace
62
4
6
CONTINUOUS
10
108.0764176814
20
172.4680769285
11
108.0151813069
21
172.4696676510
12
107.9543980559
22
172.4620636816
13
107.9543980559
23
172.4620636816
0
SOLID
5
583
100
AcDbEntity
8
035
100
AcDbTrace
62
4
6
CONTINUOUS
10
107.9543980559
20
172.4620636816
11
108.1367241691
21
172.4573274404
12
108.0764176814
22
172.4680769285
13
108.0764176814
23
172.4680769285
0
SOLID
5
584
100
AcDbEntity
8
035
100
AcDbTrace
62
4
6
CONTINUOUS
10
108.1367241691
20
172.4573274404
11
107.9543980559
21
172.4620636816
12
107.8954407048
22
172.4454367543
13
107.8954407048
23
172.4454367543
0
SOLID
5
585
100
AcDbEntity
8
035
100
AcDbTrace
62
4
6
CONTINUOUS
10
107.8954407048
20
172.4454367543
11
108.1947387611
21
172.4376619613
12
108.1367241691
22
172.4573274404
13
108.1367241691
23
172.4573274404
0
SOLID
5
586
100
AcDbEntity
8
035
100
AcDbTrace
62
4
6
CONTINUOUS
10
108.1947387611
20
172.4376619613
11
107.8954407048
21
172.4454367543
12
107.8396407926
22
172.4201623848
13
107.8396407926
23
172.4201623848
0
SOLID
5
587
100
AcDbEntity
8
035
100
AcDbTrace
62
4
6
CONTINUOUS
10
107.8396407926
20
172.4201623848
11
108.2491512106
21
172.4095246320
12
108.1947387611
22
172.4376619613
13
108.1947387611
23
172.4376619613
0
SOLID
5
588
100
AcDbEntity
8
035
100
AcDbTrace
62
4
6
CONTINUOUS
10
108.2491512106
20
172.4095246320
11
107.8396407926
21
172.4201623848
12
107.7882585482
22
172.3868113891
13
107.7882585482
23
172.3868113891
0
SOLID
5
589
100
AcDbEntity
8
035
100
AcDbTrace
62
4
6
CONTINUOUS
10
107.7882585482
20
172.3868113891
11
108.2987326240
21
172.3735509278
12
108.2491512106
22
172.4095246320
13
108.2491512106
23
172.4095246320
0
SOLID
5
58A
100
AcDbEntity
8
035
100
AcDbTrace
62
4
6
CONTINUOUS
10
108.2987326240
20
172.3735509278
11
107.7882585482
21
172.3868113891
12
107.7424544284
22
172.3461369922
13
107.7424544284
23
172.3461369922
0
SOLID
5
58B
100
AcDbEntity
8
035
100
AcDbTrace
62
4
6
CONTINUOUS
10
107.7424544284
20
172.3461369922
11
108.3423632162
21
172.3305533071
12
108.2987326240
22
172.3735509278
13
108.2987326240
23
172.3735509278
0
SOLID
5
58C
100
AcDbEntity
8
035
100
AcDbTrace
62
4
6
CONTINUOUS
10
108.3423632162
20
172.3305533071
11
107.7424544284
21
172.3461369922
12
107.7032629092
22
172.2990578165
13
107.7032629092
23
172.2990578165
0
SOLID
5
58D
100
AcDbEntity
8
035
100
AcDbTrace
62
4
6
CONTINUOUS
10
107.7032629092
20
172.2990578165
11
108.3790575994
21
172.2815028617
12
108.3423632162
22
172.3305533071
13
108.3423632162
23
172.3305533071
0
SOLID
5
58E
100
AcDbEntity
8
035
100
AcDbTrace
62
4
6
CONTINUOUS
10
108.3790575994
20
172.2815028617
11
107.7032629092
21
172.2990578165
12
107.6715691227
22
172.2466371350
13
107.6715691227
23
172.2466371350
0
SOLID
5
58F
100
AcDbEntity
8
035
100
AcDbTrace
62
4
6
CONTINUOUS
10
107.6715691227
20
172.2466371350
11
108.4079870393
21
172.2275073853
12
108.3790575994
22
172.2815028617
13
108.3790575994
23
172.2815028617
0
SOLID
5
590
100
AcDbEntity
8
035
100
AcDbTrace
62
4
6
CONTINUOUS
10
108.4079870393
20
172.2275073853
11
107.6715691227
21
172.2466371350
12
107.6480888660
22
172.1900588573
13
107.6480888660
23
172.1900588573
0
SOLID
5
591
100
AcDbEntity
8
035
100
AcDbTrace
62
4
6
CONTINUOUS
10
107.6480888660
20
172.1900588573
11
108.4284981705
21
172.1697863541
12
108.4079870393
22
172.2275073853
13
108.4079870393
23
172.2275073853
0
SOLID
5
592
100
AcDbEntity
8
035
100
AcDbTrace
62
4
6
CONTINUOUS
10
108.4284981705
20
172.1697863541
11
107.6480888660
21
172.1900588573
12
107.6333524358
22
172.1306007916
13
107.6333524358
23
172.1306007916
0
SOLID
5
593
100
AcDbEntity
8
035
100
AcDbTrace
62
4
6
CONTINUOUS
10
107.6333524358
20
172.1306007916
11
108.4401277537
21
172.1096433848
12
108.4284981705
22
172.1697863541
13
108.4284981705
23
172.1697863541
0
SOLID
5
594
100
AcDbEntity
8
035
100
AcDbTrace
62
4
6
CONTINUOUS
10
108.4401277537
20
172.1096433848
11
107.6333524358
21
172.1306007916
12
107.6276926509
22
172.0696057853
13
107.6276926509
23
172.0696057853
0
SOLID
5
595
100
AcDbEntity
8
035
100
AcDbTrace
62
4
6
CONTINUOUS
10
107.6276926509
20
172.0696057853
11
108.4428574953
21
172.0625487495
12
108.4401277537
22
172.1096433848
13
108.4401277537
23
172.1096433848
0
SOLID
5
596
100
AcDbEntity
8
035
100
AcDbTrace
62
4
6
CONTINUOUS
10
108.4428574953
20
172.0625487495
11
107.6276926509
21
172.0696057853
12
107.6312373366
22
172.0084513974
13
107.6312373366
23
172.0084513974
0
SOLID
5
597
100
AcDbEntity
8
035
100
AcDbTrace
62
4
6
CONTINUOUS
10
107.6312373366
20
172.0084513974
11
108.4382545701
21
172.0014648970
12
108.4428574953
22
172.0625487495
13
108.4428574953
23
172.0625487495
0
SOLID
5
598
100
AcDbEntity
8
035
100
AcDbTrace
62
4
6
CONTINUOUS
10
108.4382545701
20
172.0014648970
11
107.6312373366
21
172.0084513974
12
107.6439064367
22
171.9485187864
13
107.6439064367
23
171.9485187864
0
SOLID
5
599
100
AcDbEntity
8
035
100
AcDbTrace
62
4
6
CONTINUOUS
10
107.6439064367
20
171.9485187864
11
108.4245497508
21
171.9417606101
12
108.4382545701
22
172.0014648970
13
108.4382545701
23
172.0014648970
0
SOLID
5
59A
100
AcDbEntity
8
035
100
AcDbTrace
62
4
6
CONTINUOUS
10
108.4245497508
20
171.9417606101
11
107.6439064367
21
171.9485187864
12
107.6654138225
22
171.8911615174
13
107.6654138225
23
171.8911615174
0
SOLID
5
59B
100
AcDbEntity
8
035
100
AcDbTrace
62
4
6
CONTINUOUS
10
107.6654138225
20
171.8911615174
11
108.4020525577
21
171.8847842969
12
108.4245497508
22
171.9417606101
13
108.4245497508
23
171.9417606101
0
SOLID
5
59C
100
AcDbEntity
8
035
100
AcDbTrace
62
4
6
CONTINUOUS
10
108.4020525577
20
171.8847842969
11
107.6654138225
21
171.8911615174
12
107.6952737542
22
171.8376749917
13
107.6952737542
23
171.8376749917
0
SOLID
5
59D
100
AcDbEntity
8
035
100
AcDbTrace
62
4
6
CONTINUOUS
10
107.6952737542
20
171.8376749917
11
108.3712710849
21
171.8318227553
12
108.4020525577
22
171.8847842969
13
108.4020525577
23
171.8847842969
0
SOLID
5
59E
100
AcDbEntity
8
035
100
AcDbTrace
62
4
6
CONTINUOUS
10
108.3712710849
20
171.8318227553
11
107.6952737542
21
171.8376749917
12
107.7328118519
22
171.7892671909
13
107.7328118519
23
171.7892671909
0
SOLID
5
59F
100
AcDbEntity
8
035
100
AcDbTrace
62
4
6
CONTINUOUS
10
107.7328118519
20
171.7892671909
11
108.3329005254
21
171.7840721101
12
108.3712710849
22
171.8318227553
13
108.3712710849
23
171.8318227553
0
SOLID
5
5A0
100
AcDbEntity
8
035
100
AcDbTrace
62
4
6
CONTINUOUS
10
108.3329005254
20
171.7840721101
11
107.7328118519
21
171.7892671909
12
107.7771803258
22
171.7470313947
13
107.7771803258
23
171.7470313947
0
SOLID
5
5A1
100
AcDbEntity
8
035
100
AcDbTrace
62
4
6
CONTINUOUS
10
107.7771803258
20
171.7470313947
11
108.2878074699
21
171.7426107992
12
108.3329005254
22
171.7840721101
13
108.3329005254
23
171.7840721101
0
SOLID
5
5A2
100
AcDbEntity
8
035
100
AcDbTrace
62
4
6
CONTINUOUS
10
108.2878074699
20
171.7426107992
11
107.7771803258
21
171.7470313947
12
107.8273771235
22
171.7119214893
13
107.8273771235
23
171.7119214893
0
SOLID
5
5A3
100
AcDbEntity
8
035
100
AcDbTrace
62
4
6
CONTINUOUS
10
107.8273771235
20
171.7119214893
11
108.2370103352
21
171.7083752173
12
108.2878074699
22
171.7426107992
13
108.2878074699
23
171.7426107992
0
SOLID
5
5A4
100
AcDbEntity
8
035
100
AcDbTrace
62
4
6
CONTINUOUS
10
108.2370103352
20
171.7083752173
11
107.8273771235
21
171.7119214893
12
107.8822685613
22
171.6847304243
13
107.8822685613
23
171.6847304243
0
SOLID
5
5A5
100
AcDbEntity
8
035
100
AcDbTrace
62
4
6
CONTINUOUS
10
107.8822685613
20
171.6847304243
11
108.1816563637
21
171.6821385677
12
108.2370103352
22
171.7083752173
13
108.2370103352
23
171.7083752173
0
SOLID
5
5A6
100
AcDbEntity
8
035
100
AcDbTrace
62
4
6
CONTINUOUS
10
108.1816563637
20
171.6821385677
11
107.8822685613
21
171.6847304243
12
107.9406149280
22
171.6660723040
13
107.9406149280
23
171.6660723040
0
SOLID
5
5A7
100
AcDbEntity
8
035
100
AcDbTrace
62
4
6
CONTINUOUS
10
107.9406149280
20
171.6660723040
11
108.1229957126
21
171.6644933992
12
108.1816563637
22
171.6821385677
13
108.1816563637
23
171.6821385677
0
SOLID
5
5A8
100
AcDbEntity
8
035
100
AcDbTrace
62
4
6
CONTINUOUS
10
108.1229957126
20
171.6644933992
11
107.9406149280
21
171.6660723040
12
108.0010984835
22
171.6563685181
13
108.0010984835
23
171.6563685181
0
SOLID
5
5A9
100
AcDbEntity
8
035
100
AcDbTrace
62
4
6
CONTINUOUS
10
108.0010984835
20
171.6563685181
11
108.0623532200
21
171.6558382243
12
108.1229957126
22
171.6644933992
13
108.1229957126
23
171.6644933992
0
CIRCLE
5
5AA
100
AcDbEntity
8
035
100
AcDbCircle
62
4
6
CONTINUOUS
10
109.2707421608
20
171.3492382817
40
0.4076129692
0
SOLID
5
5AB
100
AcDbEntity
8
035
100
AcDbTrace
62
4
6
CONTINUOUS
10
109.3119153161
20
171.7547664607
11
109.2506789416
21
171.7563571831
12
109.1898956906
22
171.7487532138
13
109.1898956906
23
171.7487532138
0
SOLID
5
5AC
100
AcDbEntity
8
035
100
AcDbTrace
62
4
6
CONTINUOUS
10
109.1898956906
20
171.7487532138
11
109.3722218038
21
171.7440169725
12
109.3119153161
22
171.7547664607
13
109.3119153161
23
171.7547664607
0
SOLID
5
5AD
100
AcDbEntity
8
035
100
AcDbTrace
62
4
6
CONTINUOUS
10
109.3722218038
20
171.7440169725
11
109.1898956906
21
171.7487532138
12
109.1309383395
22
171.7321262865
13
109.1309383395
23
171.7321262865
0
SOLID
5
5AE
100
AcDbEntity
8
035
100
AcDbTrace
62
4
6
CONTINUOUS
10
109.1309383395
20
171.7321262865
11
109.4302363959
21
171.7243514935
12
109.3722218038
22
171.7440169725
13
109.3722218038
23
171.7440169725
0
SOLID
5
5AF
100
AcDbEntity
8
035
100
AcDbTrace
62
4
6
CONTINUOUS
10
109.4302363959
20
171.7243514935
11
109.1309383395
21
171.7321262865
12
109.0751384273
22
171.7068519170
13
109.0751384273
23
171.7068519170
0
SOLID
5
5B0
100
AcDbEntity
8
035
100
AcDbTrace
62
4
6
CONTINUOUS
10
109.0751384273
20
171.7068519170
11
109.4846488453
21
171.6962141642
12
109.4302363959
22
171.7243514935
13
109.4302363959
23
171.7243514935
0
SOLID
5
5B1
100
AcDbEntity
8
035
100
AcDbTrace
62
4
6
CONTINUOUS
10
109.4846488453
20
171.6962141642
11
109.0751384273
21
171.7068519170
12
109.0237561829
22
171.6735009213
13
109.0237561829
23
171.6735009213
0
SOLID
5
5B2
100
AcDbEntity
8
035
100
AcDbTrace
62
4
6
CONTINUOUS
10
109.0237561829
20
171.6735009213
11
109.5342302588
21
171.6602404600
12
109.4846488453
22
171.6962141642
13
109.4846488453
23
171.6962141642
0
SOLID
5
5B3
100
AcDbEntity
8
035
100
AcDbTrace
62
4
6
CONTINUOUS
10
109.5342302588
20
171.6602404600
11
109.0237561829
21
171.6735009213
12
108.9779520631
22
171.6328265244
13
108.9779520631
23
171.6328265244
0
SOLID
5
5B4
100
AcDbEntity
8
035
100
AcDbTrace
62
4
6
CONTINUOUS
10
108.9779520631
20
171.6328265244
11
109.5778608509
21
171.6172428392
12
109.5342302588
22
171.6602404600
13
109.5342302588
23
171.6602404600
0
SOLID
5
5B5
100
AcDbEntity
8
035
100
AcDbTrace
62
4
6
CONTINUOUS
10
109.5778608509
20
171.6172428392
11
108.9779520631
21
171.6328265244
12
108.9387605440
22
171.5857473487
13
108.9387605440
23
171.5857473487
0
SOLID
5
5B6
100
AcDbEntity
8
035
100
AcDbTrace
62
4
6
CONTINUOUS
10
108.9387605440
20
171.5857473487
11
109.6145552342
21
171.5681923939
12
109.5778608509
22
171.6172428392
13
109.5778608509
23
171.6172428392
0
SOLID
5
5B7
100
AcDbEntity
8
035
100
AcDbTrace
62
4
6
CONTINUOUS
10
109.6145552342
20
171.5681923939
11
108.9387605440
21
171.5857473487
12
108.9070667574
22
171.5333266671
13
108.9070667574
23
171.5333266671
0
SOLID
5
5B8
100
AcDbEntity
8
035
100
AcDbTrace
62
4
6
CONTINUOUS
10
108.9070667574
20
171.5333266671
11
109.6434846740
21
171.5141969175
12
109.6145552342
22
171.5681923939
13
109.6145552342
23
171.5681923939
0
SOLID
5
5B9
100
AcDbEntity
8
035
100
AcDbTrace
62
4
6
CONTINUOUS
10
109.6434846740
20
171.5141969175
11
108.9070667574
21
171.5333266671
12
108.8835865008
22
171.4767483895
13
108.8835865008
23
171.4767483895
0
SOLID
5
5BA
100
AcDbEntity
8
035
100
AcDbTrace
62
4
6
CONTINUOUS
10
108.8835865008
20
171.4767483895
11
109.6639958052
21
171.4564758862
12
109.6434846740
22
171.5141969175
13
109.6434846740
23
171.5141969175
0
SOLID
5
5BB
100
AcDbEntity
8
035
100
AcDbTrace
62
4
6
CONTINUOUS
10
109.6639958052
20
171.4564758862
11
108.8835865008
21
171.4767483895
12
108.8688500705
22
171.4172903238
13
108.8688500705
23
171.4172903238
0
SOLID
5
5BC
100
AcDbEntity
8
035
100
AcDbTrace
62
4
6
CONTINUOUS
10
108.8688500705
20
171.4172903238
11
109.6756253884
21
171.3963329170
12
109.6639958052
22
171.4564758862
13
109.6639958052
23
171.4564758862
0
SOLID
5
5BD
100
AcDbEntity
8
035
100
AcDbTrace
62
4
6
CONTINUOUS
10
109.6756253884
20
171.3963329170
11
108.8688500705
21
171.4172903238
12
108.8631902857
22
171.3562953175
13
108.8631902857
23
171.3562953175
0
SOLID
5
5BE
100
AcDbEntity
8
035
100
AcDbTrace
62
4
6
CONTINUOUS
10
108.8631902857
20
171.3562953175
11
109.6783551300
21
171.3492382817
12
109.6756253884
22
171.3963329170
13
109.6756253884
23
171.3963329170
0
SOLID
5
5BF
100
AcDbEntity
8
035
100
AcDbTrace
62
4
6
CONTINUOUS
10
109.6783551300
20
171.3492382817
11
108.8631902857
21
171.3562953175
12
108.8667349713
22
171.2951409296
13
108.8667349713
23
171.2951409296
0
SOLID
5
5C0
100
AcDbEntity
8
035
100
AcDbTrace
62
4
6
CONTINUOUS
10
108.8667349713
20
171.2951409296
11
109.6737522049
21
171.2881544292
12
109.6783551300
22
171.3492382817
13
109.6783551300
23
171.3492382817
0
SOLID
5
5C1
100
AcDbEntity
8
035
100
AcDbTrace
62
4
6
CONTINUOUS
10
109.6737522049
20
171.2881544292
11
108.8667349713
21
171.2951409296
12
108.8794040714
22
171.2352083186
13
108.8794040714
23
171.2352083186
0
SOLID
5
5C2
100
AcDbEntity
8
035
100
AcDbTrace
62
4
6
CONTINUOUS
10
108.8794040714
20
171.2352083186
11
109.6600473856
21
171.2284501422
12
109.6737522049
22
171.2881544292
13
109.6737522049
23
171.2881544292
0
SOLID
5
5C3
100
AcDbEntity
8
035
100
AcDbTrace
62
4
6
CONTINUOUS
10
109.6600473856
20
171.2284501422
11
108.8794040714
21
171.2352083186
12
108.9009114572
22
171.1778510496
13
108.9009114572
23
171.1778510496
0
SOLID
5
5C4
100
AcDbEntity
8
035
100
AcDbTrace
62
4
6
CONTINUOUS
10
108.9009114572
20
171.1778510496
11
109.6375501924
21
171.1714738291
12
109.6600473856
22
171.2284501422
13
109.6600473856
23
171.2284501422
0
SOLID
5
5C5
100
AcDbEntity
8
035
100
AcDbTrace
62
4
6
CONTINUOUS
10
109.6375501924
20
171.1714738291
11
108.9009114572
21
171.1778510496
12
108.9307713890
22
171.1243645239
13
108.9307713890
23
171.1243645239
0
SOLID
5
5C6
100
AcDbEntity
8
035
100
AcDbTrace
62
4
6
CONTINUOUS
10
108.9307713890
20
171.1243645239
11
109.6067687197
21
171.1185122875
12
109.6375501924
22
171.1714738291
13
109.6375501924
23
171.1714738291
0
SOLID
5
5C7
100
AcDbEntity
8
035
100
AcDbTrace
62
4
6
CONTINUOUS
10
109.6067687197
20
171.1185122875
11
108.9307713890
21
171.1243645239
12
108.9683094867
22
171.0759567231
13
108.9683094867
23
171.0759567231
0
SOLID
5
5C8
100
AcDbEntity
8
035
100
AcDbTrace
62
4
6
CONTINUOUS
10
108.9683094867
20
171.0759567231
11
109.5683981601
21
171.0707616423
12
109.6067687197
22
171.1185122875
13
109.6067687197
23
171.1185122875
0
SOLID
5
5C9
100
AcDbEntity
8
035
100
AcDbTrace
62
4
6
CONTINUOUS
10
109.5683981601
20
171.0707616423
11
108.9683094867
21
171.0759567231
12
109.0126779605
22
171.0337209269
13
109.0126779605
23
171.0337209269
0
SOLID
5
5CA
100
AcDbEntity
8
035
100
AcDbTrace
62
4
6
CONTINUOUS
10
109.0126779605
20
171.0337209269
11
109.5233051046
21
171.0293003314
12
109.5683981601
22
171.0707616423
13
109.5683981601
23
171.0707616423
0
SOLID
5
5CB
100
AcDbEntity
8
035
100
AcDbTrace
62
4
6
CONTINUOUS
10
109.5233051046
20
171.0293003314
11
109.0126779605
21
171.0337209269
12
109.0628747582
22
170.9986110215
13
109.0628747582
23
170.9986110215
0
SOLID
5
5CC
100
AcDbEntity
8
035
100
AcDbTrace
62
4
6
CONTINUOUS
10
109.0628747582
20
170.9986110215
11
109.4725079700
21
170.9950647495
12
109.5233051046
22
171.0293003314
13
109.5233051046
23
171.0293003314
0
SOLID
5
5CD
100
AcDbEntity
8
035
100
AcDbTrace
62
4
6
CONTINUOUS
10
109.4725079700
20
170.9950647495
11
109.0628747582
21
170.9986110215
12
109.1177661960
22
170.9714199565
13
109.1177661960
23
170.9714199565
0
SOLID
5
5CE
100
AcDbEntity
8
035
100
AcDbTrace
62
4
6
CONTINUOUS
10
109.1177661960
20
170.9714199565
11
109.4171539984
21
170.9688280998
12
109.4725079700
22
170.9950647495
13
109.4725079700
23
170.9950647495
0
SOLID
5
5CF
100
AcDbEntity
8
035
100
AcDbTrace
62
4
6
CONTINUOUS
10
109.4171539984
20
170.9688280998
11
109.1177661960
21
170.9714199565
12
109.1761125627
22
170.9527618362
13
109.1761125627
23
170.9527618362
0
SOLID
5
5D0
100
AcDbEntity
8
035
100
AcDbTrace
62
4
6
CONTINUOUS
10
109.1761125627
20
170.9527618362
11
109.3584933473
21
170.9511829314
12
109.4171539984
22
170.9688280998
13
109.4171539984
23
170.9688280998
0
SOLID
5
5D1
100
AcDbEntity
8
035
100
AcDbTrace
62
4
6
CONTINUOUS
10
109.3584933473
20
170.9511829314
11
109.1761125627
21
170.9527618362
12
109.2365961182
22
170.9430580502
13
109.2365961182
23
170.9430580502
0
SOLID
5
5D2
100
AcDbEntity
8
035
100
AcDbTrace
62
4
6
CONTINUOUS
10
109.2365961182
20
170.9430580502
11
109.2978508548
21
170.9425277564
12
109.3584933473
22
170.9511829314
13
109.3584933473
23
170.9511829314
0
CIRCLE
5
5D3
100
AcDbEntity
8
035
100
AcDbCircle
62
4
6
CONTINUOUS
10
104.3287418392
20
174.2024997183
40
0.4076129692
0
SOLID
5
5D4
100
AcDbEntity
8
035
100
AcDbTrace
62
4
6
CONTINUOUS
10
104.3699149945
20
174.6080278973
11
104.3086786201
21
174.6096186197
12
104.2478953690
22
174.6020146503
13
104.2478953690
23
174.6020146503
0
SOLID
5
5D5
100
AcDbEntity
8
035
100
AcDbTrace
62
4
6
CONTINUOUS
10
104.2478953690
20
174.6020146503
11
104.4302214822
21
174.5972784091
12
104.3699149945
22
174.6080278973
13
104.3699149945
23
174.6080278973
0
SOLID
5
5D6
100
AcDbEntity
8
035
100
AcDbTrace
62
4
6
CONTINUOUS
10
104.4302214822
20
174.5972784091
11
104.2478953690
21
174.6020146503
12
104.1889380179
22
174.5853877231
13
104.1889380179
23
174.5853877231
0
SOLID
5
5D7
100
AcDbEntity
8
035
100
AcDbTrace
62
4
6
CONTINUOUS
10
104.1889380179
20
174.5853877231
11
104.4882360743
21
174.5776129301
12
104.4302214822
22
174.5972784091
13
104.4302214822
23
174.5972784091
0
SOLID
5
5D8
100
AcDbEntity
8
035
100
AcDbTrace
62
4
6
CONTINUOUS
10
104.4882360743
20
174.5776129301
11
104.1889380179
21
174.5853877231
12
104.1331381058
22
174.5601133536
13
104.1331381058
23
174.5601133536
0
SOLID
5
5D9
100
AcDbEntity
8
035
100
AcDbTrace
62
4
6
CONTINUOUS
10
104.1331381058
20
174.5601133536
11
104.5426485237
21
174.5494756007
12
104.4882360743
22
174.5776129301
13
104.4882360743
23
174.5776129301
0
SOLID
5
5DA
100
AcDbEntity
8
035
100
AcDbTrace
62
4
6
CONTINUOUS
10
104.5426485237
20
174.5494756007
11
104.1331381058
21
174.5601133536
12
104.0817558613
22
174.5267623578
13
104.0817558613
23
174.5267623578
0
SOLID
5
5DB
100
AcDbEntity
8
035
100
AcDbTrace
62
4
6
CONTINUOUS
10
104.0817558613
20
174.5267623578
11
104.5922299372
21
174.5135018966
12
104.5426485237
22
174.5494756007
13
104.5426485237
23
174.5494756007
0
SOLID
5
5DC
100
AcDbEntity
8
035
100
AcDbTrace
62
4
6
CONTINUOUS
10
104.5922299372
20
174.5135018966
11
104.0817558613
21
174.5267623578
12
104.0359517415
22
174.4860879609
13
104.0359517415
23
174.4860879609
0
SOLID
5
5DD
100
AcDbEntity
8
035
100
AcDbTrace
62
4
6
CONTINUOUS
10
104.0359517415
20
174.4860879609
11
104.6358605293
21
174.4705042758
12
104.5922299372
22
174.5135018966
13
104.5922299372
23
174.5135018966
0
SOLID
5
5DE
100
AcDbEntity
8
035
100
AcDbTrace
62
4
6
CONTINUOUS
10
104.6358605293
20
174.4705042758
11
104.0359517415
21
174.4860879609
12
103.9967602224
22
174.4390087852
13
103.9967602224
23
174.4390087852
0
SOLID
5
5DF
100
AcDbEntity
8
035
100
AcDbTrace
62
4
6
CONTINUOUS
10
103.9967602224
20
174.4390087852
11
104.6725549126
21
174.4214538305
12
104.6358605293
22
174.4705042758
13
104.6358605293
23
174.4705042758
0
SOLID
5
5E0
100
AcDbEntity
8
035
100
AcDbTrace
62
4
6
CONTINUOUS
10
104.6725549126
20
174.4214538305
11
103.9967602224
21
174.4390087852
12
103.9650664358
22
174.3865881037
13
103.9650664358
23
174.3865881037
0
SOLID
5
5E1
100
AcDbEntity
8
035
100
AcDbTrace
62
4
6
CONTINUOUS
10
103.9650664358
20
174.3865881037
11
104.7014843524
21
174.3674583541
12
104.6725549126
22
174.4214538305
13
104.6725549126
23
174.4214538305
0
SOLID
5
5E2
100
AcDbEntity
8
035
100
AcDbTrace
62
4
6
CONTINUOUS
10
104.7014843524
20
174.3674583541
11
103.9650664358
21
174.3865881037
12
103.9415861792
22
174.3300098261
13
103.9415861792
23
174.3300098261
0
SOLID
5
5E3
100
AcDbEntity
8
035
100
AcDbTrace
62
4
6
CONTINUOUS
10
103.9415861792
20
174.3300098261
11
104.7219954836
21
174.3097373228
12
104.7014843524
22
174.3674583541
13
104.7014843524
23
174.3674583541
0
SOLID
5
5E4
100
AcDbEntity
8
035
100
AcDbTrace
62
4
6
CONTINUOUS
10
104.7219954836
20
174.3097373228
11
103.9415861792
21
174.3300098261
12
103.9268497489
22
174.2705517603
13
103.9268497489
23
174.2705517603
0
SOLID
5
5E5
100
AcDbEntity
8
035
100
AcDbTrace
62
4
6
CONTINUOUS
10
103.9268497489
20
174.2705517603
11
104.7336250668
21
174.2495943535
12
104.7219954836
22
174.3097373228
13
104.7219954836
23
174.3097373228
0
SOLID
5
5E6
100
AcDbEntity
8
035
100
AcDbTrace
62
4
6
CONTINUOUS
10
104.7336250668
20
174.2495943535
11
103.9268497489
21
174.2705517603
12
103.9211899641
22
174.2095567541
13
103.9211899641
23
174.2095567541
0
SOLID
5
5E7
100
AcDbEntity
8
035
100
AcDbTrace
62
4
6
CONTINUOUS
10
103.9211899641
20
174.2095567541
11
104.7363548084
21
174.2024997183
12
104.7336250668
22
174.2495943535
13
104.7336250668
23
174.2495943535
0
SOLID
5
5E8
100
AcDbEntity
8
035
100
AcDbTrace
62
4
6
CONTINUOUS
10
104.7363548084
20
174.2024997183
11
103.9211899641
21
174.2095567541
12
103.9247346497
22
174.1484023662
13
103.9247346497
23
174.1484023662
0
SOLID
5
5E9
100
AcDbEntity
8
035
100
AcDbTrace
62
4
6
CONTINUOUS
10
103.9247346497
20
174.1484023662
11
104.7317518833
21
174.1414158658
12
104.7363548084
22
174.2024997183
13
104.7363548084
23
174.2024997183
0
SOLID
5
5EA
100
AcDbEntity
8
035
100
AcDbTrace
62
4
6
CONTINUOUS
10
104.7317518833
20
174.1414158658
11
103.9247346497
21
174.1484023662
12
103.9374037499
22
174.0884697552
13
103.9374037499
23
174.0884697552
0
SOLID
5
5EB
100
AcDbEntity
8
035
100
AcDbTrace
62
4
6
CONTINUOUS
10
103.9374037499
20
174.0884697552
11
104.7180470640
21
174.0817115788
12
104.7317518833
22
174.1414158658
13
104.7317518833
23
174.1414158658
0
SOLID
5
5EC
100
AcDbEntity
8
035
100
AcDbTrace
62
4
6
CONTINUOUS
10
104.7180470640
20
174.0817115788
11
103.9374037499
21
174.0884697552
12
103.9589111356
22
174.0311124861
13
103.9589111356
23
174.0311124861
0
SOLID
5
5ED
100
AcDbEntity
8
035
100
AcDbTrace
62
4
6
CONTINUOUS
10
103.9589111356
20
174.0311124861
11
104.6955498708
21
174.0247352657
12
104.7180470640
22
174.0817115788
13
104.7180470640
23
174.0817115788
0
SOLID
5
5EE
100
AcDbEntity
8
035
100
AcDbTrace
62
4
6
CONTINUOUS
10
104.6955498708
20
174.0247352657
11
103.9589111356
21
174.0311124861
12
103.9887710674
22
173.9776259604
13
103.9887710674
23
173.9776259604
0
SOLID
5
5EF
100
AcDbEntity
8
035
100
AcDbTrace
62
4
6
CONTINUOUS
10
103.9887710674
20
173.9776259604
11
104.6647683981
21
173.9717737241
12
104.6955498708
22
174.0247352657
13
104.6955498708
23
174.0247352657
0
SOLID
5
5F0
100
AcDbEntity
8
035
100
AcDbTrace
62
4
6
CONTINUOUS
10
104.6647683981
20
173.9717737241
11
103.9887710674
21
173.9776259604
12
104.0263091651
22
173.9292181597
13
104.0263091651
23
173.9292181597
0
SOLID
5
5F1
100
AcDbEntity
8
035
100
AcDbTrace
62
4
6
CONTINUOUS
10
104.0263091651
20
173.9292181597
11
104.6263978386
21
173.9240230788
12
104.6647683981
22
173.9717737241
13
104.6647683981
23
173.9717737241
0
SOLID
5
5F2
100
AcDbEntity
8
035
100
AcDbTrace
62
4
6
CONTINUOUS
10
104.6263978386
20
173.9240230788
11
104.0263091651
21
173.9292181597
12
104.0706776390
22
173.8869823634
13
104.0706776390
23
173.8869823634
0
SOLID
5
5F3
100
AcDbEntity
8
035
100
AcDbTrace
62
4
6
CONTINUOUS
10
104.0706776390
20
173.8869823634
11
104.5813047831
21
173.8825617680
12
104.6263978386
22
173.9240230788
13
104.6263978386
23
173.9240230788
0
SOLID
5
5F4
100
AcDbEntity
8
035
100
AcDbTrace
62
4
6
CONTINUOUS
10
104.5813047831
20
173.8825617680
11
104.0706776390
21
173.8869823634
12
104.1208744367
22
173.8518724580
13
104.1208744367
23
173.8518724580
0
SOLID
5
5F5
100
AcDbEntity
8
035
100
AcDbTrace
62
4
6
CONTINUOUS
10
104.1208744367
20
173.8518724580
11
104.5305076484
21
173.8483261861
12
104.5813047831
22
173.8825617680
13
104.5813047831
23
173.8825617680
0
SOLID
5
5F6
100
AcDbEntity
8
035
100
AcDbTrace
62
4
6
CONTINUOUS
10
104.5305076484
20
173.8483261861
11
104.1208744367
21
173.8518724580
12
104.1757658744
22
173.8246813931
13
104.1757658744
23
173.8246813931
0
SOLID
5
5F7
100
AcDbEntity
8
035
100
AcDbTrace
62
4
6
CONTINUOUS
10
104.1757658744
20
173.8246813931
11
104.4751536768
21
173.8220895364
12
104.5305076484
22
173.8483261861
13
104.5305076484
23
173.8483261861
0
SOLID
5
5F8
100
AcDbEntity
8
035
100
AcDbTrace
62
4
6
CONTINUOUS
10
104.4751536768
20
173.8220895364
11
104.1757658744
21
173.8246813931
12
104.2341122411
22
173.8060232728
13
104.2341122411
23
173.8060232728
0
SOLID
5
5F9
100
AcDbEntity
8
035
100
AcDbTrace
62
4
6
CONTINUOUS
10
104.2341122411
20
173.8060232728
11
104.4164930257
21
173.8044443680
12
104.4751536768
22
173.8220895364
13
104.4751536768
23
173.8220895364
0
SOLID
5
5FA
100
AcDbEntity
8
035
100
AcDbTrace
62
4
6
CONTINUOUS
10
104.4164930257
20
173.8044443680
11
104.2341122411
21
173.8060232728
12
104.2945957967
22
173.7963194868
13
104.2945957967
23
173.7963194868
0
SOLID
5
5FB
100
AcDbEntity
8
035
100
AcDbTrace
62
4
6
CONTINUOUS
10
104.2945957967
20
173.7963194868
11
104.3558505332
21
173.7957891930
12
104.4164930257
22
173.8044443680
13
104.4164930257
23
173.8044443680
0
CIRCLE
5
5FC
100
AcDbEntity
8
035
100
AcDbCircle
62
4
6
CONTINUOUS
10
105.5642394739
20
173.4891892505
40
0.4076129692
0
SOLID
5
5FD
100
AcDbEntity
8
035
100
AcDbTrace
62
4
6
CONTINUOUS
10
105.6054126293
20
173.8947174294
11
105.5441762548
21
173.8963081519
12
105.4833930038
22
173.8887041825
13
105.4833930038
23
173.8887041825
0
SOLID
5
5FE
100
AcDbEntity
8
035
100
AcDbTrace
62
4
6
CONTINUOUS
10
105.4833930038
20
173.8887041825
11
105.6657191170
21
173.8839679413
12
105.6054126293
22
173.8947174294
13
105.6054126293
23
173.8947174294
0
SOLID
5
5FF
100
AcDbEntity
8
035
100
AcDbTrace
62
4
6
CONTINUOUS
10
105.6657191170
20
173.8839679413
11
105.4833930038
21
173.8887041825
12
105.4244356527
22
173.8720772553
13
105.4244356527
23
173.8720772553
0
SOLID
5
600
100
AcDbEntity
8
035
100
AcDbTrace
62
4
6
CONTINUOUS
10
105.4244356527
20
173.8720772553
11
105.7237337090
21
173.8643024622
12
105.6657191170
22
173.8839679413
13
105.6657191170
23
173.8839679413
0
SOLID
5
601
100
AcDbEntity
8
035
100
AcDbTrace
62
4
6
CONTINUOUS
10
105.7237337090
20
173.8643024622
11
105.4244356527
21
173.8720772553
12
105.3686357405
22
173.8468028857
13
105.3686357405
23
173.8468028857
0
SOLID
5
602
100
AcDbEntity
8
035
100
AcDbTrace
62
4
6
CONTINUOUS
10
105.3686357405
20
173.8468028857
11
105.7781461585
21
173.8361651329
12
105.7237337090
22
173.8643024622
13
105.7237337090
23
173.8643024622
0
SOLID
5
603
100
AcDbEntity
8
035
100
AcDbTrace
62
4
6
CONTINUOUS
10
105.7781461585
20
173.8361651329
11
105.3686357405
21
173.8468028857
12
105.3172534961
22
173.8134518900
13
105.3172534961
23
173.8134518900
0
SOLID
5
604
100
AcDbEntity
8
035
100
AcDbTrace
62
4
6
CONTINUOUS
10
105.3172534961
20
173.8134518900
11
105.8277275719
21
173.8001914287
12
105.7781461585
22
173.8361651329
13
105.7781461585
23
173.8361651329
0
SOLID
5
605
100
AcDbEntity
8
035
100
AcDbTrace
62
4
6
CONTINUOUS
10
105.8277275719
20
173.8001914287
11
105.3172534961
21
173.8134518900
12
105.2714493763
22
173.7727774931
13
105.2714493763
23
173.7727774931
0
SOLID
5
606
100
AcDbEntity
8
035
100
AcDbTrace
62
4
6
CONTINUOUS
10
105.2714493763
20
173.7727774931
11
105.8713581640
21
173.7571938080
12
105.8277275719
22
173.8001914287
13
105.8277275719
23
173.8001914287
0
SOLID
5
607
100
AcDbEntity
8
035
100
AcDbTrace
62
4
6
CONTINUOUS
10
105.8713581640
20
173.7571938080
11
105.2714493763
21
173.7727774931
12
105.2322578571
22
173.7256983174
13
105.2322578571
23
173.7256983174
0
SOLID
5
608
100
AcDbEntity
8
035
100
AcDbTrace
62
4
6
CONTINUOUS
10
105.2322578571
20
173.7256983174
11
105.9080525473
21
173.7081433626
12
105.8713581640
22
173.7571938080
13
105.8713581640
23
173.7571938080
0
SOLID
5
609
100
AcDbEntity
8
035
100
AcDbTrace
62
4
6
CONTINUOUS
10
105.9080525473
20
173.7081433626
11
105.2322578571
21
173.7256983174
12
105.2005640706
22
173.6732776359
13
105.2005640706
23
173.6732776359
0
SOLID
5
60A
100
AcDbEntity
8
035
100
AcDbTrace
62
4
6
CONTINUOUS
10
105.2005640706
20
173.6732776359
11
105.9369819871
21
173.6541478863
12
105.9080525473
22
173.7081433626
13
105.9080525473
23
173.7081433626
0
SOLID
5
60B
100
AcDbEntity
8
035
100
AcDbTrace
62
4
6
CONTINUOUS
10
105.9369819871
20
173.6541478863
11
105.2005640706
21
173.6732776359
12
105.1770838139
22
173.6166993582
13
105.1770838139
23
173.6166993582
0
SOLID
5
60C
100
AcDbEntity
8
035
100
AcDbTrace
62
4
6
CONTINUOUS
10
105.1770838139
20
173.6166993582
11
105.9574931184
21
173.5964268550
12
105.9369819871
22
173.6541478863
13
105.9369819871
23
173.6541478863
0
SOLID
5
60D
100
AcDbEntity
8
035
100
AcDbTrace
62
4
6
CONTINUOUS
10
105.9574931184
20
173.5964268550
11
105.1770838139
21
173.6166993582
12
105.1623473837
22
173.5572412925
13
105.1623473837
23
173.5572412925
0
SOLID
5
60E
100
AcDbEntity
8
035
100
AcDbTrace
62
4
6
CONTINUOUS
10
105.1623473837
20
173.5572412925
11
105.9691227016
21
173.5362838857
12
105.9574931184
22
173.5964268550
13
105.9574931184
23
173.5964268550
0
SOLID
5
60F
100
AcDbEntity
8
035
100
AcDbTrace
62
4
6
CONTINUOUS
10
105.9691227016
20
173.5362838857
11
105.1623473837
21
173.5572412925
12
105.1566875988
22
173.4962462862
13
105.1566875988
23
173.4962462862
0
SOLID
5
610
100
AcDbEntity
8
035
100
AcDbTrace
62
4
6
CONTINUOUS
10
105.1566875988
20
173.4962462862
11
105.9718524432
21
173.4891892505
12
105.9691227016
22
173.5362838857
13
105.9691227016
23
173.5362838857
0
SOLID
5
611
100
AcDbEntity
8
035
100
AcDbTrace
62
4
6
CONTINUOUS
10
105.9718524432
20
173.4891892505
11
105.1566875988
21
173.4962462862
12
105.1602322845
22
173.4350918983
13
105.1602322845
23
173.4350918983
0
SOLID
5
612
100
AcDbEntity
8
035
100
AcDbTrace
62
4
6
CONTINUOUS
10
105.1602322845
20
173.4350918983
11
105.9672495180
21
173.4281053980
12
105.9718524432
22
173.4891892505
13
105.9718524432
23
173.4891892505
0
SOLID
5
613
100
AcDbEntity
8
035
100
AcDbTrace
62
4
6
CONTINUOUS
10
105.9672495180
20
173.4281053980
11
105.1602322845
21
173.4350918983
12
105.1729013846
22
173.3751592874
13
105.1729013846
23
173.3751592874
0
SOLID
5
614
100
AcDbEntity
8
035
100
AcDbTrace
62
4
6
CONTINUOUS
10
105.1729013846
20
173.3751592874
11
105.9535446987
21
173.3684011110
12
105.9672495180
22
173.4281053980
13
105.9672495180
23
173.4281053980
0
SOLID
5
615
100
AcDbEntity
8
035
100
AcDbTrace
62
4
6
CONTINUOUS
10
105.9535446987
20
173.3684011110
11
105.1729013846
21
173.3751592874
12
105.1944087704
22
173.3178020183
13
105.1944087704
23
173.3178020183
0
SOLID
5
616
100
AcDbEntity
8
035
100
AcDbTrace
62
4
6
CONTINUOUS
10
105.1944087704
20
173.3178020183
11
105.9310475056
21
173.3114247979
12
105.9535446987
22
173.3684011110
13
105.9535446987
23
173.3684011110
0
SOLID
5
617
100
AcDbEntity
8
035
100
AcDbTrace
62
4
6
CONTINUOUS
10
105.9310475056
20
173.3114247979
11
105.1944087704
21
173.3178020183
12
105.2242687021
22
173.2643154926
13
105.2242687021
23
173.2643154926
0
SOLID
5
618
100
AcDbEntity
8
035
100
AcDbTrace
62
4
6
CONTINUOUS
10
105.2242687021
20
173.2643154926
11
105.9002660328
21
173.2584632562
12
105.9310475056
22
173.3114247979
13
105.9310475056
23
173.3114247979
0
SOLID
5
619
100
AcDbEntity
8
035
100
AcDbTrace
62
4
6
CONTINUOUS
10
105.9002660328
20
173.2584632562
11
105.2242687021
21
173.2643154926
12
105.2618067998
22
173.2159076918
13
105.2618067998
23
173.2159076918
0
SOLID
5
61A
100
AcDbEntity
8
035
100
AcDbTrace
62
4
6
CONTINUOUS
10
105.2618067998
20
173.2159076918
11
105.8618954733
21
173.2107126110
12
105.9002660328
22
173.2584632562
13
105.9002660328
23
173.2584632562
0
SOLID
5
61B
100
AcDbEntity
8
035
100
AcDbTrace
62
4
6
CONTINUOUS
10
105.8618954733
20
173.2107126110
11
105.2618067998
21
173.2159076918
12
105.3061752737
22
173.1736718956
13
105.3061752737
23
173.1736718956
0
SOLID
5
61C
100
AcDbEntity
8
035
100
AcDbTrace
62
4
6
CONTINUOUS
10
105.3061752737
20
173.1736718956
11
105.8168024178
21
173.1692513001
12
105.8618954733
22
173.2107126110
13
105.8618954733
23
173.2107126110
0
SOLID
5
61D
100
AcDbEntity
8
035
100
AcDbTrace
62
4
6
CONTINUOUS
10
105.8168024178
20
173.1692513001
11
105.3061752737
21
173.1736718956
12
105.3563720714
22
173.1385619902
13
105.3563720714
23
173.1385619902
0
SOLID
5
61E
100
AcDbEntity
8
035
100
AcDbTrace
62
4
6
CONTINUOUS
10
105.3563720714
20
173.1385619902
11
105.7660052831
21
173.1350157183
12
105.8168024178
22
173.1692513001
13
105.8168024178
23
173.1692513001
0
SOLID
5
61F
100
AcDbEntity
8
035
100
AcDbTrace
62
4
6
CONTINUOUS
10
105.7660052831
20
173.1350157183
11
105.3563720714
21
173.1385619902
12
105.4112635092
22
173.1113709252
13
105.4112635092
23
173.1113709252
0
SOLID
5
620
100
AcDbEntity
8
035
100
AcDbTrace
62
4
6
CONTINUOUS
10
105.4112635092
20
173.1113709252
11
105.7106513116
21
173.1087790686
12
105.7660052831
22
173.1350157183
13
105.7660052831
23
173.1350157183
0
SOLID
5
621
100
AcDbEntity
8
035
100
AcDbTrace
62
4
6
CONTINUOUS
10
105.7106513116
20
173.1087790686
11
105.4112635092
21
173.1113709252
12
105.4696098758
22
173.0927128050
13
105.4696098758
23
173.0927128050
0
SOLID
5
622
100
AcDbEntity
8
035
100
AcDbTrace
62
4
6
CONTINUOUS
10
105.4696098758
20
173.0927128050
11
105.6519906605
21
173.0911339001
12
105.7106513116
22
173.1087790686
13
105.7106513116
23
173.1087790686
0
SOLID
5
623
100
AcDbEntity
8
035
100
AcDbTrace
62
4
6
CONTINUOUS
10
105.6519906605
20
173.0911339001
11
105.4696098758
21
173.0927128050
12
105.5300934314
22
173.0830090190
13
105.5300934314
23
173.0830090190
0
SOLID
5
624
100
AcDbEntity
8
035
100
AcDbTrace
62
4
6
CONTINUOUS
10
105.5300934314
20
173.0830090190
11
105.5913481679
21
173.0824787252
12
105.6519906605
22
173.0911339001
13
105.6519906605
23
173.0911339001
0
LINE
5
625
100
AcDbEntity
8
035
100
AcDbLine
62
4
6
CONTINUOUS
39
1755644792
10
104.3287369479
20
174.2024997183
11
105.5642443653
21
173.4891892505
0
CIRCLE
5
626
100
AcDbEntity
8
035
100
AcDbCircle
62
4
6
CONTINUOUS
10
106.7997420000
20
169.9225977808
40
0.4076080779
0
SOLID
5
627
100
AcDbEntity
8
035
100
AcDbTrace
62
4
6
CONTINUOUS
10
106.8409146612
20
170.3281210935
11
106.7796790216
21
170.3297117968
12
106.7188965000
22
170.3221079187
13
106.7188965000
23
170.3221079187
0
SOLID
5
628
100
AcDbEntity
8
035
100
AcDbTrace
62
4
6
CONTINUOUS
10
106.7188965000
20
170.3221079187
11
106.9012204253
21
170.3173717343
12
106.8409146612
22
170.3281210935
13
106.8409146612
23
170.3281210935
0
SOLID
5
629
100
AcDbEntity
8
035
100
AcDbTrace
62
4
6
CONTINUOUS
10
106.9012204253
20
170.3173717343
11
106.7188965000
21
170.3221079187
12
106.6599398564
22
170.3054811910
13
106.6599398564
23
170.3054811910
0
SOLID
5
62A
100
AcDbEntity
8
035
100
AcDbTrace
62
4
6
CONTINUOUS
10
106.6599398564
20
170.3054811910
11
106.9592343211
21
170.2977064912
12
106.9012204253
22
170.3173717343
13
106.9012204253
23
170.3173717343
0
SOLID
5
62B
100
AcDbEntity
8
035
100
AcDbTrace
62
4
6
CONTINUOUS
10
106.9592343211
20
170.2977064912
11
106.6599398564
21
170.3054811910
12
106.6041406138
22
170.2802071247
13
106.6041406138
23
170.2802071247
0
SOLID
5
62C
100
AcDbEntity
8
035
100
AcDbTrace
62
4
6
CONTINUOUS
10
106.6041406138
20
170.2802071247
11
107.0136461176
21
170.2695694996
12
106.9592343211
22
170.2977064912
13
106.9592343211
23
170.2977064912
0
SOLID
5
62D
100
AcDbEntity
8
035
100
AcDbTrace
62
4
6
CONTINUOUS
10
107.0136461176
20
170.2695694996
11
106.6041406138
21
170.2802071247
12
106.5527589859
22
170.2468565292
13
106.5527589859
23
170.2468565292
0
SOLID
5
62E
100
AcDbEntity
8
035
100
AcDbTrace
62
4
6
CONTINUOUS
10
106.5527589859
20
170.2468565292
11
107.0632269362
21
170.2335962271
12
107.0136461176
22
170.2695694996
13
107.0136461176
23
170.2695694996
0
SOLID
5
62F
100
AcDbEntity
8
035
100
AcDbTrace
62
4
6
CONTINUOUS
10
107.0632269362
20
170.2335962271
11
106.5527589859
21
170.2468565292
12
106.5069554158
22
170.2061826204
13
106.5069554158
23
170.2061826204
0
SOLID
5
630
100
AcDbEntity
8
035
100
AcDbTrace
62
4
6
CONTINUOUS
10
106.5069554158
20
170.2061826204
11
107.1068570047
21
170.1905991223
12
107.0632269362
22
170.2335962271
13
107.0632269362
23
170.2335962271
0
SOLID
5
631
100
AcDbEntity
8
035
100
AcDbTrace
62
4
6
CONTINUOUS
10
107.1068570047
20
170.1905991223
11
106.5069554158
21
170.2061826204
12
106.4677643669
22
170.1591040097
13
106.4677643669
23
170.1591040097
0
SOLID
5
632
100
AcDbEntity
8
035
100
AcDbTrace
62
4
6
CONTINUOUS
10
106.4677643669
20
170.1591040097
11
107.1435509477
21
170.1415492655
12
107.1068570047
22
170.1905991223
13
107.1068570047
23
170.1905991223
0
SOLID
5
633
100
AcDbEntity
8
035
100
AcDbTrace
62
4
6
CONTINUOUS
10
107.1435509477
20
170.1415492655
11
106.4677643669
21
170.1591040097
12
106.4360709607
22
170.1066839572
13
106.4360709607
23
170.1066839572
0
SOLID
5
634
100
AcDbEntity
8
035
100
AcDbTrace
62
4
6
CONTINUOUS
10
106.4360709607
20
170.1066839572
11
107.1724800403
21
170.0875544371
12
107.1435509477
22
170.1415492655
13
107.1435509477
23
170.1415492655
0
SOLID
5
635
100
AcDbEntity
8
035
100
AcDbTrace
62
4
6
CONTINUOUS
10
107.1724800403
20
170.0875544371
11
106.4360709607
21
170.1066839572
12
106.4125909858
22
170.0501063585
13
106.4125909858
23
170.0501063585
0
SOLID
5
636
100
AcDbEntity
8
035
100
AcDbTrace
62
4
6
CONTINUOUS
10
106.4125909858
20
170.0501063585
11
107.1890425531
21
170.0433844708
12
107.1724800403
22
170.0875544371
13
107.1724800403
23
170.0875544371
0
SOLID
5
637
100
AcDbEntity
8
035
100
AcDbTrace
62
4
6
CONTINUOUS
10
107.1890425531
20
170.0433844708
11
106.4125909858
21
170.0501063585
12
106.3978547324
22
169.9906490062
13
106.3978547324
23
169.9906490062
0
SOLID
5
638
100
AcDbEntity
8
035
100
AcDbTrace
62
4
6
CONTINUOUS
10
106.3978547324
20
169.9906490062
11
107.2027472080
21
169.9836809003
12
107.1890425531
22
170.0433844708
13
107.1890425531
23
170.0433844708
0
SOLID
5
639
100
AcDbEntity
8
035
100
AcDbTrace
62
4
6
CONTINUOUS
10
107.2027472080
20
169.9836809003
11
106.3978547324
21
169.9906490062
12
106.3921950155
22
169.9296547319
13
106.3921950155
23
169.9296547319
0
SOLID
5
63A
100
AcDbEntity
8
035
100
AcDbTrace
62
4
6
CONTINUOUS
10
106.3921950155
20
169.9296547319
11
107.2073500779
21
169.9225977808
12
107.2027472080
22
169.9836809003
13
107.2027472080
23
169.9836809003
0
SOLID
5
63B
100
AcDbEntity
8
035
100
AcDbTrace
62
4
6
CONTINUOUS
10
107.2073500779
20
169.9225977808
11
106.3921950155
21
169.9296547319
12
106.3957396586
22
169.8685010778
13
106.3957396586
23
169.8685010778
0
SOLID
5
63C
100
AcDbEntity
8
035
100
AcDbTrace
62
4
6
CONTINUOUS
10
106.3957396586
20
169.8685010778
11
107.2027472080
21
169.8615146613
12
107.2073500779
22
169.9225977808
13
107.2073500779
23
169.9225977808
0
SOLID
5
63D
100
AcDbEntity
8
035
100
AcDbTrace
62
4
6
CONTINUOUS
10
107.2027472080
20
169.8615146613
11
106.3957396586
21
169.8685010778
12
106.4084086067
22
169.8085691860
13
106.4084086067
23
169.8085691860
0
SOLID
5
63E
100
AcDbEntity
8
035
100
AcDbTrace
62
4
6
CONTINUOUS
10
106.4084086067
20
169.8085691860
11
107.1890425531
21
169.8018110908
12
107.2027472080
22
169.8615146613
13
107.2027472080
23
169.8615146613
0
SOLID
5
63F
100
AcDbEntity
8
035
100
AcDbTrace
62
4
6
CONTINUOUS
10
107.1890425531
20
169.8018110908
11
106.4084086067
21
169.8085691860
12
106.4299157343
22
169.7512126053
13
106.4299157343
23
169.7512126053
0
SOLID
5
640
100
AcDbEntity
8
035
100
AcDbTrace
62
4
6
CONTINUOUS
10
106.4299157343
20
169.7512126053
11
107.1665456300
21
169.7448354613
12
107.1890425531
22
169.8018110908
13
107.1890425531
23
169.8018110908
0
SOLID
5
641
100
AcDbEntity
8
035
100
AcDbTrace
62
4
6
CONTINUOUS
10
107.1665456300
20
169.7448354613
11
106.4299157343
21
169.7512126053
12
106.4597753078
22
169.6977267214
13
106.4597753078
23
169.6977267214
0
SOLID
5
642
100
AcDbEntity
8
035
100
AcDbTrace
62
4
6
CONTINUOUS
10
106.4597753078
20
169.6977267214
11
107.1357645266
21
169.6918745553
12
107.1665456300
22
169.7448354613
13
107.1665456300
23
169.7448354613
0
SOLID
5
643
100
AcDbEntity
8
035
100
AcDbTrace
62
4
6
CONTINUOUS
10
107.1357645266
20
169.6918745553
11
106.4597753078
21
169.6977267214
12
106.4973129550
22
169.6493195015
13
106.4973129550
23
169.6493195015
0
SOLID
5
644
100
AcDbEntity
8
035
100
AcDbTrace
62
4
6
CONTINUOUS
10
106.4973129550
20
169.6493195015
11
107.0973944275
21
169.6441244830
12
107.1357645266
22
169.6918745553
13
107.1357645266
23
169.6918745553
0
SOLID
5
645
100
AcDbEntity
8
035
100
AcDbTrace
62
4
6
CONTINUOUS
10
107.0973944275
20
169.6441244830
11
106.4973129550
21
169.6493195015
12
106.5416808965
22
169.6070842121
13
106.5416808965
23
169.6070842121
0
SOLID
5
646
100
AcDbEntity
8
035
100
AcDbTrace
62
4
6
CONTINUOUS
10
106.5416808965
20
169.6070842121
11
107.0523019131
21
169.6026636697
12
107.0973944275
22
169.6441244830
13
107.0973944275
23
169.6441244830
0
SOLID
5
647
100
AcDbEntity
8
035
100
AcDbTrace
62
4
6
CONTINUOUS
10
107.0523019131
20
169.6026636697
11
106.5416808965
21
169.6070842121
12
106.5918770918
22
169.5719747280
13
106.5918770918
23
169.5719747280
0
SOLID
5
648
100
AcDbEntity
8
035
100
AcDbTrace
62
4
6
CONTINUOUS
10
106.5918770918
20
169.5719747280
11
107.0015053880
21
169.5684284986
12
107.0523019131
22
169.6026636697
13
107.0523019131
23
169.6026636697
0
SOLID
5
649
100
AcDbEntity
8
035
100
AcDbTrace
62
4
6
CONTINUOUS
10
107.0015053880
20
169.5684284986
11
106.5918770918
21
169.5719747280
12
106.6467678709
22
169.5447839894
13
106.6467678709
23
169.5447839894
0
SOLID
5
64A
100
AcDbEntity
8
035
100
AcDbTrace
62
4
6
CONTINUOUS
10
106.6467678709
20
169.5447839894
11
106.9461520807
21
169.5421921638
12
107.0015053880
22
169.5684284986
13
107.0015053880
23
169.5684284986
0
SOLID
5
64B
100
AcDbEntity
8
035
100
AcDbTrace
62
4
6
CONTINUOUS
10
106.9461520807
20
169.5421921638
11
106.6467678709
21
169.5447839894
12
106.7051135374
22
169.5261260930
13
106.7051135374
23
169.5261260930
0
SOLID
5
64C
100
AcDbEntity
8
035
100
AcDbTrace
62
4
6
CONTINUOUS
10
106.7051135374
20
169.5261260930
11
106.8874921335
21
169.5245472071
12
106.9461520807
22
169.5421921638
13
106.9461520807
23
169.5421921638
0
SOLID
5
64D
100
AcDbEntity
8
035
100
AcDbTrace
62
4
6
CONTINUOUS
10
106.8874921335
20
169.5245472071
11
106.7051135374
21
169.5261260930
12
106.7655963672
22
169.5164224234
13
106.7655963672
23
169.5164224234
0
SOLID
5
64E
100
AcDbEntity
8
035
100
AcDbTrace
62
4
6
CONTINUOUS
10
106.7655963672
20
169.5164224234
11
106.8268503687
21
169.5158921360
12
106.8874921335
22
169.5245472071
13
106.8874921335
23
169.5245472071
0
CIRCLE
5
64F
100
AcDbEntity
8
035
100
AcDbCircle
62
4
6
CONTINUOUS
10
104.4624802150
20
171.1393029775
40
0.4076129692
0
SOLID
5
650
100
AcDbEntity
8
035
100
AcDbTrace
62
4
6
CONTINUOUS
10
104.5036533703
20
171.5448311565
11
104.4424169958
21
171.5464218790
12
104.3816337448
22
171.5388179096
13
104.3816337448
23
171.5388179096
0
SOLID
5
651
100
AcDbEntity
8
035
100
AcDbTrace
62
4
6
CONTINUOUS
10
104.3816337448
20
171.5388179096
11
104.5639598580
21
171.5340816683
12
104.5036533703
22
171.5448311565
13
104.5036533703
23
171.5448311565
0
SOLID
5
652
100
AcDbEntity
8
035
100
AcDbTrace
62
4
6
CONTINUOUS
10
104.5639598580
20
171.5340816683
11
104.3816337448
21
171.5388179096
12
104.3226763937
22
171.5221909823
13
104.3226763937
23
171.5221909823
0
SOLID
5
653
100
AcDbEntity
8
035
100
AcDbTrace
62
4
6
CONTINUOUS
10
104.3226763937
20
171.5221909823
11
104.6219744500
21
171.5144161893
12
104.5639598580
22
171.5340816683
13
104.5639598580
23
171.5340816683
0
SOLID
5
654
100
AcDbEntity
8
035
100
AcDbTrace
62
4
6
CONTINUOUS
10
104.6219744500
20
171.5144161893
11
104.3226763937
21
171.5221909823
12
104.2668764815
22
171.4969166128
13
104.2668764815
23
171.4969166128
0
SOLID
5
655
100
AcDbEntity
8
035
100
AcDbTrace
62
4
6
CONTINUOUS
10
104.2668764815
20
171.4969166128
11
104.6763868995
21
171.4862788600
12
104.6219744500
22
171.5144161893
13
104.6219744500
23
171.5144161893
0
SOLID
5
656
100
AcDbEntity
8
035
100
AcDbTrace
62
4
6
CONTINUOUS
10
104.6763868995
20
171.4862788600
11
104.2668764815
21
171.4969166128
12
104.2154942371
22
171.4635656171
13
104.2154942371
23
171.4635656171
0
SOLID
5
657
100
AcDbEntity
8
035
100
AcDbTrace
62
4
6
CONTINUOUS
10
104.2154942371
20
171.4635656171
11
104.7259683130
21
171.4503051558
12
104.6763868995
22
171.4862788600
13
104.6763868995
23
171.4862788600
0
SOLID
5
658
100
AcDbEntity
8
035
100
AcDbTrace
62
4
6
CONTINUOUS
10
104.7259683130
20
171.4503051558
11
104.2154942371
21
171.4635656171
12
104.1696901173
22
171.4228912202
13
104.1696901173
23
171.4228912202
0
SOLID
5
659
100
AcDbEntity
8
035
100
AcDbTrace
62
4
6
CONTINUOUS
10
104.1696901173
20
171.4228912202
11
104.7695989051
21
171.4073075351
12
104.7259683130
22
171.4503051558
13
104.7259683130
23
171.4503051558
0
SOLID
5
65A
100
AcDbEntity
8
035
100
AcDbTrace
62
4
6
CONTINUOUS
10
104.7695989051
20
171.4073075351
11
104.1696901173
21
171.4228912202
12
104.1304985981
22
171.3758120445
13
104.1304985981
23
171.3758120445
0
SOLID
5
65B
100
AcDbEntity
8
035
100
AcDbTrace
62
4
6
CONTINUOUS
10
104.1304985981
20
171.3758120445
11
104.8062932883
21
171.3582570897
12
104.7695989051
22
171.4073075351
13
104.7695989051
23
171.4073075351
0
SOLID
5
65C
100
AcDbEntity
8
035
100
AcDbTrace
62
4
6
CONTINUOUS
10
104.8062932883
20
171.3582570897
11
104.1304985981
21
171.3758120445
12
104.0988048116
22
171.3233913630
13
104.0988048116
23
171.3233913630
0
SOLID
5
65D
100
AcDbEntity
8
035
100
AcDbTrace
62
4
6
CONTINUOUS
10
104.0988048116
20
171.3233913630
11
104.8352227282
21
171.3042616133
12
104.8062932883
22
171.3582570897
13
104.8062932883
23
171.3582570897
0
SOLID
5
65E
100
AcDbEntity
8
035
100
AcDbTrace
62
4
6
CONTINUOUS
10
104.8352227282
20
171.3042616133
11
104.0988048116
21
171.3233913630
12
104.0753245549
22
171.2668130853
13
104.0753245549
23
171.2668130853
0
SOLID
5
65F
100
AcDbEntity
8
035
100
AcDbTrace
62
4
6
CONTINUOUS
10
104.0753245549
20
171.2668130853
11
104.8557338594
21
171.2465405820
12
104.8352227282
22
171.3042616133
13
104.8352227282
23
171.3042616133
0
SOLID
5
660
100
AcDbEntity
8
035
100
AcDbTrace
62
4
6
CONTINUOUS
10
104.8557338594
20
171.2465405820
11
104.0753245549
21
171.2668130853
12
104.0605881247
22
171.2073550196
13
104.0605881247
23
171.2073550196
0
SOLID
5
661
100
AcDbEntity
8
035
100
AcDbTrace
62
4
6
CONTINUOUS
10
104.0605881247
20
171.2073550196
11
104.8673634426
21
171.1863976128
12
104.8557338594
22
171.2465405820
13
104.8557338594
23
171.2465405820
0
SOLID
5
662
100
AcDbEntity
8
035
100
AcDbTrace
62
4
6
CONTINUOUS
10
104.8673634426
20
171.1863976128
11
104.0605881247
21
171.2073550196
12
104.0549283398
22
171.1463600133
13
104.0549283398
23
171.1463600133
0
SOLID
5
663
100
AcDbEntity
8
035
100
AcDbTrace
62
4
6
CONTINUOUS
10
104.0549283398
20
171.1463600133
11
104.8700931842
21
171.1393029775
12
104.8673634426
22
171.1863976128
13
104.8673634426
23
171.1863976128
0
SOLID
5
664
100
AcDbEntity
8
035
100
AcDbTrace
62
4
6
CONTINUOUS
10
104.8700931842
20
171.1393029775
11
104.0549283398
21
171.1463600133
12
104.0584730255
22
171.0852056254
13
104.0584730255
23
171.0852056254
0
SOLID
5
665
100
AcDbEntity
8
035
100
AcDbTrace
62
4
6
CONTINUOUS
10
104.0584730255
20
171.0852056254
11
104.8654902590
21
171.0782191250
12
104.8700931842
22
171.1393029775
13
104.8700931842
23
171.1393029775
0
SOLID
5
666
100
AcDbEntity
8
035
100
AcDbTrace
62
4
6
CONTINUOUS
10
104.8654902590
20
171.0782191250
11
104.0584730255
21
171.0852056254
12
104.0711421256
22
171.0252730144
13
104.0711421256
23
171.0252730144
0
SOLID
5
667
100
AcDbEntity
8
035
100
AcDbTrace
62
4
6
CONTINUOUS
10
104.0711421256
20
171.0252730144
11
104.8517854397
21
171.0185148381
12
104.8654902590
22
171.0782191250
13
104.8654902590
23
171.0782191250
0
SOLID
5
668
100
AcDbEntity
8
035
100
AcDbTrace
62
4
6
CONTINUOUS
10
104.8517854397
20
171.0185148381
11
104.0711421256
21
171.0252730144
12
104.0926495114
22
170.9679157454
13
104.0926495114
23
170.9679157454
0
SOLID
5
669
100
AcDbEntity
8
035
100
AcDbTrace
62
4
6
CONTINUOUS
10
104.0926495114
20
170.9679157454
11
104.8292882466
21
170.9615385249
12
104.8517854397
22
171.0185148381
13
104.8517854397
23
171.0185148381
0
SOLID
5
66A
100
AcDbEntity
8
035
100
AcDbTrace
62
4
6
CONTINUOUS
10
104.8292882466
20
170.9615385249
11
104.0926495114
21
170.9679157454
12
104.1225094431
22
170.9144292197
13
104.1225094431
23
170.9144292197
0
SOLID
5
66B
100
AcDbEntity
8
035
100
AcDbTrace
62
4
6
CONTINUOUS
10
104.1225094431
20
170.9144292197
11
104.7985067738
21
170.9085769833
12
104.8292882466
22
170.9615385249
13
104.8292882466
23
170.9615385249
0
SOLID
5
66C
100
AcDbEntity
8
035
100
AcDbTrace
62
4
6
CONTINUOUS
10
104.7985067738
20
170.9085769833
11
104.1225094431
21
170.9144292197
12
104.1600475408
22
170.8660214189
13
104.1600475408
23
170.8660214189
0
SOLID
5
66D
100
AcDbEntity
8
035
100
AcDbTrace
62
4
6
CONTINUOUS
10
104.1600475408
20
170.8660214189
11
104.7601362143
21
170.8608263381
12
104.7985067738
22
170.9085769833
13
104.7985067738
23
170.9085769833
0
SOLID
5
66E
100
AcDbEntity
8
035
100
AcDbTrace
62
4
6
CONTINUOUS
10
104.7601362143
20
170.8608263381
11
104.1600475408
21
170.8660214189
12
104.2044160147
22
170.8237856227
13
104.2044160147
23
170.8237856227
0
SOLID
5
66F
100
AcDbEntity
8
035
100
AcDbTrace
62
4
6
CONTINUOUS
10
104.2044160147
20
170.8237856227
11
104.7150431588
21
170.8193650272
12
104.7601362143
22
170.8608263381
13
104.7601362143
23
170.8608263381
0
SOLID
5
670
100
AcDbEntity
8
035
100
AcDbTrace
62
4
6
CONTINUOUS
10
104.7150431588
20
170.8193650272
11
104.2044160147
21
170.8237856227
12
104.2546128124
22
170.7886757173
13
104.2546128124
23
170.7886757173
0
SOLID
5
671
100
AcDbEntity
8
035
100
AcDbTrace
62
4
6
CONTINUOUS
10
104.2546128124
20
170.7886757173
11
104.6642460241
21
170.7851294453
12
104.7150431588
22
170.8193650272
13
104.7150431588
23
170.8193650272
0
SOLID
5
672
100
AcDbEntity
8
035
100
AcDbTrace
62
4
6
CONTINUOUS
10
104.6642460241
20
170.7851294453
11
104.2546128124
21
170.7886757173
12
104.3095042502
22
170.7614846523
13
104.3095042502
23
170.7614846523
0
SOLID
5
673
100
AcDbEntity
8
035
100
AcDbTrace
62
4
6
CONTINUOUS
10
104.3095042502
20
170.7614846523
11
104.6088920526
21
170.7588927957
12
104.6642460241
22
170.7851294453
13
104.6642460241
23
170.7851294453
0
SOLID
5
674
100
AcDbEntity
8
035
100
AcDbTrace
62
4
6
CONTINUOUS
10
104.6088920526
20
170.7588927957
11
104.3095042502
21
170.7614846523
12
104.3678506169
22
170.7428265320
13
104.3678506169
23
170.7428265320
0
SOLID
5
675
100
AcDbEntity
8
035
100
AcDbTrace
62
4
6
CONTINUOUS
10
104.3678506169
20
170.7428265320
11
104.5502314015
21
170.7412476272
12
104.6088920526
22
170.7588927957
13
104.6088920526
23
170.7588927957
0
SOLID
5
676
100
AcDbEntity
8
035
100
AcDbTrace
62
4
6
CONTINUOUS
10
104.5502314015
20
170.7412476272
11
104.3678506169
21
170.7428265320
12
104.4283341724
22
170.7331227460
13
104.4283341724
23
170.7331227460
0
SOLID
5
677
100
AcDbEntity
8
035
100
AcDbTrace
62
4
6
CONTINUOUS
10
104.4283341724
20
170.7331227460
11
104.4895889089
21
170.7325924522
12
104.5502314015
22
170.7412476272
13
104.5502314015
23
170.7412476272
0
CIRCLE
5
678
100
AcDbEntity
8
035
100
AcDbCircle
62
4
6
CONTINUOUS
10
105.1631759775
20
175.1131258937
40
0.4076080779
0
SOLID
5
679
100
AcDbEntity
8
035
100
AcDbTrace
62
4
6
CONTINUOUS
10
105.2043486388
20
175.5186492064
11
105.1431129991
21
175.5202399098
12
105.0823304775
22
175.5126360316
13
105.0823304775
23
175.5126360316
0
SOLID
5
67A
100
AcDbEntity
8
035
100
AcDbTrace
62
4
6
CONTINUOUS
10
105.0823304775
20
175.5126360316
11
105.2646544028
21
175.5078998472
12
105.2043486388
22
175.5186492064
13
105.2043486388
23
175.5186492064
0
SOLID
5
67B
100
AcDbEntity
8
035
100
AcDbTrace
62
4
6
CONTINUOUS
10
105.2646544028
20
175.5078998472
11
105.0823304775
21
175.5126360316
12
105.0233738339
22
175.4960093039
13
105.0233738339
23
175.4960093039
0
SOLID
5
67C
100
AcDbEntity
8
035
100
AcDbTrace
62
4
6
CONTINUOUS
10
105.0233738339
20
175.4960093039
11
105.3226682987
21
175.4882346042
12
105.2646544028
22
175.5078998472
13
105.2646544028
23
175.5078998472
0
SOLID
5
67D
100
AcDbEntity
8
035
100
AcDbTrace
62
4
6
CONTINUOUS
10
105.3226682987
20
175.4882346042
11
105.0233738339
21
175.4960093039
12
104.9675745913
22
175.4707352377
13
104.9675745913
23
175.4707352377
0
SOLID
5
67E
100
AcDbEntity
8
035
100
AcDbTrace
62
4
6
CONTINUOUS
10
104.9675745913
20
175.4707352377
11
105.3770800952
21
175.4600976125
12
105.3226682987
22
175.4882346042
13
105.3226682987
23
175.4882346042
0
SOLID
5
67F
100
AcDbEntity
8
035
100
AcDbTrace
62
4
6
CONTINUOUS
10
105.3770800952
20
175.4600976125
11
104.9675745913
21
175.4707352377
12
104.9161929635
22
175.4373846422
13
104.9161929635
23
175.4373846422
0
SOLID
5
680
100
AcDbEntity
8
035
100
AcDbTrace
62
4
6
CONTINUOUS
10
104.9161929635
20
175.4373846422
11
105.4266609137
21
175.4241243400
12
105.3770800952
22
175.4600976125
13
105.3770800952
23
175.4600976125
0
SOLID
5
681
100
AcDbEntity
8
035
100
AcDbTrace
62
4
6
CONTINUOUS
10
105.4266609137
20
175.4241243400
11
104.9161929635
21
175.4373846422
12
104.8703893933
22
175.3967107333
13
104.8703893933
23
175.3967107333
0
SOLID
5
682
100
AcDbEntity
8
035
100
AcDbTrace
62
4
6
CONTINUOUS
10
104.8703893933
20
175.3967107333
11
105.4702909822
21
175.3811272352
12
105.4266609137
22
175.4241243400
13
105.4266609137
23
175.4241243400
0
SOLID
5
683
100
AcDbEntity
8
035
100
AcDbTrace
62
4
6
CONTINUOUS
10
105.4702909822
20
175.3811272352
11
104.8703893933
21
175.3967107333
12
104.8311983444
22
175.3496321226
13
104.8311983444
23
175.3496321226
0
SOLID
5
684
100
AcDbEntity
8
035
100
AcDbTrace
62
4
6
CONTINUOUS
10
104.8311983444
20
175.3496321226
11
105.5069849252
21
175.3320773785
12
105.4702909822
22
175.3811272352
13
105.4702909822
23
175.3811272352
0
SOLID
5
685
100
AcDbEntity
8
035
100
AcDbTrace
62
4
6
CONTINUOUS
10
105.5069849252
20
175.3320773785
11
104.8311983444
21
175.3496321226
12
104.7995049382
22
175.2972120701
13
104.7995049382
23
175.2972120701
0
SOLID
5
686
100
AcDbEntity
8
035
100
AcDbTrace
62
4
6
CONTINUOUS
10
104.7995049382
20
175.2972120701
11
105.5359140179
21
175.2780825500
12
105.5069849252
22
175.3320773785
13
105.5069849252
23
175.3320773785
0
SOLID
5
687
100
AcDbEntity
8
035
100
AcDbTrace
62
4
6
CONTINUOUS
10
105.5359140179
20
175.2780825500
11
104.7995049382
21
175.2972120701
12
104.7760249633
22
175.2406344714
13
104.7760249633
23
175.2406344714
0
SOLID
5
688
100
AcDbEntity
8
035
100
AcDbTrace
62
4
6
CONTINUOUS
10
104.7760249633
20
175.2406344714
11
105.5564249029
21
175.2203622114
12
105.5359140179
22
175.2780825500
13
105.5359140179
23
175.2780825500
0
SOLID
5
689
100
AcDbEntity
8
035
100
AcDbTrace
62
4
6
CONTINUOUS
10
105.5564249029
20
175.2203622114
11
104.7760249633
21
175.2406344714
12
104.7612887099
22
175.1811771192
13
104.7612887099
23
175.1811771192
0
SOLID
5
68A
100
AcDbEntity
8
035
100
AcDbTrace
62
4
6
CONTINUOUS
10
104.7612887099
20
175.1811771192
11
105.5680543466
21
175.1602199639
12
105.5564249029
22
175.2203622114
13
105.5564249029
23
175.2203622114
0
SOLID
5
68B
100
AcDbEntity
8
035
100
AcDbTrace
62
4
6
CONTINUOUS
10
105.5680543466
20
175.1602199639
11
104.7612887099
21
175.1811771192
12
104.7556289930
22
175.1201828448
13
104.7556289930
23
175.1201828448
0
SOLID
5
68C
100
AcDbEntity
8
035
100
AcDbTrace
62
4
6
CONTINUOUS
10
104.7556289930
20
175.1201828448
11
105.5707840554
21
175.1131258937
12
105.5680543466
22
175.1602199639
13
105.5680543466
23
175.1602199639
0
SOLID
5
68D
100
AcDbEntity
8
035
100
AcDbTrace
62
4
6
CONTINUOUS
10
105.5707840554
20
175.1131258937
11
104.7556289930
21
175.1201828448
12
104.7591736361
22
175.0590291908
13
104.7591736361
23
175.0590291908
0
SOLID
5
68E
100
AcDbEntity
8
035
100
AcDbTrace
62
4
6
CONTINUOUS
10
104.7591736361
20
175.0590291908
11
105.5661811855
21
175.0520427742
12
105.5707840554
22
175.1131258937
13
105.5707840554
23
175.1131258937
0
SOLID
5
68F
100
AcDbEntity
8
035
100
AcDbTrace
62
4
6
CONTINUOUS
10
105.5661811855
20
175.0520427742
11
104.7591736361
21
175.0590291908
12
104.7718425842
22
174.9990972990
13
104.7718425842
23
174.9990972990
0
SOLID
5
690
100
AcDbEntity
8
035
100
AcDbTrace
62
4
6
CONTINUOUS
10
104.7718425842
20
174.9990972990
11
105.5524765307
21
174.9923392037
12
105.5661811855
22
175.0520427742
13
105.5661811855
23
175.0520427742
0
SOLID
5
691
100
AcDbEntity
8
035
100
AcDbTrace
62
4
6
CONTINUOUS
10
105.5524765307
20
174.9923392037
11
104.7718425842
21
174.9990972990
12
104.7933497119
22
174.9417407182
13
104.7933497119
23
174.9417407182
0
SOLID
5
692
100
AcDbEntity
8
035
100
AcDbTrace
62
4
6
CONTINUOUS
10
104.7933497119
20
174.9417407182
11
105.5299796075
21
174.9353635743
12
105.5524765307
22
174.9923392037
13
105.5524765307
23
174.9923392037
0
SOLID
5
693
100
AcDbEntity
8
035
100
AcDbTrace
62
4
6
CONTINUOUS
10
105.5299796075
20
174.9353635743
11
104.7933497119
21
174.9417407182
12
104.8232092853
22
174.8882548343
13
104.8232092853
23
174.8882548343
0
SOLID
5
694
100
AcDbEntity
8
035
100
AcDbTrace
62
4
6
CONTINUOUS
10
104.8232092853
20
174.8882548343
11
105.4991985041
21
174.8824026682
12
105.5299796075
22
174.9353635743
13
105.5299796075
23
174.9353635743
0
SOLID
5
695
100
AcDbEntity
8
035
100
AcDbTrace
62
4
6
CONTINUOUS
10
105.4991985041
20
174.8824026682
11
104.8232092853
21
174.8882548343
12
104.8607469326
22
174.8398476144
13
104.8607469326
23
174.8398476144
0
SOLID
5
696
100
AcDbEntity
8
035
100
AcDbTrace
62
4
6
CONTINUOUS
10
104.8607469326
20
174.8398476144
11
105.4608284050
21
174.8346525960
12
105.4991985041
22
174.8824026682
13
105.4991985041
23
174.8824026682
0
SOLID
5
697
100
AcDbEntity
8
035
100
AcDbTrace
62
4
6
CONTINUOUS
10
105.4608284050
20
174.8346525960
11
104.8607469326
21
174.8398476144
12
104.9051148740
22
174.7976123250
13
104.9051148740
23
174.7976123250
0
SOLID
5
698
100
AcDbEntity
8
035
100
AcDbTrace
62
4
6
CONTINUOUS
10
104.9051148740
20
174.7976123250
11
105.4157358907
21
174.7931917826
12
105.4608284050
22
174.8346525960
13
105.4608284050
23
174.8346525960
0
SOLID
5
699
100
AcDbEntity
8
035
100
AcDbTrace
62
4
6
CONTINUOUS
10
105.4157358907
20
174.7931917826
11
104.9051148740
21
174.7976123250
12
104.9553110694
22
174.7625028410
13
104.9553110694
23
174.7625028410
0
SOLID
5
69A
100
AcDbEntity
8
035
100
AcDbTrace
62
4
6
CONTINUOUS
10
104.9553110694
20
174.7625028410
11
105.3649393655
21
174.7589566116
12
105.4157358907
22
174.7931917826
13
105.4157358907
23
174.7931917826
0
SOLID
5
69B
100
AcDbEntity
8
035
100
AcDbTrace
62
4
6
CONTINUOUS
10
105.3649393655
20
174.7589566116
11
104.9553110694
21
174.7625028410
12
105.0102018485
22
174.7353121023
13
105.0102018485
23
174.7353121023
0
SOLID
5
69C
100
AcDbEntity
8
035
100
AcDbTrace
62
4
6
CONTINUOUS
10
105.0102018485
20
174.7353121023
11
105.3095860582
21
174.7327202767
12
105.3649393655
22
174.7589566116
13
105.3649393655
23
174.7589566116
0
SOLID
5
69D
100
AcDbEntity
8
035
100
AcDbTrace
62
4
6
CONTINUOUS
10
105.3095860582
20
174.7327202767
11
105.0102018485
21
174.7353121023
12
105.0685475150
22
174.7166542059
13
105.0685475150
23
174.7166542059
0
SOLID
5
69E
100
AcDbEntity
8
035
100
AcDbTrace
62
4
6
CONTINUOUS
10
105.0685475150
20
174.7166542059
11
105.2509261110
21
174.7150753200
12
105.3095860582
22
174.7327202767
13
105.3095860582
23
174.7327202767
0
SOLID
5
69F
100
AcDbEntity
8
035
100
AcDbTrace
62
4
6
CONTINUOUS
10
105.2509261110
20
174.7150753200
11
105.0685475150
21
174.7166542059
12
105.1290303447
22
174.7069505364
13
105.1290303447
23
174.7069505364
0
SOLID
5
6A0
100
AcDbEntity
8
035
100
AcDbTrace
62
4
6
CONTINUOUS
10
105.1290303447
20
174.7069505364
11
105.1902843462
21
174.7064202489
12
105.2509261110
22
174.7150753200
13
105.2509261110
23
174.7150753200
0
CIRCLE
5
6A1
100
AcDbEntity
8
035
100
AcDbCircle
62
4
6
CONTINUOUS
10
108.2263776096
20
175.2468740521
40
0.4076129692
0
SOLID
5
6A2
100
AcDbEntity
8
035
100
AcDbTrace
62
4
6
CONTINUOUS
10
108.2675507649
20
175.6524022311
11
108.2063143904
21
175.6539929535
12
108.1455311394
22
175.6463889841
13
108.1455311394
23
175.6463889841
0
SOLID
5
6A3
100
AcDbEntity
8
035
100
AcDbTrace
62
4
6
CONTINUOUS
10
108.1455311394
20
175.6463889841
11
108.3278572526
21
175.6416527429
12
108.2675507649
22
175.6524022311
13
108.2675507649
23
175.6524022311
0
SOLID
5
6A4
100
AcDbEntity
8
035
100
AcDbTrace
62
4
6
CONTINUOUS
10
108.3278572526
20
175.6416527429
11
108.1455311394
21
175.6463889841
12
108.0865737883
22
175.6297620569
13
108.0865737883
23
175.6297620569
0
SOLID
5
6A5
100
AcDbEntity
8
035
100
AcDbTrace
62
4
6
CONTINUOUS
10
108.0865737883
20
175.6297620569
11
108.3858718447
21
175.6219872639
12
108.3278572526
22
175.6416527429
13
108.3278572526
23
175.6416527429
0
SOLID
5
6A6
100
AcDbEntity
8
035
100
AcDbTrace
62
4
6
CONTINUOUS
10
108.3858718447
20
175.6219872639
11
108.0865737883
21
175.6297620569
12
108.0307738761
22
175.6044876874
13
108.0307738761
23
175.6044876874
0
SOLID
5
6A7
100
AcDbEntity
8
035
100
AcDbTrace
62
4
6
CONTINUOUS
10
108.0307738761
20
175.6044876874
11
108.4402842941
21
175.5938499345
12
108.3858718447
22
175.6219872639
13
108.3858718447
23
175.6219872639
0
SOLID
5
6A8
100
AcDbEntity
8
035
100
AcDbTrace
62
4
6
CONTINUOUS
10
108.4402842941
20
175.5938499345
11
108.0307738761
21
175.6044876874
12
107.9793916317
22
175.5711366916
13
107.9793916317
23
175.5711366916
0
SOLID
5
6A9
100
AcDbEntity
8
035
100
AcDbTrace
62
4
6
CONTINUOUS
10
107.9793916317
20
175.5711366916
11
108.4898657076
21
175.5578762304
12
108.4402842941
22
175.5938499345
13
108.4402842941
23
175.5938499345
0
SOLID
5
6AA
100
AcDbEntity
8
035
100
AcDbTrace
62
4
6
CONTINUOUS
10
108.4898657076
20
175.5578762304
11
107.9793916317
21
175.5711366916
12
107.9335875119
22
175.5304622947
13
107.9335875119
23
175.5304622947
0
SOLID
5
6AB
100
AcDbEntity
8
035
100
AcDbTrace
62
4
6
CONTINUOUS
10
107.9335875119
20
175.5304622947
11
108.5334962997
21
175.5148786096
12
108.4898657076
22
175.5578762304
13
108.4898657076
23
175.5578762304
0
SOLID
5
6AC
100
AcDbEntity
8
035
100
AcDbTrace
62
4
6
CONTINUOUS
10
108.5334962997
20
175.5148786096
11
107.9335875119
21
175.5304622947
12
107.8943959928
22
175.4833831191
13
107.8943959928
23
175.4833831191
0
SOLID
5
6AD
100
AcDbEntity
8
035
100
AcDbTrace
62
4
6
CONTINUOUS
10
107.8943959928
20
175.4833831191
11
108.5701906830
21
175.4658281643
12
108.5334962997
22
175.5148786096
13
108.5334962997
23
175.5148786096
0
SOLID
5
6AE
100
AcDbEntity
8
035
100
AcDbTrace
62
4
6
CONTINUOUS
10
108.5701906830
20
175.4658281643
11
107.8943959928
21
175.4833831191
12
107.8627022062
22
175.4309624375
13
107.8627022062
23
175.4309624375
0
SOLID
5
6AF
100
AcDbEntity
8
035
100
AcDbTrace
62
4
6
CONTINUOUS
10
107.8627022062
20
175.4309624375
11
108.5991201228
21
175.4118326879
12
108.5701906830
22
175.4658281643
13
108.5701906830
23
175.4658281643
0
SOLID
5
6B0
100
AcDbEntity
8
035
100
AcDbTrace
62
4
6
CONTINUOUS
10
108.5991201228
20
175.4118326879
11
107.8627022062
21
175.4309624375
12
107.8392219496
22
175.3743841599
13
107.8392219496
23
175.3743841599
0
SOLID
5
6B1
100
AcDbEntity
8
035
100
AcDbTrace
62
4
6
CONTINUOUS
10
107.8392219496
20
175.3743841599
11
108.6196312540
21
175.3541116566
12
108.5991201228
22
175.4118326879
13
108.5991201228
23
175.4118326879
0
SOLID
5
6B2
100
AcDbEntity
8
035
100
AcDbTrace
62
4
6
CONTINUOUS
10
108.6196312540
20
175.3541116566
11
107.8392219496
21
175.3743841599
12
107.8244855193
22
175.3149260942
13
107.8244855193
23
175.3149260942
0
SOLID
5
6B3
100
AcDbEntity
8
035
100
AcDbTrace
62
4
6
CONTINUOUS
10
107.8244855193
20
175.3149260942
11
108.6312608372
21
175.2939686874
12
108.6196312540
22
175.3541116566
13
108.6196312540
23
175.3541116566
0
SOLID
5
6B4
100
AcDbEntity
8
035
100
AcDbTrace
62
4
6
CONTINUOUS
10
108.6312608372
20
175.2939686874
11
107.8244855193
21
175.3149260942
12
107.8188257345
22
175.2539310879
13
107.8188257345
23
175.2539310879
0
SOLID
5
6B5
100
AcDbEntity
8
035
100
AcDbTrace
62
4
6
CONTINUOUS
10
107.8188257345
20
175.2539310879
11
108.6339905788
21
175.2468740521
12
108.6312608372
22
175.2939686874
13
108.6312608372
23
175.2939686874
0
SOLID
5
6B6
100
AcDbEntity
8
035
100
AcDbTrace
62
4
6
CONTINUOUS
10
108.6339905788
20
175.2468740521
11
107.8188257345
21
175.2539310879
12
107.8223704201
22
175.1927767000
13
107.8223704201
23
175.1927767000
0
SOLID
5
6B7
100
AcDbEntity
8
035
100
AcDbTrace
62
4
6
CONTINUOUS
10
107.8223704201
20
175.1927767000
11
108.6293876537
21
175.1857901996
12
108.6339905788
22
175.2468740521
13
108.6339905788
23
175.2468740521
0
SOLID
5
6B8
100
AcDbEntity
8
035
100
AcDbTrace
62
4
6
CONTINUOUS
10
108.6293876537
20
175.1857901996
11
107.8223704201
21
175.1927767000
12
107.8350395202
22
175.1328440890
13
107.8350395202
23
175.1328440890
0
SOLID
5
6B9
100
AcDbEntity
8
035
100
AcDbTrace
62
4
6
CONTINUOUS
10
107.8350395202
20
175.1328440890
11
108.6156828344
21
175.1260859126
12
108.6293876537
22
175.1857901996
13
108.6293876537
23
175.1857901996
0
SOLID
5
6BA
100
AcDbEntity
8
035
100
AcDbTrace
62
4
6
CONTINUOUS
10
108.6156828344
20
175.1260859126
11
107.8350395202
21
175.1328440890
12
107.8565469060
22
175.0754868199
13
107.8565469060
23
175.0754868199
0
SOLID
5
6BB
100
AcDbEntity
8
035
100
AcDbTrace
62
4
6
CONTINUOUS
10
107.8565469060
20
175.0754868199
11
108.5931856412
21
175.0691095995
12
108.6156828344
22
175.1260859126
13
108.6156828344
23
175.1260859126
0
SOLID
5
6BC
100
AcDbEntity
8
035
100
AcDbTrace
62
4
6
CONTINUOUS
10
108.5931856412
20
175.0691095995
11
107.8565469060
21
175.0754868199
12
107.8864068378
22
175.0220002942
13
107.8864068378
23
175.0220002942
0
SOLID
5
6BD
100
AcDbEntity
8
035
100
AcDbTrace
62
4
6
CONTINUOUS
10
107.8864068378
20
175.0220002942
11
108.5624041685
21
175.0161480579
12
108.5931856412
22
175.0691095995
13
108.5931856412
23
175.0691095995
0
SOLID
5
6BE
100
AcDbEntity
8
035
100
AcDbTrace
62
4
6
CONTINUOUS
10
108.5624041685
20
175.0161480579
11
107.8864068378
21
175.0220002942
12
107.9239449355
22
174.9735924935
13
107.9239449355
23
174.9735924935
0
SOLID
5
6BF
100
AcDbEntity
8
035
100
AcDbTrace
62
4
6
CONTINUOUS
10
107.9239449355
20
174.9735924935
11
108.5240336090
21
174.9683974127
12
108.5624041685
22
175.0161480579
13
108.5624041685
23
175.0161480579
0
SOLID
5
6C0
100
AcDbEntity
8
035
100
AcDbTrace
62
4
6
CONTINUOUS
10
108.5240336090
20
174.9683974127
11
107.9239449355
21
174.9735924935
12
107.9683134094
22
174.9313566972
13
107.9683134094
23
174.9313566972
0
SOLID
5
6C1
100
AcDbEntity
8
035
100
AcDbTrace
62
4
6
CONTINUOUS
10
107.9683134094
20
174.9313566972
11
108.4789405535
21
174.9269361018
12
108.5240336090
22
174.9683974127
13
108.5240336090
23
174.9683974127
0
SOLID
5
6C2
100
AcDbEntity
8
035
100
AcDbTrace
62
4
6
CONTINUOUS
10
108.4789405535
20
174.9269361018
11
107.9683134094
21
174.9313566972
12
108.0185102071
22
174.8962467919
13
108.0185102071
23
174.8962467919
0
SOLID
5
6C3
100
AcDbEntity
8
035
100
AcDbTrace
62
4
6
CONTINUOUS
10
108.0185102071
20
174.8962467919
11
108.4281434188
21
174.8927005199
12
108.4789405535
22
174.9269361018
13
108.4789405535
23
174.9269361018
0
SOLID
5
6C4
100
AcDbEntity
8
035
100
AcDbTrace
62
4
6
CONTINUOUS
10
108.4281434188
20
174.8927005199
11
108.0185102071
21
174.8962467919
12
108.0734016448
22
174.8690557269
13
108.0734016448
23
174.8690557269
0
SOLID
5
6C5
100
AcDbEntity
8
035
100
AcDbTrace
62
4
6
CONTINUOUS
10
108.0734016448
20
174.8690557269
11
108.3727894472
21
174.8664638702
12
108.4281434188
22
174.8927005199
13
108.4281434188
23
174.8927005199
0
SOLID
5
6C6
100
AcDbEntity
8
035
100
AcDbTrace
62
4
6
CONTINUOUS
10
108.3727894472
20
174.8664638702
11
108.0734016448
21
174.8690557269
12
108.1317480115
22
174.8503976066
13
108.1317480115
23
174.8503976066
0
SOLID
5
6C7
100
AcDbEntity
8
035
100
AcDbTrace
62
4
6
CONTINUOUS
10
108.1317480115
20
174.8503976066
11
108.3141287961
21
174.8488187018
12
108.3727894472
22
174.8664638702
13
108.3727894472
23
174.8664638702
0
SOLID
5
6C8
100
AcDbEntity
8
035
100
AcDbTrace
62
4
6
CONTINUOUS
10
108.3141287961
20
174.8488187018
11
108.1317480115
21
174.8503976066
12
108.1922315671
22
174.8406938206
13
108.1922315671
23
174.8406938206
0
SOLID
5
6C9
100
AcDbEntity
8
035
100
AcDbTrace
62
4
6
CONTINUOUS
10
108.1922315671
20
174.8406938206
11
108.2534863036
21
174.8401635268
12
108.3141287961
22
174.8488187018
13
108.3141287961
23
174.8488187018
0
ARC
5
6CA
100
AcDbEntity
8
035
100
AcDbCircle
62
4
6
CONTINUOUS
39
1755644792
10
106.7997430025
20
172.7758728047
40
2.8532674730
100
AcDbArc
50
150.0001582036
51
215.0000695714
0
ARC
5
6CB
100
AcDbEntity
8
035
100
AcDbCircle
62
4
6
CONTINUOUS
39
1755644792
10
106.7997458047
20
172.7758679975
40
2.8532674730
100
AcDbArc
50
60.0001582036
51
125.0000695714
0
LINE
5
6CC
100
AcDbEntity
8
035
100
AcDbLine
62
4
6
CONTINUOUS
39
1755644792
10
106.7997420000
20
175.6291402192
11
106.7997420000
21
169.9225977808
0
ARC
5
6CD
100
AcDbEntity
8
035
100
AcDbCircle
62
4
6
CONTINUOUS
39
1755644792
10
106.7997420000
20
172.7758690000
40
4.4837035308
100
AcDbArc
50
180.0000000000
51
360.0000000000
0
ARC
5
6CE
100
AcDbEntity
8
035
100
AcDbCircle
62
4
6
CONTINUOUS
39
1755644792
10
106.7997420000
20
172.7758690000
40
4.4837035308
100
AcDbArc
50
0.0000000000
51
180.0000000000
0
LINE
5
6CF
100
AcDbEntity
8
025
100
AcDbLine
62
4
6
CONTINUOUS
10
91.6190200000
20
148.3192850000
11
92.0469540000
21
143.4279680000
0
LINE
5
6D0
100
AcDbEntity
8
025
100
AcDbLine
62
4
6
CONTINUOUS
10
91.8756130000
20
153.2106020000
11
92.3035480000
21
148.3192850000
0
LINE
5
6D1
100
AcDbEntity
8
025
100
AcDbLine
62
4
6
CONTINUOUS
10
91.3624260000
20
143.4279680000
11
91.7903610000
21
138.5366520000
0
LINE
5
6D2
100
AcDbEntity
8
025
100
AcDbLine
62
4
6
CONTINUOUS
10
122.2370590000
20
143.4279680000
11
121.8091240000
21
138.5366520000
0
LINE
5
6D3
100
AcDbEntity
8
025
100
AcDbLine
62
4
6
CONTINUOUS
10
120.0281950000
20
158.1019180000
11
118.4596050000
21
158.1019180000
0
LINE
5
6D4
100
AcDbEntity
8
025
100
AcDbLine
62
4
6
CONTINUOUS
10
120.9432050000
20
143.4279680000
11
119.4399740000
21
143.4279680000
0
LINE
5
6D5
100
AcDbEntity
8
025
100
AcDbLine
62
4
6
CONTINUOUS
10
92.1322070000
20
158.1019180000
11
92.5601420000
21
153.2106020000
0
LINE
5
6D6
100
AcDbEntity
8
025
100
AcDbLine
62
4
6
CONTINUOUS
10
121.9804650000
20
148.3192850000
11
121.5525300000
21
143.4279680000
0
LINE
5
6D7
100
AcDbEntity
8
025
100
AcDbLine
62
4
6
CONTINUOUS
10
121.7238710000
20
153.2106020000
11
121.2959370000
21
148.3192850000
0
LINE
5
6D8
100
AcDbEntity
8
025
100
AcDbLine
62
4
6
CONTINUOUS
10
121.4672780000
20
158.1019180000
11
121.0393430000
21
153.2106020000
0
LINE
5
6D9
100
AcDbEntity
8
025
100
AcDbLine
62
4
6
CONTINUOUS
10
121.4672780000
20
158.1019180000
11
120.8124900000
21
158.1019180000
0
LINE
5
6DA
100
AcDbEntity
8
025
100
AcDbLine
62
4
6
CONTINUOUS
10
121.7238710000
20
153.2106020000
11
119.6360470000
21
153.2106020000
0
LINE
5
6DB
100
AcDbEntity
8
025
100
AcDbLine
62
4
6
CONTINUOUS
10
121.9804650000
20
148.3192850000
11
118.7863940000
21
148.3192850000
0
LINE
5
6DC
100
AcDbEntity
8
025
100
AcDbLine
62
4
6
CONTINUOUS
10
120.0281950000
20
138.5366520000
11
118.5249630000
21
138.5366520000
0
LINE
5
6DD
100
AcDbEntity
8
025
100
AcDbLine
62
4
6
CONTINUOUS
10
122.4936520000
20
138.5366520000
11
121.2046370000
21
138.5366520000
0
LINE
5
6DE
100
AcDbEntity
8
025
100
AcDbLine
62
4
6
CONTINUOUS
10
113.4973400000
20
109.4932690000
11
114.7236750000
21
122.0841050000
0
LINE
5
6DF
100
AcDbEntity
8
025
100
AcDbLine
62
4
6
CONTINUOUS
10
91.0299110000
20
122.0841050000
11
91.0299110000
21
130.8633100000
0
LINE
5
6E0
100
AcDbEntity
8
025
100
AcDbLine
62
4
6
CONTINUOUS
10
101.3794530000
20
122.0841050000
11
101.3794530000
21
130.8884750000
0
LINE
5
6E1
100
AcDbEntity
8
025
100
AcDbLine
62
4
6
CONTINUOUS
10
98.8758090000
20
122.0841050000
11
98.8758090000
21
130.8884750000
0
LINE
5
6E2
100
AcDbEntity
8
025
100
AcDbLine
62
4
6
CONTINUOUS
10
96.6129300000
20
122.0841050000
11
96.6129300000
21
130.8884750000
0
LINE
5
6E3
100
AcDbEntity
8
025
100
AcDbLine
62
4
6
CONTINUOUS
10
94.6595730000
20
122.0841050000
11
94.6595730000
21
130.8884750000
0
LINE
5
6E4
100
AcDbEntity
8
025
100
AcDbLine
62
4
6
CONTINUOUS
10
93.0750880000
20
122.0841050000
11
93.0750880000
21
130.8884750000
0
LINE
5
6E5
100
AcDbEntity
8
025
100
AcDbLine
62
4
6
CONTINUOUS
10
91.9076190000
20
122.0841050000
11
91.9076190000
21
130.8884750000
0
LINE
5
6E6
100
AcDbEntity
8
025
100
AcDbLine
62
4
6
CONTINUOUS
10
106.7997420000
20
122.0841050000
11
106.7997420000
21
130.8884750000
0
LINE
5
6E7
100
AcDbEntity
8
025
100
AcDbLine
62
4
6
CONTINUOUS
10
109.5516950000
20
127.8550160000
11
109.5516950000
21
130.8884750000
0
LINE
5
6E8
100
AcDbEntity
8
025
100
AcDbLine
62
4
6
CONTINUOUS
10
104.0477890000
20
125.1382900000
11
104.0477890000
21
130.8884750000
0
LINE
5
6E9
100
AcDbEntity
8
025
100
AcDbLine
62
4
6
CONTINUOUS
10
98.8758090000
20
122.0841050000
11
97.7097800000
21
109.4932690000
0
LINE
5
6EA
100
AcDbEntity
8
025
100
AcDbLine
62
4
6
CONTINUOUS
10
91.0299110000
20
122.0841050000
11
91.4687650000
21
109.4932690000
0
LINE
5
6EB
100
AcDbEntity
8
025
100
AcDbLine
62
4
6
CONTINUOUS
10
91.9076190000
20
122.0841050000
11
91.4687650000
21
109.4932690000
0
LINE
5
6EC
100
AcDbEntity
8
025
100
AcDbLine
62
4
6
CONTINUOUS
10
97.7097800000
20
109.4932690000
11
96.6129300000
21
122.0841050000
0
LINE
5
6ED
100
AcDbEntity
8
025
100
AcDbLine
62
4
6
CONTINUOUS
10
93.0750880000
20
122.0841050000
11
92.4366980000
21
109.4932690000
0
LINE
5
6EE
100
AcDbEntity
8
025
100
AcDbLine
62
4
6
CONTINUOUS
10
93.8179300000
20
109.4932690000
11
93.0750880000
21
122.0841050000
0
LINE
5
6EF
100
AcDbEntity
8
025
100
AcDbLine
62
4
6
CONTINUOUS
10
94.6595730000
20
122.0841050000
11
93.8179300000
21
109.4932690000
0
LINE
5
6F0
100
AcDbEntity
8
025
100
AcDbLine
62
4
6
CONTINUOUS
10
95.5936090000
20
109.4932690000
11
94.6595730000
21
122.0841050000
0
LINE
5
6F1
100
AcDbEntity
8
025
100
AcDbLine
62
4
6
CONTINUOUS
10
96.6129300000
20
122.0841050000
11
95.5936090000
21
109.4932690000
0
LINE
5
6F2
100
AcDbEntity
8
025
100
AcDbLine
62
4
6
CONTINUOUS
10
92.4366980000
20
109.4932690000
11
91.9076190000
21
122.0841050000
0
LINE
5
6F3
100
AcDbEntity
8
025
100
AcDbLine
62
4
6
CONTINUOUS
10
91.0299110000
20
122.0841050000
11
90.9246420000
21
117.2745920000
0
LINE
5
6F4
100
AcDbEntity
8
025
100
AcDbLine
62
4
6
CONTINUOUS
10
104.7445680000
20
115.6838030000
11
104.5775000000
21
117.2184140000
0
LINE
5
6F5
100
AcDbEntity
8
025
100
AcDbLine
62
4
6
CONTINUOUS
10
100.9665170000
20
118.0136620000
11
100.8568050000
21
116.9322000000
0
LINE
5
6F6
100
AcDbEntity
8
025
100
AcDbLine
62
4
6
CONTINUOUS
10
106.7997420000
20
122.0841050000
11
107.4461600000
21
116.1915900000
0
LINE
5
6F7
100
AcDbEntity
8
025
100
AcDbLine
62
4
6
CONTINUOUS
10
102.6980130000
20
109.4932690000
11
101.3794530000
21
122.0841050000
0
LINE
5
6F8
100
AcDbEntity
8
025
100
AcDbLine
62
4
6
CONTINUOUS
10
100.1021450000
20
109.4932690000
11
98.8758090000
21
122.0841050000
0
LINE
5
6F9
100
AcDbEntity
8
025
100
AcDbLine
62
4
6
CONTINUOUS
10
104.0477890000
20
122.0841050000
11
102.6980130000
21
109.4932690000
0
LINE
5
6FA
100
AcDbEntity
8
025
100
AcDbLine
62
4
6
CONTINUOUS
10
110.9014720000
20
109.4932690000
11
112.2200320000
21
122.0841050000
0
LINE
5
6FB
100
AcDbEntity
8
025
100
AcDbLine
62
4
6
CONTINUOUS
10
109.5516950000
20
122.0841050000
11
110.9014720000
21
109.4932690000
0
LINE
5
6FC
100
AcDbEntity
8
025
100
AcDbLine
62
4
6
CONTINUOUS
10
112.2200320000
20
122.0841050000
11
113.4973400000
21
109.4932690000
0
LINE
5
6FD
100
AcDbEntity
8
025
100
AcDbLine
62
4
6
CONTINUOUS
10
106.0184740000
20
114.9623370000
11
105.4185100000
21
109.4932690000
0
LINE
5
6FE
100
AcDbEntity
8
025
100
AcDbLine
62
4
6
CONTINUOUS
10
105.4185100000
20
109.4932690000
11
104.8480900000
21
114.7328980000
0
LINE
5
6FF
100
AcDbEntity
8
025
100
AcDbLine
62
4
6
CONTINUOUS
10
100.6175310000
20
114.5735950000
11
100.1021450000
21
109.4932690000
0
LINE
5
700
100
AcDbEntity
8
025
100
AcDbLine
62
4
6
CONTINUOUS
10
108.1809750000
20
109.4932690000
11
108.9179200000
21
116.2625210000
0
LINE
5
701
100
AcDbEntity
8
025
100
AcDbLine
62
4
6
CONTINUOUS
10
107.6199610000
20
114.6072780000
11
107.9784890000
21
111.3390640000
0
LINE
5
702
100
AcDbEntity
8
025
100
AcDbLine
62
4
6
CONTINUOUS
10
104.0477890000
20
122.0841050000
11
104.0477890000
21
123.6667290000
0
LINE
5
703
100
AcDbEntity
8
025
100
AcDbLine
62
4
6
CONTINUOUS
10
104.3623790000
20
119.1944210000
11
104.0477890000
21
122.0841050000
0
LINE
5
704
100
AcDbEntity
8
025
100
AcDbLine
62
4
6
CONTINUOUS
10
109.5516950000
20
122.0841050000
11
109.5516950000
21
123.4403340000
0
LINE
5
705
100
AcDbEntity
8
025
100
AcDbLine
62
4
6
CONTINUOUS
10
112.2200320000
20
122.0841050000
11
112.2200320000
21
128.7046990000
0
LINE
5
706
100
AcDbEntity
8
025
100
AcDbLine
62
4
6
CONTINUOUS
10
109.2250460000
20
119.0836510000
11
109.5516950000
21
122.0841050000
0
LINE
5
707
100
AcDbEntity
8
025
100
AcDbLine
62
4
6
CONTINUOUS
10
109.5516950000
20
125.1382900000
11
109.5516950000
21
126.4400540000
0
LINE
5
708
100
AcDbEntity
8
025
100
AcDbLine
62
4
6
CONTINUOUS
10
112.2200320000
20
129.4300620000
11
112.2200320000
21
130.7415400000
0
LINE
5
709
100
AcDbEntity
8
025
100
AcDbLine
62
4
6
CONTINUOUS
10
122.5695740000
20
122.0841050000
11
122.5695740000
21
130.8633100000
0
LINE
5
70A
100
AcDbEntity
8
025
100
AcDbLine
62
4
6
CONTINUOUS
10
120.5243970000
20
122.0841050000
11
120.5243970000
21
130.8884750000
0
LINE
5
70B
100
AcDbEntity
8
025
100
AcDbLine
62
4
6
CONTINUOUS
10
118.9399120000
20
122.0841050000
11
118.9399120000
21
130.8884750000
0
LINE
5
70C
100
AcDbEntity
8
025
100
AcDbLine
62
4
6
CONTINUOUS
10
116.9865540000
20
122.0841050000
11
116.9865540000
21
130.8884750000
0
LINE
5
70D
100
AcDbEntity
8
025
100
AcDbLine
62
4
6
CONTINUOUS
10
114.7236750000
20
122.0841050000
11
114.7236750000
21
130.8884750000
0
LINE
5
70E
100
AcDbEntity
8
025
100
AcDbLine
62
4
6
CONTINUOUS
10
121.6918650000
20
122.0841050000
11
121.6918650000
21
130.8884750000
0
LINE
5
70F
100
AcDbEntity
8
025
100
AcDbLine
62
4
6
CONTINUOUS
10
122.5695740000
20
122.0841050000
11
122.1307190000
21
109.4932690000
0
LINE
5
710
100
AcDbEntity
8
025
100
AcDbLine
62
4
6
CONTINUOUS
10
121.6918650000
20
122.0841050000
11
122.1307190000
21
109.4932690000
0
LINE
5
711
100
AcDbEntity
8
025
100
AcDbLine
62
4
6
CONTINUOUS
10
120.2101430000
20
116.7576540000
11
120.5243970000
21
122.0841050000
0
LINE
5
712
100
AcDbEntity
8
025
100
AcDbLine
62
4
6
CONTINUOUS
10
116.2395410000
20
113.5090690000
11
116.8825740000
21
120.8905010000
0
LINE
5
713
100
AcDbEntity
8
025
100
AcDbLine
62
4
6
CONTINUOUS
10
118.5305470000
20
116.5658450000
11
118.8413870000
21
120.7559820000
0
LINE
5
714
100
AcDbEntity
8
025
100
AcDbLine
62
4
6
CONTINUOUS
10
114.7236750000
20
122.0841050000
11
115.8897050000
21
109.4932690000
0
LINE
5
715
100
AcDbEntity
8
025
100
AcDbLine
62
4
6
CONTINUOUS
10
116.9865540000
20
122.0841050000
11
118.0058760000
21
109.4932690000
0
LINE
5
716
100
AcDbEntity
8
025
100
AcDbLine
62
4
6
CONTINUOUS
10
118.9399120000
20
122.0841050000
11
119.7815540000
21
109.4932690000
0
LINE
5
717
100
AcDbEntity
8
025
100
AcDbLine
62
4
6
CONTINUOUS
10
121.1627870000
20
109.4932690000
11
121.6918650000
21
122.0841050000
0
LINE
5
718
100
AcDbEntity
8
025
100
AcDbLine
62
4
6
CONTINUOUS
10
120.5243970000
20
122.0841050000
11
121.1627870000
21
109.4932690000
0
LINE
5
719
100
AcDbEntity
8
025
100
AcDbLine
62
4
6
CONTINUOUS
10
115.8897050000
20
109.4932690000
11
116.1870210000
21
112.9061920000
0
LINE
5
71A
100
AcDbEntity
8
025
100
AcDbLine
62
4
6
CONTINUOUS
10
119.7815540000
20
109.4932690000
11
119.9996330000
21
113.1895990000
0
LINE
5
71B
100
AcDbEntity
8
025
100
AcDbLine
62
4
6
CONTINUOUS
10
120.0407540000
20
113.8865780000
11
120.1299750000
21
115.3988330000
0
LINE
5
71C
100
AcDbEntity
8
025
100
AcDbLine
62
4
6
CONTINUOUS
10
118.2896820000
20
113.3189810000
11
118.4720320000
21
115.7770720000
0
LINE
5
71D
100
AcDbEntity
8
025
100
AcDbLine
62
4
6
CONTINUOUS
10
122.5695740000
20
122.0841050000
11
122.6748420000
21
117.2745920000
0
LINE
5
71E
100
AcDbEntity
8
0
100
AcDbLine
62
4
6
CONTINUOUS
10
90.6019230000
20
121.0896870000
11
90.6019230000
21
58.6345720000
0
LINE
5
71F
100
AcDbEntity
8
0
100
AcDbLine
62
4
6
CONTINUOUS
10
122.9975610000
20
121.0896870000
11
122.9975610000
21
76.8101480000
0
LINE
5
720
100
AcDbEntity
8
0
100
AcDbLine
62
4
6
CONTINUOUS
10
94.1019230000
20
59.4345720000
11
119.4975610000
21
59.4345720000
0
LINE
5
721
100
AcDbEntity
8
0
100
AcDbLine
62
4
6
CONTINUOUS
10
94.1019230000
20
58.8512390000
11
90.6019230000
21
59.4345720000
0
LINE
5
722
100
AcDbEntity
8
0
100
AcDbLine
62
4
6
CONTINUOUS
10
90.6019230000
20
59.4345720000
11
94.1019230000
21
60.0179050000
0
LINE
5
723
100
AcDbEntity
8
0
100
AcDbLine
62
4
6
CONTINUOUS
10
94.1019230000
20
60.0179050000
11
94.1019230000
21
58.8512390000
0
SOLID
5
724
100
AcDbEntity
8
0
100
AcDbTrace
62
4
6
CONTINUOUS
10
90.6019230000
20
59.4345720000
11
94.1019230000
21
58.8512390000
12
94.1019230000
22
60.0179050000
13
94.1019230000
23
60.0179050000
0
LINE
5
725
100
AcDbEntity
8
0
100
AcDbLine
62
4
6
CONTINUOUS
10
119.4975610000
20
58.8512390000
11
122.9975610000
21
59.4345720000
0
LINE
5
726
100
AcDbEntity
8
0
100
AcDbLine
62
4
6
CONTINUOUS
10
122.9975610000
20
59.4345720000
11
119.4975610000
21
60.0179050000
0
LINE
5
727
100
AcDbEntity
8
0
100
AcDbLine
62
4
6
CONTINUOUS
10
119.4975610000
20
60.0179050000
11
119.4975610000
21
58.8512390000
0
SOLID
5
728
100
AcDbEntity
8
0
100
AcDbTrace
62
4
6
CONTINUOUS
10
122.9975610000
20
59.4345720000
11
119.4975610000
21
60.0179050000
12
119.4975610000
22
58.8512390000
13
119.4975610000
23
58.8512390000
0
LINE
5
729
100
AcDbEntity
8
0
100
AcDbLine
62
4
6
CONTINUOUS
10
107.5997420000
20
261.0609960000
11
142.5310540000
21
261.0609960000
0
LINE
5
72A
100
AcDbEntity
8
0
100
AcDbLine
62
4
6
CONTINUOUS
10
116.6476250000
20
74.3834960000
11
142.5310540000
21
74.3834960000
0
LINE
5
72B
100
AcDbEntity
8
0
100
AcDbLine
62
4
6
CONTINUOUS
10
141.7310540000
20
257.5609960000
11
141.7310540000
21
77.8834960000
0
LINE
5
72C
100
AcDbEntity
8
0
100
AcDbLine
62
4
6
CONTINUOUS
10
142.3143880000
20
257.5609960000
11
141.7310540000
21
261.0609960000
0
LINE
5
72D
100
AcDbEntity
8
0
100
AcDbLine
62
4
6
CONTINUOUS
10
141.7310540000
20
261.0609960000
11
141.1477210000
21
257.5609960000
0
LINE
5
72E
100
AcDbEntity
8
0
100
AcDbLine
62
4
6
CONTINUOUS
10
141.1477210000
20
257.5609960000
11
142.3143880000
21
257.5609960000
0
SOLID
5
72F
100
AcDbEntity
8
0
100
AcDbTrace
62
4
6
CONTINUOUS
10
141.1477210000
20
257.5609960000
11
142.3143880000
21
257.5609960000
12
141.7310540000
22
261.0609960000
13
141.7310540000
23
261.0609960000
0
LINE
5
730
100
AcDbEntity
8
0
100
AcDbLine
62
4
6
CONTINUOUS
10
142.3143880000
20
77.8834960000
11
141.7310540000
21
74.3834960000
0
LINE
5
731
100
AcDbEntity
8
0
100
AcDbLine
62
4
6
CONTINUOUS
10
141.7310540000
20
74.3834960000
11
141.1477210000
21
77.8834960000
0
LINE
5
732
100
AcDbEntity
8
0
100
AcDbLine
62
4
6
CONTINUOUS
10
141.1477210000
20
77.8834960000
11
142.3143880000
21
77.8834960000
0
SOLID
5
733
100
AcDbEntity
8
0
100
AcDbTrace
62
4
6
CONTINUOUS
10
142.3143880000
20
77.8834960640
11
141.1477210000
21
77.8834960640
12
141.7310540000
22
74.3834960000
13
141.7310540000
23
74.3834960000
0
LINE
5
734
100
AcDbEntity
8
0
100
AcDbLine
62
4
6
CONTINUOUS
10
100.5066950000
20
256.0123040000
11
100.5066950000
21
268.1255670000
0
LINE
5
735
100
AcDbEntity
8
0
100
AcDbLine
62
4
6
CONTINUOUS
10
113.0927900000
20
255.6357090000
11
113.0927900000
21
259.5512270000
0
LINE
5
736
100
AcDbEntity
8
0
100
AcDbLine
62
4
6
CONTINUOUS
10
93.9867870000
20
267.3255670000
11
119.6126980000
21
267.3255670000
0
LINE
5
737
100
AcDbEntity
8
0
100
AcDbLine
62
4
6
CONTINUOUS
10
97.0066950000
20
266.7422340000
11
100.5066950000
21
267.3255670000
0
LINE
5
738
100
AcDbEntity
8
0
100
AcDbLine
62
4
6
CONTINUOUS
10
100.5066950000
20
267.3255670000
11
97.0066950000
21
267.9089010000
0
LINE
5
739
100
AcDbEntity
8
0
100
AcDbLine
62
4
6
CONTINUOUS
10
97.0066950000
20
267.9089010000
11
97.0066950000
21
266.7422340000
0
SOLID
5
73A
100
AcDbEntity
8
0
100
AcDbTrace
62
4
6
CONTINUOUS
10
100.5066950000
20
267.3255670000
11
97.0066950000
21
267.9089010000
12
97.0066950000
22
266.7422340000
13
97.0066950000
23
266.7422340000
0
LINE
5
73B
100
AcDbEntity
8
0
100
AcDbLine
62
4
6
CONTINUOUS
10
116.5927900000
20
267.9089010000
11
113.0927900000
21
267.3255670000
0
LINE
5
73C
100
AcDbEntity
8
0
100
AcDbLine
62
4
6
CONTINUOUS
10
113.0927900000
20
267.3255670000
11
116.5927900000
21
266.7422340000
0
LINE
5
73D
100
AcDbEntity
8
0
100
AcDbLine
62
4
6
CONTINUOUS
10
116.5927900000
20
266.7422340000
11
116.5927900000
21
267.9089010000
0
SOLID
5
73E
100
AcDbEntity
8
0
100
AcDbTrace
62
4
6
CONTINUOUS
10
113.0927900000
20
267.3255670000
11
116.5927900000
21
266.7422340000
12
116.5927900000
22
267.9089010000
13
116.5927900000
23
267.9089010000
0
LINE
5
73F
100
AcDbEntity
8
0
100
AcDbLine
62
4
6
CONTINUOUS
10
113.0927900000
20
262.3944170000
11
113.0927900000
21
268.1255670000
0
LINE
5
740
100
AcDbEntity
8
0
100
AcDbLine
62
4
6
CONTINUOUS
10
122.9975610000
20
72.3153210000
11
122.9975610000
21
58.6345720000
0
TEXT
5
741
100
AcDbEntity
8
05
100
AcDbText
62
4
6
CONTINUOUS
10
155.0000000000
20
11.0000000000
40
1.5000000000
1
Zeichn. Nr.
51
15.0000000000
72
5
11
166.1785714286
21
11.0000000000
100
AcDbText
0
TEXT
5
742
100
AcDbEntity
8
05
100
AcDbText
62
4
6
CONTINUOUS
10
155.0000000000
20
28.0000000000
40
1.5000000000
1
Ersetzt durch:         Blatt
51
15.0000000000
72
5
11
184.1428571429
21
28.0000000000
100
AcDbText
0
TEXT
5
743
100
AcDbEntity
8
05
100
AcDbText
62
4
6
CONTINUOUS
10
155.0000000000
20
43.0000000000
40
1.5000000000
1
Gezeichnet
51
15.0000000000
72
5
11
165.2142857143
21
43.0000000000
100
AcDbText
0
TEXT
5
744
100
AcDbEntity
8
05
100
AcDbText
62
4
6
CONTINUOUS
10
155.0000000000
20
32.0000000000
40
1.5000000000
1
Gesehen
51
15.0000000000
72
5
11
162.6071428571
21
32.0000000000
100
AcDbText
0
TEXT
5
745
100
AcDbEntity
8
05
100
AcDbText
62
4
6
CONTINUOUS
10
174.0000000000
20
47.0000000000
40
1.5000000000
1
Datum     Name
51
15.0000000000
72
5
11
190.3571428571
21
47.0000000000
100
AcDbText
0
TEXT
5
746
100
AcDbEntity
8
05
100
AcDbText
62
4
6
CONTINUOUS
10
114.0000000000
20
47.0000000000
40
1.5000000000
1
Werkstoff:      Massstab:
51
15.0000000000
72
5
11
140.5714285714
21
47.0000000000
100
AcDbText
0
TEXT
5
747
100
AcDbEntity
8
05
100
AcDbText
62
4
6
CONTINUOUS
10
73.0000000000
20
28.0000000000
40
1.5000000000
1
Benennung:
51
15.0000000000
72
5
11
83.2857142857
21
28.0000000000
100
AcDbText
0
TEXT
5
748
100
AcDbEntity
8
05
100
AcDbText
62
4
6
CONTINUOUS
10
73.0000000000
20
44.0000000000
40
1.5000000000
1
*)Lieferant darf ohne 
51
15.0000000000
72
5
11
95.1428571429
21
44.0000000000
100
AcDbText
0
TEXT
5
749
100
AcDbEntity
8
05
100
AcDbText
62
4
6
CONTINUOUS
10
73.0000000000
20
41.5000000000
40
1.5000000000
1
 Ruecksprache nicht 
51
15.0000000000
72
5
11
93.9285714286
21
41.5000000000
100
AcDbText
0
TEXT
5
74A
100
AcDbEntity
8
05
100
AcDbText
62
4
6
CONTINUOUS
10
73.0000000000
20
39.0000000000
40
1.5000000000
1
 geaendert werden
51
15.0000000000
72
5
11
91.4285714286
21
39.0000000000
100
AcDbText
0
TEXT
5
74B
100
AcDbEntity
8
05
100
AcDbText
62
4
6
CONTINUOUS
10
73.0000000000
20
35.0000000000
40
1.5000000000
1
Zeichnung urheberrechtlich
51
15.0000000000
72
5
11
99.3214285714
21
35.0000000000
100
AcDbText
0
TEXT
5
74C
100
AcDbEntity
8
05
100
AcDbText
62
4
6
CONTINUOUS
10
73.0000000000
20
32.5000000000
40
1.5000000000
1
geschuetzt (DIN 34) (C)
51
15.0000000000
72
5
11
96.2857142857
21
32.5000000000
100
AcDbText
0
TEXT
5
74D
100
AcDbEntity
8
05
100
AcDbText
62
4
6
CONTINUOUS
10
155.0000000000
20
37.0000000000
40
1.5000000000
1
Geprueft
51
15.0000000000
72
5
11
163.1428571429
21
37.0000000000
100
AcDbText
0
TEXT
5
74E
100
AcDbEntity
8
05
100
AcDbText
62
4
6
CONTINUOUS
10
155.0000000000
20
20.0000000000
40
1.5000000000
1
Ersatz fuer:           von  Blatt
51
15.0000000000
72
5
11
190.0357142857
21
20.0000000000
100
AcDbText
0
TEXT
5
74F
100
AcDbEntity
8
05
100
AcDbText
62
4
6
CONTINUOUS
10
8.0000000000
20
6.0000000000
40
1.5000000000
1
Ind.  Aenderung             Datum   
51
15.0000000000
72
5
11
48.6785714286
21
6.0000000000
100
AcDbText
0
TEXT
5
750
100
AcDbEntity
8
05
100
AcDbText
62
4
6
CONTINUOUS
10
48.6785714286
20
6.0000000000
40
1.5000000000
1
 Name
51
15.0000000000
72
5
11
54.5714285714
21
6.0000000000
100
AcDbText
0
TEXT
5
751
100
AcDbEntity
8
035
100
AcDbText
62
4
6
CONTINUOUS
10
127.4230740000
20
8.2646360000
40
2.4848480000
1
FL-9494 SCHAAN
51
15.0000000000
72
5
11
154.5197498095
21
8.2646360000
100
AcDbText
0
TEXT
5
752
100
AcDbEntity
8
05
100
AcDbText
62
4
6
CONTINUOUS
10
190.8452380952
20
42.0000000000
40
2.5000000000
1
Alinjak
72
5
11
202.1547619048
21
42.0000000000
100
AcDbText
0
TEXT
5
753
100
AcDbEntity
8
05
100
AcDbText
62
4
6
CONTINUOUS
10
173.4464285714
20
42.0000000000
40
2.5000000000
1
10.08.98
51
15.0000000000
72
5
11
187.5535714286
21
42.0000000000
100
AcDbText
0
TEXT
5
754
100
AcDbEntity
8
05
100
AcDbText
62
2
6
CONTINUOUS
10
105.2023809524
20
17.5000000000
40
5.0000000000
1
NP3C
51
15.0000000000
72
5
11
120.7976190476
21
17.5000000000
100
AcDbText
0
TEXT
5
755
100
AcDbEntity
8
05
100
AcDbText
62
3
6
CONTINUOUS
10
96.0012096667
20
26.0821910000
40
3.5000000000
1
1/4" Phone Plugs
51
15.0000000000
72
5
11
135.9178763333
21
26.0821910000
100
AcDbText
0
TEXT
5
756
100
AcDbEntity
8
05
100
AcDbText
62
3
6
CONTINUOUS
10
167.4497810000
20
6.9765410000
40
3.5000000000
1
3102 St 06 02
51
15.0000000000
72
5
11
201.4497810000
21
6.9765410000
100
AcDbText
0
TEXT
5
757
100
AcDbEntity
8
05
100
AcDbText
62
2
6
CONTINUOUS
10
140.1482807143
20
39.6560560000
40
5.0000000000
1
2:1
51
15.0000000000
72
5
11
148.7197092857
21
39.6560560000
100
AcDbText
0
TEXT
5
758
100
AcDbEntity
8
035
100
AcDbText
62
3
6
CONTINUOUS
10
95.2275720000
20
281.2121610000
40
5.5000000000
1
NP3C
51
12.0000000000
72
5
11
112.3823339048
21
281.2121610000
100
AcDbText
0
TEXT
5
759
100
AcDbEntity
8
0
100
AcDbText
62
3
6
CONTINUOUS
10
140.7310540000
20
150.1503910000
40
3.5000000000
1
95.00 [3.740"]
50
90.0000000000
72
5
11
140.7310540000
21
183.6503910000
100
AcDbText
0
TEXT
5
75A
100
AcDbEntity
8
0
100
AcDbText
62
3
6
CONTINUOUS
10
89.7723676667
20
268.7880260000
40
3.5000000000
1
%%c6.29 [0.248"]
72
5
11
125.6890343333
21
268.7880260000
100
AcDbText
0
TEXT
5
75B
100
AcDbEntity
8
0
100
AcDbText
62
3
6
CONTINUOUS
10
92.3021780000
20
60.8716710000
40
3.5000000000
1
%%c16.20 [0.638"]
51
15.0000000000
72
5
11
129.9688446667
21
60.8716710000
100
AcDbText
0
ENDSEC
0
SECTION
2
OBJECTS
0
DICTIONARY
5
75C
100
AcDbDictionary
3
ACAD_GROUP
350
75D
3
ACAD_MLINESTYLE
350
75E
0
DICTIONARY
5
75D
102
{ACAD_REACTORS
330
75C
102
}
100
AcDbDictionary
0
DICTIONARY
5
75E
102
{ACAD_REACTORS
330
75C
102
}
100
AcDbDictionary
3
STANDARD
350
75F
0
MLINESTYLE
5
75F
102
{ACAD_REACTORS
330
75E
102
}
100
AcDbMlineStyle
2
STANDARD
70
0
3

62
256
51
90.0
52
90.0
71
2
49
0.5
62
256
6
BYLAYER
49
-0.5
62
256
6
BYLAYER
0
ENDSEC
0
EOF
